  0
SECTION
  2
HEADER
  9
$ACADVER
  1
AC1014
  9
$ACADMAINTVER
 70
     9
  9
$DWGCODEPAGE
  3
ANSI_949
  9
$INSBASE
 10
0.0
 20
0.0
 30
0.0
  9
$EXTMIN
 10
93.58273502344104
 20
171.7034926797537
 30
-0.0000000000000053
  9
$EXTMAX
 10
691.9459245313723
 20
440.2581798521082
 30
0.0000000000000099
  9
$LIMMIN
 10
10.0
 20
10.0
  9
$LIMMAX
 10
771.0
 20
560.0
  9
$ORTHOMODE
 70
     0
  9
$REGENMODE
 70
     1
  9
$FILLMODE
 70
     1
  9
$QTEXTMODE
 70
     0
  9
$MIRRTEXT
 70
     1
  9
$DRAGMODE
 70
     2
  9
$LTSCALE
 40
10.0
  9
$OSMODE
 70
    37
  9
$ATTMODE
 70
     1
  9
$TEXTSIZE
 40
4.0
  9
$TRACEWID
 40
0.05
  9
$TEXTSTYLE
  7
STANDARD
  9
$CLAYER
  8
0
  9
$CELTYPE
  6
BYLAYER
  9
$CECOLOR
 62
   256
  9
$CELTSCALE
 40
1.0
  9
$DELOBJ
 70
     1
  9
$DISPSILH
 70
     0
  9
$DIMSCALE
 40
1.5
  9
$DIMASZ
 40
2.299999999999998
  9
$DIMEXO
 40
0.5
  9
$DIMDLI
 40
8.0
  9
$DIMRND
 40
0.0
  9
$DIMDLE
 40
0.0
  9
$DIMEXE
 40
1.0
  9
$DIMTP
 40
0.0
  9
$DIMTM
 40
0.000000001
  9
$DIMTXT
 40
2.299999999999998
  9
$DIMCEN
 40
0.09
  9
$DIMTSZ
 40
0.0
  9
$DIMTOL
 70
     0
  9
$DIMLIM
 70
     0
  9
$DIMTIH
 70
     0
  9
$DIMTOH
 70
     0
  9
$DIMSE1
 70
     0
  9
$DIMSE2
 70
     0
  9
$DIMTAD
 70
     1
  9
$DIMZIN
 70
     8
  9
$DIMBLK
  1

  9
$DIMASO
 70
     1
  9
$DIMSHO
 70
     1
  9
$DIMPOST
  1

  9
$DIMAPOST
  1

  9
$DIMALT
 70
     0
  9
$DIMALTD
 70
     1
  9
$DIMALTF
 40
25.4
  9
$DIMLFAC
 40
1.0
  9
$DIMTOFL
 70
     1
  9
$DIMTVP
 40
0.0
  9
$DIMTIX
 70
     0
  9
$DIMSOXD
 70
     0
  9
$DIMSAH
 70
     0
  9
$DIMBLK1
  1

  9
$DIMBLK2
  1

  9
$DIMSTYLE
  2
STANDARD
  9
$DIMCLRD
 70
     5
  9
$DIMCLRE
 70
     5
  9
$DIMCLRT
 70
     3
  9
$DIMTFAC
 40
0.7
  9
$DIMGAP
 40
0.5
  9
$DIMJUST
 70
     0
  9
$DIMSD1
 70
     0
  9
$DIMSD2
 70
     0
  9
$DIMTOLJ
 70
     1
  9
$DIMTZIN
 70
     0
  9
$DIMALTZ
 70
     0
  9
$DIMALTTZ
 70
     0
  9
$DIMFIT
 70
     3
  9
$DIMUPT
 70
     1
  9
$DIMUNIT
 70
     2
  9
$DIMDEC
 70
     1
  9
$DIMTDEC
 70
     1
  9
$DIMALTU
 70
     2
  9
$DIMALTTD
 70
     1
  9
$DIMTXSTY
  7
STANDARD
  9
$DIMAUNIT
 70
     0
  9
$LUNITS
 70
     2
  9
$LUPREC
 70
     4
  9
$SKETCHINC
 40
0.1
  9
$FILLETRAD
 40
0.5
  9
$AUNITS
 70
     0
  9
$AUPREC
 70
     0
  9
$MENU
  1
.
  9
$ELEVATION
 40
0.0
  9
$PELEVATION
 40
0.0
  9
$THICKNESS
 40
0.0
  9
$LIMCHECK
 70
     0
  9
$BLIPMODE
 70
     0
  9
$CHAMFERA
 40
0.5
  9
$CHAMFERB
 40
0.5
  9
$CHAMFERC
 40
1.0
  9
$CHAMFERD
 40
0.0
  9
$SKPOLY
 70
     0
  9
$TDCREATE
 40
2451745.471621065
  9
$TDUPDATE
 40
2452761.346784930
  9
$TDINDWG
 40
0.0338134722
  9
$TDUSRTIMER
 40
0.0338132870
  9
$USRTIMER
 70
     1
  9
$ANGBASE
 50
0.0
  9
$ANGDIR
 70
     0
  9
$PDMODE
 70
     0
  9
$PDSIZE
 40
0.0
  9
$PLINEWID
 40
0.0
  9
$COORDS
 70
     2
  9
$SPLFRAME
 70
     0
  9
$SPLINETYPE
 70
     6
  9
$SPLINESEGS
 70
     8
  9
$ATTDIA
 70
     0
  9
$ATTREQ
 70
     1
  9
$HANDLING
 70
 12289
  9
$HANDSEED
  5
182D
  9
$SURFTAB1
 70
     6
  9
$SURFTAB2
 70
     6
  9
$SURFTYPE
 70
     6
  9
$SURFU
 70
     6
  9
$SURFV
 70
     6
  9
$UCSNAME
  2

  9
$UCSORG
 10
0.0
 20
0.0
 30
0.0
  9
$UCSXDIR
 10
1.0
 20
0.0
 30
0.0
  9
$UCSYDIR
 10
0.0
 20
1.0
 30
0.0
  9
$PUCSNAME
  2

  9
$PUCSORG
 10
0.0
 20
0.0
 30
0.0
  9
$PUCSXDIR
 10
1.0
 20
0.0
 30
0.0
  9
$PUCSYDIR
 10
0.0
 20
1.0
 30
0.0
  9
$USERI1
 70
     0
  9
$USERI2
 70
     0
  9
$USERI3
 70
     0
  9
$USERI4
 70
     0
  9
$USERI5
 70
     0
  9
$USERR1
 40
0.0
  9
$USERR2
 40
0.0
  9
$USERR3
 40
0.0
  9
$USERR4
 40
0.0
  9
$USERR5
 40
0.0
  9
$WORLDVIEW
 70
     1
  9
$SHADEDGE
 70
     3
  9
$SHADEDIF
 70
    70
  9
$TILEMODE
 70
     1
  9
$MAXACTVP
 70
    64
  9
$PINSBASE
 10
0.0
 20
0.0
 30
0.0
  9
$PLIMCHECK
 70
     0
  9
$PEXTMIN
 10
1.000000000000000E+20
 20
1.000000000000000E+20
 30
1.000000000000000E+20
  9
$PEXTMAX
 10
-1.000000000000000E+20
 20
-1.000000000000000E+20
 30
-1.000000000000000E+20
  9
$PLIMMIN
 10
0.0
 20
0.0
  9
$PLIMMAX
 10
12.0
 20
9.0
  9
$UNITMODE
 70
     0
  9
$VISRETAIN
 70
     1
  9
$PLINEGEN
 70
     0
  9
$PSLTSCALE
 70
     1
  9
$TREEDEPTH
 70
  3020
  9
$PICKSTYLE
 70
     1
  9
$CMLSTYLE
  2
STANDARD
  9
$CMLJUST
 70
     0
  9
$CMLSCALE
 40
1.0
  9
$PROXYGRAPHICS
 70
     1
  9
$MEASUREMENT
 70
     0
  0
ENDSEC
  0
SECTION
  2
CLASSES
  0
CLASS
  1
ACDBDICTIONARYWDFLT
  2
AcDbDictionaryWithDefault
  3
AutoCAD 2000
 90
        0
280
     0
281
     0
  0
CLASS
  1
ACDBPLACEHOLDER
  2
AcDbPlaceHolder
  3
AutoCAD 2000
 90
        0
280
     0
281
     0
  0
CLASS
  1
LAYOUT
  2
AcDbLayout
  3
AutoCAD 2000
 90
        0
280
     0
281
     0
  0
CLASS
  1
PLOTSETTINGS
  2
AcDbPlotSettings
  3
AutoCAD 2000
 90
        0
280
     0
281
     0
  0
CLASS
  1
LONG_TRANSACTION
  2
AcDbLongTransaction
  3
AutoCAD 2000
 90
        0
280
     0
281
     0
  0
CLASS
  1
LWPOLYLINE
  2
AcDbPolyline
  3
AutoCAD 2000
 90
        0
280
     0
281
     1
  0
CLASS
  1
HATCH
  2
AcDbHatch
  3
AutoCAD 2000
 90
        0
280
     0
281
     1
  0
CLASS
  1
XRECORD
  2
AcDbXrecord
  3
AutoCAD 2000
 90
        0
280
     0
281
     0
  0
CLASS
  1
LONG_TRANSACTION
  2
AcDbLongTransaction
  3
AutoCAD 2000
 90
        0
280
     0
281
     0
  0
CLASS
  1
LWPOLYLINE
  2
AcDbPolyline
  3
AutoCAD 2000
 90
        0
280
     0
281
     1
  0
CLASS
  1
HATCH
  2
AcDbHatch
  3
AutoCAD 2000
 90
        0
280
     0
281
     1
  0
CLASS
  1
XRECORD
  2
AcDbXrecord
  3
AutoCAD 2000
 90
        0
280
     0
281
     0
  0
CLASS
  1
LONG_TRANSACTION
  2
AcDbLongTransaction
  3
AutoCAD 2000
 90
        0
280
     0
281
     0
  0
CLASS
  1
LWPOLYLINE
  2
AcDbPolyline
  3
AutoCAD 2000
 90
        0
280
     0
281
     1
  0
CLASS
  1
HATCH
  2
AcDbHatch
  3
AutoCAD 2000
 90
        0
280
     0
281
     1
  0
CLASS
  1
XRECORD
  2
AcDbXrecord
  3
AutoCAD 2000
 90
        0
280
     0
281
     0
  0
ENDSEC
  0
SECTION
  2
TABLES
  0
TABLE
  2
VPORT
  5
8
330
0
100
AcDbSymbolTable
 70
     2
  0
VPORT
  5
180A
330
8
100
AcDbSymbolTableRecord
100
AcDbViewportTableRecord
  2
*ACTIVE
 70
     0
 10
0.0
 20
0.0
 11
1.0
 21
1.0
 12
392.7643297774067
 22
305.9808362659309
 13
0.0
 23
0.0
 14
1.0
 24
1.0
 15
5.0
 25
5.0
 16
0.0
 26
0.0
 36
1.0
 17
0.0
 27
0.0
 37
0.0
 40
405.7475677321021
 41
1.481743227326266
 42
50.0
 43
0.0
 44
0.0
 50
0.0
 51
0.0
 71
     0
 72
  2000
 73
     1
 74
     3
 75
     0
 76
     0
 77
     0
 78
     0
  0
ENDTAB
  0
TABLE
  2
LTYPE
  5
5
330
0
100
AcDbSymbolTable
 70
     4
  0
LTYPE
  5
14
330
5
100
AcDbSymbolTableRecord
100
AcDbLinetypeTableRecord
  2
BYBLOCK
 70
     0
  3

 72
    65
 73
     0
 40
0.0
  0
LTYPE
  5
15
330
5
100
AcDbSymbolTableRecord
100
AcDbLinetypeTableRecord
  2
BYLAYER
 70
     0
  3

 72
    65
 73
     0
 40
0.0
  0
LTYPE
  5
16
330
5
100
AcDbSymbolTableRecord
100
AcDbLinetypeTableRecord
  2
CONTINUOUS
 70
     0
  3
Solid line
 72
    65
 73
     0
 40
0.0
  0
LTYPE
  5
45E
330
5
100
AcDbSymbolTableRecord
100
AcDbLinetypeTableRecord
  2
CENTER2
 70
     0
  3
Center (.5x) ___ _ ___ _ ___ _ ___ _ ___ _ ___
 72
    65
 73
     4
 40
1.125
 49
0.75
 74
     0
 49
-0.125
 74
     0
 49
0.125
 74
     0
 49
-0.125
 74
     0
  0
LTYPE
  5
45F
330
5
100
AcDbSymbolTableRecord
100
AcDbLinetypeTableRecord
  2
HIDDEN
 70
     0
  3
Hidden __ __ __ __ __ __ __ __ __ __ __ __ __ _
 72
    65
 73
     2
 40
0.375
 49
0.25
 74
     0
 49
-0.125
 74
     0
  0
LTYPE
  5
460
330
5
100
AcDbSymbolTableRecord
100
AcDbLinetypeTableRecord
  2
PHANTOM2
 70
     0
  3
Phantom (.5x) ___ _ _ ___ _ _ ___ _ _ ___ _ _
 72
    65
 73
     6
 40
1.25
 49
0.625
 74
     0
 49
-0.125
 74
     0
 49
0.125
 74
     0
 49
-0.125
 74
     0
 49
0.125
 74
     0
 49
-0.125
 74
     0
  0
ENDTAB
  0
TABLE
  2
LAYER
  5
2
330
0
100
AcDbSymbolTable
 70
     2
  0
LAYER
  5
10
330
2
100
AcDbSymbolTableRecord
100
AcDbLayerTableRecord
  2
0
 70
     0
 62
     7
  6
CONTINUOUS
  0
LAYER
  5
1809
330
2
100
AcDbSymbolTableRecord
100
AcDbLayerTableRecord
  2
PEF-190A
 70
     0
 62
     7
  6
CONTINUOUS
  0
ENDTAB
  0
TABLE
  2
STYLE
  5
3
330
0
100
AcDbSymbolTable
 70
     1
  0
STYLE
  5
11
330
3
100
AcDbSymbolTableRecord
100
AcDbTextStyleTableRecord
  2
STANDARD
 70
     0
 40
0.0
 41
1.0
 50
0.0
 71
     0
 42
4.0
  3
txt.shx
  4
whgtxt.shx
  0
ENDTAB
  0
TABLE
  2
VIEW
  5
6
330
0
100
AcDbSymbolTable
 70
     0
  0
ENDTAB
  0
TABLE
  2
UCS
  5
7
330
0
100
AcDbSymbolTable
 70
     0
  0
ENDTAB
  0
TABLE
  2
APPID
  5
9
330
0
100
AcDbSymbolTable
 70
     4
  0
APPID
  5
12
330
9
100
AcDbSymbolTableRecord
100
AcDbRegAppTableRecord
  2
ACAD
 70
     0
  0
APPID
  5
FE0
330
9
100
AcDbSymbolTableRecord
100
AcDbRegAppTableRecord
  2
MCAD_NO_VIS
 70
     0
  0
APPID
  5
FE1
330
9
100
AcDbSymbolTableRecord
100
AcDbRegAppTableRecord
  2
ACAD_TEMP_GRAPHIC
 70
     0
  0
APPID
  5
10DC
330
9
100
AcDbSymbolTableRecord
100
AcDbRegAppTableRecord
  2
DCO15
 70
     0
  0
ENDTAB
  0
TABLE
  2
DIMSTYLE
  5
A
330
0
100
AcDbSymbolTable
 70
     1
  0
DIMSTYLE
105
27
330
A
100
AcDbSymbolTableRecord
100
AcDbDimStyleTableRecord
  2
STANDARD
 70
     0
  3

  4

  5

  6

  7

 40
1.5
 41
2.299999999999998
 42
0.5
 43
8.0
 44
1.0
 45
0.0
 46
0.0
 47
0.0
 48
0.000000001
140
2.299999999999998
141
0.09
142
0.0
143
25.4
144
1.0
145
0.0
146
0.7
147
0.5
 71
     0
 72
     0
 73
     0
 74
     0
 75
     0
 76
     0
 77
     1
 78
     8
170
     0
171
     1
172
     1
173
     0
174
     0
175
     0
176
     5
177
     5
178
     3
270
     2
271
     1
272
     1
273
     2
274
     1
340
11
275
     0
280
     0
281
     0
282
     0
283
     1
284
     0
285
     0
286
     0
287
     3
288
     1
  0
ENDTAB
  0
TABLE
  2
BLOCK_RECORD
  5
1
330
0
100
AcDbSymbolTable
 70
     0
  0
BLOCK_RECORD
  5
1F
102
{ACAD_XDICTIONARY
360
17D4
102
}
330
1
100
AcDbSymbolTableRecord
100
AcDbBlockTableRecord
  2
*MODEL_SPACE
  0
BLOCK_RECORD
  5
1B
102
{ACAD_XDICTIONARY
360
17D2
102
}
330
1
100
AcDbSymbolTableRecord
100
AcDbBlockTableRecord
  2
*PAPER_SPACE
  0
ENDTAB
  0
ENDSEC
  0
SECTION
  2
BLOCKS
  0
BLOCK
  5
20
330
1F
100
AcDbEntity
  8
0
100
AcDbBlockBegin
  2
*MODEL_SPACE
 70
     0
 10
0.0
 20
0.0
 30
0.0
  3
*MODEL_SPACE
  1

  0
ENDBLK
  5
21
330
1F
100
AcDbEntity
  8
0
100
AcDbBlockEnd
  0
BLOCK
  5
1C
330
1B
100
AcDbEntity
 67
     1
  8
0
100
AcDbBlockBegin
  2
*PAPER_SPACE
 70
     0
 10
0.0
 20
0.0
 30
0.0
  3
*PAPER_SPACE
  1

  0
ENDBLK
  5
1D
330
1B
100
AcDbEntity
 67
     1
  8
0
100
AcDbBlockEnd
  0
ENDSEC
  0
SECTION
  2
ENTITIES
  0
ARC
  5
962
330
1F
100
AcDbEntity
  8
PEF-190A
  6
CONTINUOUS
100
AcDbCircle
 10
214.4765282558788
 20
305.9796045861947
 30
0.0
 40
95.00000000000005
100
AcDbArc
 50
347.8468025309915
 51
12.15319746900822
  0
ARC
  5
963
330
1F
100
AcDbEntity
  8
PEF-190A
  6
CONTINUOUS
100
AcDbCircle
 10
214.4765282558788
 20
305.9796045861947
 30
0.0
 40
104.9999999999997
100
AcDbArc
 50
244.369627305131
 51
355.6303726948657
  0
ARC
  5
964
330
1F
100
AcDbEntity
  8
PEF-190A
  6
CONTINUOUS
100
AcDbCircle
 10
214.4765282558788
 20
305.9796045861947
 30
0.0
 40
105.0
100
AcDbArc
 50
124.3696273051325
 51
235.6303726948673
  0
ARC
  5
965
330
1F
100
AcDbEntity
  8
PEF-190A
  6
CONTINUOUS
100
AcDbCircle
 10
214.4765282558788
 20
305.9796045861947
 30
0.0
 40
91.99999999999995
100
AcDbArc
 50
133.535191291762
 51
226.4648087082378
  0
ARC
  5
966
330
1F
100
AcDbEntity
  8
PEF-190A
  6
CONTINUOUS
100
AcDbCircle
 10
218.4765282558788
 20
305.9796045861947
 30
0.0
 40
95.0
100
AcDbArc
 50
347.8468025309915
 51
355.1693714079565
  0
LINE
  5
967
330
1F
100
AcDbEntity
  8
PEF-190A
  6
CENTER2
100
AcDbLine
 10
214.4765282558786
 20
185.2221751567653
 30
0.0
 11
214.4765282558787
 21
430.9635440456543
 31
0.0
  0
LINE
  5
96A
330
1F
100
AcDbEntity
  8
PEF-190A
  6
CENTER2
100
AcDbLine
 10
117.3074824701815
 20
226.3719550752548
 30
0.0
 11
134.2780452186588
 21
209.4013923267776
 31
0.0
  0
LINE
  5
96B
330
1F
100
AcDbEntity
  8
PEF-190A
  6
CONTINUOUS
100
AcDbLine
 10
135.6341221535782
 20
222.1874510155889
 30
0.0
 11
121.4919865298476
 21
208.0453153918579
 31
0.0
  0
LINE
  5
96C
330
1F
100
AcDbEntity
  8
PEF-190A
  6
CONTINUOUS
100
AcDbLine
 10
130.6843746852725
 20
227.1371984838945
 30
0.0
 11
116.5422390615417
 21
212.9950628601636
 31
0.0
  0
LINE
  5
96D
330
1F
100
AcDbEntity
  8
PEF-190A
  6
CONTINUOUS
100
AcDbLine
 10
147.6388685722714
 20
224.999809278857
 30
0.0
 11
126.0881806075601
 21
203.4491213141452
 31
0.0
  0
LINE
  5
96E
330
1F
100
AcDbEntity
  8
PEF-190A
  6
CONTINUOUS
100
AcDbLine
 10
133.4967329485407
 20
239.1419449025878
 30
0.0
 11
111.946044983829
 21
217.5912569378763
 31
0.0
  0
ARC
  5
96F
330
1F
100
AcDbEntity
  8
PEF-190A
  6
CONTINUOUS
100
AcDbCircle
 10
133.1592484194255
 20
224.6623247497418
 30
0.0
 40
3.499999999999968
100
AcDbArc
 50
315.0
 51
135.0
  0
LINE
  5
970
330
1F
100
AcDbEntity
  8
PEF-190A
  6
CONTINUOUS
100
AcDbLine
 10
123.1558431411839
 20
256.3399942794055
 30
0.0
 11
137.0174481645809
 21
256.3399942794055
 31
0.0
  0
LINE
  5
971
330
1F
100
AcDbEntity
  8
PEF-190A
  6
CENTER2
100
AcDbLine
 10
163.3348989044024
 20
254.8379752347188
 30
0.0
 11
107.9993243124671
 21
199.5024006427838
 31
0.0
  0
ARC
  5
973
330
1F
100
AcDbEntity
  8
PEF-190A
  6
CONTINUOUS
100
AcDbCircle
 10
119.0171127956946
 20
210.5201891260108
 30
0.0
 40
3.499999999999976
100
AcDbArc
 50
135.0
 51
315.0
  0
ARC
  5
974
330
1F
100
AcDbEntity
  8
PEF-190A
  6
CONTINUOUS
100
AcDbCircle
 10
119.0171127956946
 20
210.5201891260108
 30
0.0
 40
10.0
100
AcDbArc
 50
135.0
 51
315.0
  0
ARC
  5
975
330
1F
100
AcDbEntity
  8
PEF-190A
  6
CONTINUOUS
100
AcDbCircle
 10
123.1558431411839
 20
258.3399942794057
 30
0.0
 40
2.000000000000045
100
AcDbArc
 50
207.5498699852881
 51
270.0
  0
LINE
  5
978
330
1F
100
AcDbEntity
  8
PEF-190A
  6
CONTINUOUS
100
AcDbLine
 10
239.4765282558786
 20
285.9796045861946
 30
0.0
 11
274.4765282558789
 21
285.9796045861947
 31
0.0
  0
ARC
  5
979
330
1F
100
AcDbEntity
  8
PEF-190A
  6
CONTINUOUS
100
AcDbCircle
 10
214.4765282558788
 20
305.9796045861947
 30
0.0
 40
92.0
100
AcDbArc
 50
253.5351912917615
 51
346.4648087082386
  0
ARC
  5
97A
330
1F
100
AcDbEntity
  8
PEF-190A
  6
CONTINUOUS
100
AcDbCircle
 10
214.4765282558788
 20
305.9796045861947
 30
0.0
 40
70.0
100
AcDbArc
 50
292.6198649480393
 51
337.3801350519605
  0
LINE
  5
97C
330
1F
100
AcDbEntity
  8
PEF-190A
  6
CONTINUOUS
100
AcDbLine
 10
151.2983250256028
 20
212.5517466604455
 30
0.0
 11
165.1547314861538
 21
204.5517466604455
 31
0.0
  0
LINE
  5
97D
330
1F
100
AcDbEntity
  8
PEF-190A
  6
CONTINUOUS
100
AcDbLine
 10
165.1547314861538
 20
204.5517466604455
 30
0.0
 11
172.654731486154
 21
217.5421277172119
 31
0.0
  0
LINE
  5
97E
330
1F
100
AcDbEntity
  8
PEF-190A
  6
CENTER2
100
AcDbLine
 10
172.96991755277
 20
234.088045998428
 30
0.0
 11
156.443371551372
 21
205.4632286503828
 31
0.0
  0
ARC
  5
97F
330
1F
100
AcDbEntity
  8
PEF-190A
  6
CONTINUOUS
100
AcDbCircle
 10
189.4765282558786
 20
280.9796045861947
 30
0.0
 40
5.0
100
AcDbArc
 50
0.0
 51
90.0
  0
ARC
  5
980
330
1F
100
AcDbEntity
  8
PEF-190A
  6
CONTINUOUS
100
AcDbCircle
 10
189.4765282558786
 20
245.9796045861947
 30
0.0
 40
4.999999999999986
100
AcDbArc
 50
247.3801350519604
 51
0.0
  0
ARC
  5
981
330
1F
100
AcDbEntity
  8
PEF-190A
  6
CENTER2
100
AcDbCircle
 10
214.4765282558788
 20
305.9796045861947
 30
0.0
 40
89.99999999999998
100
AcDbArc
 50
207.4567456465446
 51
233.5079483329105
  0
ARC
  5
982
330
1F
100
AcDbEntity
  8
PEF-190A
  6
HIDDEN
100
AcDbCircle
 10
150.8369179490891
 20
242.3399942794058
 30
0.0
 40
10.0
100
AcDbArc
 50
306.5661959020633
 51
143.4338040979364
  0
ARC
  5
983
330
1F
100
AcDbEntity
  8
PEF-190A
  6
CONTINUOUS
100
AcDbCircle
 10
214.4765282558788
 20
305.9796045861947
 30
0.0
 40
70.00000000000003
100
AcDbArc
 50
202.6198649480394
 51
247.3801350519604
  0
LINE
  5
984
330
1F
100
AcDbEntity
  8
PEF-190A
  6
HIDDEN
100
AcDbLine
 10
143.7658501372236
 20
249.411062091271
 30
0.0
 11
133.4967329485407
 21
239.1419449025878
 31
0.0
  0
ARC
  5
985
330
1F
100
AcDbEntity
  8
PEF-190A
  6
HIDDEN
100
AcDbCircle
 10
150.8369179490891
 20
242.3399942794055
 30
0.0
 40
14.0
100
AcDbArc
 50
0.0
 51
90.0
  0
ARC
  5
986
330
1F
100
AcDbEntity
  8
PEF-190A
  6
CENTER2
100
AcDbCircle
 10
214.4765282558788
 20
305.9796045861947
 30
0.0
 40
89.99999999999998
100
AcDbArc
 50
216.4920516670894
 51
233.5079483329105
  0
ARC
  5
987
330
1F
100
AcDbEntity
  8
PEF-190A
  6
CONTINUOUS
100
AcDbCircle
 10
212.4765282558787
 20
302.515502971057
 30
0.0
 40
95.0
100
AcDbArc
 50
235.169371407957
 51
244.830628592042
  0
LINE
  5
988
330
1F
100
AcDbEntity
  8
PEF-190A
  6
CONTINUOUS
100
AcDbLine
 10
158.7983250256026
 20
225.5421277172121
 30
0.0
 11
172.654731486154
 21
217.5421277172119
 31
0.0
  0
LINE
  5
989
330
1F
100
AcDbEntity
  8
PEF-190A
  6
CONTINUOUS
100
AcDbLine
 10
158.0483250256024
 20
224.2430896115354
 30
0.0
 11
171.9047314861539
 21
216.2430896115352
 31
0.0
  0
LINE
  5
98A
330
1F
100
AcDbEntity
  8
PEF-190A
  6
CONTINUOUS
100
AcDbLine
 10
157.5483250256025
 20
223.377064207751
 30
0.0
 11
171.404731486154
 21
215.3770642077509
 31
0.0
  0
ARC
  5
98B
330
1F
100
AcDbEntity
  8
PEF-190A
  6
HIDDEN
100
AcDbCircle
 10
214.4765282558788
 20
305.9796045861947
 30
0.0
 40
104.9999999999997
100
AcDbArc
 50
235.6303726948673
 51
244.369627305131
  0
LINE
  5
98C
330
1F
100
AcDbEntity
  8
PEF-190A
  6
HIDDEN
100
AcDbLine
 10
158.5949583954711
 20
214.6898863812598
 30
0.0
 11
162.5949583954709
 21
221.6180896115354
 31
0.0
  0
LINE
  5
98D
330
1F
100
AcDbEntity
  8
PEF-190A
  6
HIDDEN
100
AcDbLine
 10
165.0901489238545
 20
210.9398863812599
 30
0.0
 11
156.8629075879023
 21
215.6898863812599
 31
0.0
  0
ARC
  5
98E
330
1F
100
AcDbEntity
  8
PEF-190A
  6
CONTINUOUS
100
AcDbCircle
 10
214.4765282558788
 20
305.9796045861947
 30
0.0
 40
94.99999999999998
100
AcDbArc
 50
227.8468025309939
 51
252.1531974690071
  0
ARC
  5
98F
330
1F
100
AcDbEntity
  8
PEF-190A
  6
CONTINUOUS
100
AcDbCircle
 10
212.4765282558787
 20
302.515502971057
 30
0.0
 40
95.0
100
AcDbArc
 50
227.8468025309939
 51
235.169371407957
  0
LINE
  5
990
330
1F
100
AcDbEntity
  8
PEF-190A
  6
HIDDEN
100
AcDbLine
 10
157.9079857609546
 20
235.26892646754
 30
0.0
 11
147.6388685722714
 21
224.999809278857
 31
0.0
  0
LINE
  5
991
330
1F
100
AcDbEntity
  8
PEF-190A
  6
CONTINUOUS
100
AcDbLine
 10
158.7983250256026
 20
225.5421277172121
 30
0.0
 11
151.2983250256028
 21
212.5517466604455
 31
0.0
  0
LINE
  5
992
330
1F
100
AcDbEntity
  8
PEF-190A
  6
HIDDEN
100
AcDbLine
 10
156.8629075879023
 20
215.6898863812599
 30
0.0
 11
154.1129075879023
 21
210.9267466604455
 31
0.0
  0
ARC
  5
993
330
1F
100
AcDbEntity
  8
PEF-190A
  6
CONTINUOUS
100
AcDbCircle
 10
150.8369179490891
 20
242.3399942794058
 30
0.0
 40
4.899999999999981
100
AcDbArc
 50
157.6733059283118
 51
292.3266940716881
  0
ARC
  5
994
330
1F
100
AcDbEntity
  8
PEF-190A
  6
CONTINUOUS
100
AcDbCircle
 10
150.8369179490891
 20
242.3399942794058
 30
0.0
 40
9.999999999999996
100
AcDbArc
 50
143.4338040979364
 51
306.5661959020633
  0
ARC
  5
995
330
1F
100
AcDbEntity
  8
PEF-190A
  6
HIDDEN
100
AcDbCircle
 10
150.8369179490891
 20
242.3399942794058
 30
0.0
 40
4.9
100
AcDbArc
 50
292.3266940716881
 51
157.6733059283118
  0
LINE
  5
996
330
1F
100
AcDbEntity
  8
PEF-190A
  6
HIDDEN
100
AcDbLine
 10
156.413690707169
 20
240.8457025225061
 30
0.0
 11
153.0543818936985
 21
237.4863937090359
 31
0.0
  0
LINE
  5
997
330
1F
100
AcDbEntity
  8
PEF-190A
  6
CONTINUOUS
100
AcDbLine
 10
146.7544369479085
 20
238.2575132782253
 30
0.0
 11
145.2601451910091
 21
243.8342860363051
 31
0.0
  0
ARC
  5
998
330
1F
100
AcDbEntity
  8
PEF-190A
  6
CONTINUOUS
100
AcDbCircle
 10
149.7293307374375
 20
237.834168836557
 30
0.0
 40
1.999999999999968
100
AcDbArc
 50
329.9999999999993
 51
46.46480870823793
  0
LINE
  5
999
330
1F
100
AcDbEntity
  8
PEF-190A
  6
CONTINUOUS
100
AcDbLine
 10
153.0543818936985
 20
237.4863937090359
 30
0.0
 11
152.3312097059885
 21
236.763221521326
 31
0.0
  0
LINE
  5
99A
330
1F
100
AcDbEntity
  8
PEF-190A
  6
CONTINUOUS
100
AcDbLine
 10
152.3312097059885
 20
236.763221521326
 30
0.0
 11
146.7544369479085
 21
238.2575132782251
 31
0.0
  0
LINE
  5
99B
330
1F
100
AcDbEntity
  8
PEF-190A
  6
CONTINUOUS
100
AcDbLine
 10
148.720581127673
 20
232.08696326033
 30
0.0
 11
151.4613815450065
 21
236.8341688365572
 31
0.0
  0
ARC
  5
99C
330
1F
100
AcDbEntity
  8
PEF-190A
  6
HIDDEN
100
AcDbCircle
 10
150.8369179490891
 20
242.3399942794058
 30
0.0
 40
2.350000000000016
100
AcDbArc
 50
257.0630397131354
 51
192.9369602868635
  0
ARC
  5
99D
330
1F
100
AcDbEntity
  8
PEF-190A
  6
HIDDEN
100
AcDbCircle
 10
150.8369179490891
 20
242.3399942794058
 30
0.0
 40
3.000000000000006
100
AcDbArc
 50
273.8975546065084
 51
176.1024453934914
  0
LINE
  5
99E
330
1F
100
AcDbEntity
  8
PEF-190A
  6
HIDDEN
100
AcDbLine
 10
149.3426261921898
 20
247.9167670374858
 30
0.0
 11
154.9193989502696
 21
246.4224752805863
 31
0.0
  0
ARC
  5
99F
330
1F
100
AcDbEntity
  8
PEF-190A
  6
CONTINUOUS
100
AcDbCircle
 10
150.8369179490891
 20
242.3399942794058
 30
0.0
 40
2.349999999999937
100
AcDbArc
 50
192.9369602868635
 51
257.0630397131354
  0
ARC
  5
9A0
330
1F
100
AcDbEntity
  8
PEF-190A
  6
CONTINUOUS
100
AcDbCircle
 10
150.8369179490891
 20
242.3399942794058
 30
0.0
 40
2.999999999999971
100
AcDbArc
 50
176.1024453934914
 51
273.8975546065084
  0
LINE
  5
9A1
330
1F
100
AcDbEntity
  8
PEF-190A
  6
HIDDEN
100
AcDbLine
 10
145.9833173787194
 20
244.5574582240153
 30
0.0
 11
149.3426261921898
 21
247.9167670374858
 31
0.0
  0
LINE
  5
9A2
330
1F
100
AcDbEntity
  8
PEF-190A
  6
CONTINUOUS
100
AcDbLine
 10
145.2601451910091
 20
243.8342860363051
 30
0.0
 11
145.9833173787194
 21
244.5574582240153
 31
0.0
  0
LINE
  5
9A3
330
1F
100
AcDbEntity
  8
PEF-190A
  6
HIDDEN
100
AcDbLine
 10
154.9193989502696
 20
246.4224752805863
 30
0.0
 11
156.413690707169
 21
240.8457025225061
 31
0.0
  0
LINE
  5
9A4
330
1F
100
AcDbEntity
  8
PEF-190A
  6
HIDDEN
100
AcDbLine
 10
164.8369179490891
 20
242.3399942794056
 30
0.0
 11
164.8369179490891
 21
214.6589194714995
 31
0.0
  0
ARC
  5
9A5
330
1F
100
AcDbEntity
  8
PEF-190A
  6
CONTINUOUS
100
AcDbCircle
 10
212.4765282558787
 20
302.515502971057
 30
0.0
 40
95.0
100
AcDbArc
 50
244.830628592042
 51
252.1531974690062
  0
LINE
  5
9A6
330
1F
100
AcDbEntity
  8
PEF-190A
  6
HIDDEN
100
AcDbLine
 10
163.3580981162855
 20
211.9398863812599
 30
0.0
 11
167.3580981162855
 21
218.8680896115353
 31
0.0
  0
LINE
  5
9A7
330
1F
100
AcDbEntity
  8
PEF-190A
  6
HIDDEN
100
AcDbLine
 10
162.3401489238545
 20
206.1767466604455
 30
0.0
 11
165.0901489238545
 21
210.9398863812599
 31
0.0
  0
ARC
  5
9A8
330
1F
100
AcDbEntity
  8
PEF-190A
  6
HIDDEN
100
AcDbCircle
 10
166.8369179490894
 20
214.6589194714995
 30
0.0
 40
2.0
100
AcDbArc
 50
180.0
 51
242.4501300147116
  0
LINE
  5
9A9
330
1F
100
AcDbEntity
  8
PEF-190A
  6
CONTINUOUS
100
AcDbLine
 10
183.3615972790509
 20
212.0869632603297
 30
0.0
 11
186.1023976963842
 21
216.834168836557
 31
0.0
  0
ARC
  5
9AA
330
1F
100
AcDbEntity
  8
PEF-190A
  6
CONTINUOUS
100
AcDbCircle
 10
187.834448503953
 20
215.8341688365572
 30
0.0
 40
2.000000000000015
100
AcDbArc
 50
73.53519129175841
 51
149.9999999999993
  0
LINE
  5
9AB
330
1F
100
AcDbEntity
  8
PEF-190A
  6
CONTINUOUS
100
AcDbLine
 10
154.4765282558786
 20
285.9796045861946
 30
0.0
 11
189.4765282558786
 21
285.9796045861946
 31
0.0
  0
LINE
  5
9AC
330
1F
100
AcDbEntity
  8
PEF-190A
  6
HIDDEN
100
AcDbLine
 10
137.0174481645809
 20
256.3399942794055
 30
0.0
 11
150.8369179490894
 21
256.3399942794055
 31
0.0
  0
ARC
  5
9AD
330
1F
100
AcDbEntity
  8
PEF-190A
  6
CONTINUOUS
100
AcDbCircle
 10
154.4765282558786
 20
280.9796045861947
 30
0.0
 40
5.0
100
AcDbArc
 50
90.0
 51
202.6198649480394
  0
LINE
  5
9AE
330
1F
100
AcDbEntity
  8
PEF-190A
  6
CONTINUOUS
100
AcDbLine
 10
194.4765282558785
 20
280.9796045861947
 30
0.0
 11
194.4765282558789
 21
245.9796045861947
 31
0.0
  0
LINE
  5
9AF
330
1F
100
AcDbEntity
  8
PEF-190A
  6
CONTINUOUS
100
AcDbLine
 10
234.4765282558788
 20
245.9796045861947
 30
0.0
 11
234.4765282558788
 21
280.9796045861947
 31
0.0
  0
ARC
  5
9B0
330
1F
100
AcDbEntity
  8
PEF-190A
  6
CONTINUOUS
100
AcDbCircle
 10
239.4765282558787
 20
245.9796045861947
 30
0.0
 40
5.0
100
AcDbArc
 50
180.0
 51
292.6198649480424
  0
ARC
  5
9B1
330
1F
100
AcDbEntity
  8
PEF-190A
  6
CONTINUOUS
100
AcDbCircle
 10
239.4765282558786
 20
280.9796045861947
 30
0.0
 40
5.0
100
AcDbArc
 50
90.0
 51
180.0
  0
LINE
  5
9B2
330
1F
100
AcDbEntity
  8
PEF-190A
  6
CENTER2
100
AcDbLine
 10
265.6181576073548
 20
254.8379752347186
 30
0.0
 11
320.9537321992898
 21
199.5024006427831
 31
0.0
  0
LINE
  5
9B3
330
1F
100
AcDbEntity
  8
PEF-190A
  6
CONTINUOUS
100
AcDbLine
 10
281.3141879394859
 20
224.9998092788568
 30
0.0
 11
302.8648759041974
 21
203.4491213141452
 31
0.0
  0
ARC
  5
9B4
330
1F
100
AcDbEntity
  8
PEF-190A
  6
CONTINUOUS
100
AcDbCircle
 10
309.9359437160628
 20
210.5201891260108
 30
0.0
 40
10.0
100
AcDbArc
 50
225.0
 51
45.0
  0
LINE
  5
9B6
330
1F
100
AcDbEntity
  8
PEF-190A
  6
CONTINUOUS
100
AcDbLine
 10
311.3474063609125
 20
285.9796045861948
 30
0.0
 11
305.8658055262458
 21
285.9796045861948
 31
0.0
  0
LINE
  5
9B7
330
1F
100
AcDbEntity
  8
PEF-190A
  6
CENTER2
100
AcDbLine
 10
294.0841777668188
 20
208.8105588004977
 30
0.0
 11
311.054740515296
 21
225.7811215489748
 31
0.0
  0
LINE
  5
9B8
330
1F
100
AcDbEntity
  8
PEF-190A
  6
CONTINUOUS
100
AcDbLine
 10
298.2686818264848
 20
227.1371984838945
 30
0.0
 11
312.4108174502158
 21
212.9950628601636
 31
0.0
  0
LINE
  5
9B9
330
1F
100
AcDbEntity
  8
PEF-190A
  6
CONTINUOUS
100
AcDbLine
 10
295.4563235632166
 20
239.1419449025878
 30
0.0
 11
317.0070115279283
 21
217.5912569378763
 31
0.0
  0
ARC
  5
9BA
330
1F
100
AcDbEntity
  8
PEF-190A
  6
CONTINUOUS
100
AcDbCircle
 10
309.9359437160628
 20
210.5201891260108
 30
0.0
 40
3.500000000000006
100
AcDbArc
 50
225.0
 51
45.0
  0
ARC
  5
9BB
330
1F
100
AcDbEntity
  8
PEF-190A
  6
HIDDEN
100
AcDbCircle
 10
278.1161385626678
 20
242.3399942794053
 30
0.0
 40
9.999999999999996
100
AcDbArc
 50
36.56619590206352
 51
233.4338040979364
  0
LINE
  5
9BC
330
1F
100
AcDbEntity
  8
PEF-190A
  6
HIDDEN
100
AcDbLine
 10
285.1872063745336
 20
249.4110620912709
 30
0.0
 11
295.4563235632166
 21
239.1419449025878
 31
0.0
  0
ARC
  5
9BD
330
1F
100
AcDbEntity
  8
PEF-190A
  6
HIDDEN
100
AcDbCircle
 10
278.1161385626678
 20
242.3399942794053
 30
0.0
 40
13.99999999999999
100
AcDbArc
 50
90.0
 51
180.0
  0
ARC
  5
9BE
330
1F
100
AcDbEntity
  8
PEF-190A
  6
CONTINUOUS
100
AcDbCircle
 10
278.1161385626678
 20
242.3399942794053
 30
0.0
 40
2.349999999999996
100
AcDbArc
 50
282.9369602868606
 51
347.0630397131362
  0
ARC
  5
9BF
330
1F
100
AcDbEntity
  8
PEF-190A
  6
HIDDEN
100
AcDbCircle
 10
278.1161385626678
 20
242.3399942794053
 30
0.0
 40
2.999999999999984
100
AcDbArc
 50
3.89755460650853
 51
266.1024453934913
  0
ARC
  5
9C0
330
1F
100
AcDbEntity
  8
PEF-190A
  6
CONTINUOUS
100
AcDbCircle
 10
278.1161385626678
 20
242.3399942794053
 30
0.0
 40
3.000000000000008
100
AcDbArc
 50
266.1024453934913
 51
3.89755460650853
  0
ARC
  5
9C1
330
1F
100
AcDbEntity
  8
PEF-190A
  6
HIDDEN
100
AcDbCircle
 10
278.1161385626678
 20
242.3399942794053
 30
0.0
 40
4.899999999999981
100
AcDbArc
 50
22.32669407168811
 51
247.6733059283116
  0
ARC
  5
9C2
330
1F
100
AcDbEntity
  8
PEF-190A
  6
CONTINUOUS
100
AcDbCircle
 10
278.1161385626678
 20
242.3399942794053
 30
0.0
 40
4.900000000000011
100
AcDbArc
 50
247.6733059283116
 51
22.32669407168811
  0
LINE
  5
9C3
330
1F
100
AcDbEntity
  8
PEF-190A
  6
HIDDEN
100
AcDbLine
 10
279.6104303195671
 20
247.916767037485
 30
0.0
 11
282.9697391330376
 21
244.5574582240148
 31
0.0
  0
LINE
  5
9C4
330
1F
100
AcDbEntity
  8
PEF-190A
  6
CONTINUOUS
100
AcDbLine
 10
282.1986195638483
 20
238.2575132782248
 30
0.0
 11
276.6218468057683
 21
236.7632215213254
 31
0.0
  0
ARC
  5
9C5
330
1F
100
AcDbEntity
  8
PEF-190A
  6
CONTINUOUS
100
AcDbCircle
 10
278.1161385626678
 20
242.3399942794053
 30
0.0
 40
10.0
100
AcDbArc
 50
233.4338040979364
 51
36.56619590206352
  0
LINE
  5
9C6
330
1F
100
AcDbEntity
  8
PEF-190A
  6
HIDDEN
100
AcDbLine
 10
271.0450707508026
 20
235.2689264675399
 30
0.0
 11
281.3141879394859
 21
224.9998092788568
 31
0.0
  0
LINE
  5
9C7
330
1F
100
AcDbEntity
  8
PEF-190A
  6
CONTINUOUS
100
AcDbLine
 10
264.1161385626682
 20
214.6589194714997
 30
0.0
 11
264.116138562668
 21
228.5205244948968
 31
0.0
  0
ARC
  5
9C8
330
1F
100
AcDbEntity
  8
PEF-190A
  6
CONTINUOUS
100
AcDbCircle
 10
262.1161385626677
 20
214.6589194714997
 30
0.0
 40
1.999999999999988
100
AcDbArc
 50
297.5498699852881
 51
0.0
  0
LINE
  5
9C9
330
1F
100
AcDbEntity
  8
PEF-190A
  6
HIDDEN
100
AcDbLine
 10
264.116138562668
 20
228.5205244948968
 30
0.0
 11
264.1161385626678
 21
242.3399942794055
 31
0.0
  0
LINE
  5
9CA
330
1F
100
AcDbEntity
  8
PEF-190A
  6
HIDDEN
100
AcDbLine
 10
275.8986746180584
 20
237.4863937090355
 30
0.0
 11
272.5393658045878
 21
240.8457025225059
 31
0.0
  0
LINE
  5
9CB
330
1F
100
AcDbEntity
  8
PEF-190A
  6
CONTINUOUS
100
AcDbLine
 10
276.6218468057683
 20
236.7632215213254
 30
0.0
 11
275.8986746180584
 21
237.4863937090355
 31
0.0
  0
LINE
  5
9CC
330
1F
100
AcDbEntity
  8
PEF-190A
  6
HIDDEN
100
AcDbLine
 10
272.5393658045878
 20
240.8457025225059
 30
0.0
 11
274.0336575614874
 21
246.4224752805859
 31
0.0
  0
ARC
  5
9CD
330
1F
100
AcDbEntity
  8
PEF-190A
  6
HIDDEN
100
AcDbCircle
 10
278.1161385626678
 20
242.3399942794053
 30
0.0
 40
2.349999999999984
100
AcDbArc
 50
347.0630397131362
 51
282.9369602868606
  0
LINE
  5
9CE
330
1F
100
AcDbEntity
  8
PEF-190A
  6
HIDDEN
100
AcDbLine
 10
274.0336575614874
 20
246.4224752805859
 30
0.0
 11
279.6104303195671
 21
247.916767037485
 31
0.0
  0
ARC
  5
9CF
330
1F
100
AcDbEntity
  8
PEF-190A
  6
CONTINUOUS
100
AcDbCircle
 10
295.7938080923318
 20
224.6623247497415
 30
0.0
 40
3.499999999999993
100
AcDbArc
 50
45.0
 51
225.0
  0
LINE
  5
9D0
330
1F
100
AcDbEntity
  8
PEF-190A
  6
CONTINUOUS
100
AcDbLine
 10
293.318934358179
 20
222.1874510155886
 30
0.0
 11
307.46106998191
 21
208.0453153918578
 31
0.0
  0
LINE
  5
9D1
330
1F
100
AcDbEntity
  8
PEF-190A
  6
CONTINUOUS
100
AcDbLine
 10
283.6929113207478
 20
243.8342860363047
 30
0.0
 11
282.1986195638483
 21
238.2575132782248
 31
0.0
  0
LINE
  5
9D2
330
1F
100
AcDbEntity
  8
PEF-190A
  6
CONTINUOUS
100
AcDbLine
 10
282.9697391330376
 20
244.5574582240148
 30
0.0
 11
283.6929113207478
 21
243.8342860363047
 31
0.0
  0
ARC
  5
9D4
330
1F
100
AcDbEntity
  8
PEF-190A
  6
CONTINUOUS
100
AcDbCircle
 10
274.4765282558788
 20
280.9796045861949
 30
0.0
 40
4.999999999999983
100
AcDbArc
 50
337.3801350519605
 51
90.0
  0
LINE
  5
9D5
330
1F
100
AcDbEntity
  8
PEF-190A
  6
HIDDEN
100
AcDbLine
 10
278.116138562668
 20
256.3399942794053
 30
0.0
 11
291.9356083471766
 21
256.3399942794053
 31
0.0
  0
LINE
  5
9D6
330
1F
100
AcDbEntity
  8
PEF-190A
  6
CONTINUOUS
100
AcDbLine
 10
291.9356083471766
 20
256.3399942794053
 30
0.0
 11
305.7972133705736
 21
256.3399942794053
 31
0.0
  0
ARC
  5
9D7
330
1F
100
AcDbEntity
  8
PEF-190A
  6
CONTINUOUS
100
AcDbCircle
 10
305.7972133705735
 20
258.3399942794053
 30
0.0
 40
2.0
100
AcDbArc
 50
270.0
 51
332.4501300147101
  0
ARC
  5
9D8
330
1F
100
AcDbEntity
  8
PEF-190A
  6
CONTINUOUS
100
AcDbCircle
 10
305.8658055262458
 20
283.9796045861948
 30
0.0
 40
2.0
100
AcDbArc
 50
90.0
 51
166.4648087082385
  0
LINE
  5
9DA
330
1F
100
AcDbEntity
  8
PEF-190A
  6
CENTER2
100
AcDbLine
 10
163.3348989044029
 20
357.1212339376711
 30
0.0
 11
107.9993243124679
 21
412.4568085296064
 31
0.0
  0
LINE
  5
9DB
330
1F
100
AcDbEntity
  8
PEF-190A
  6
CENTER2
100
AcDbLine
 10
134.8688787449388
 20
403.148650371892
 30
0.0
 11
117.8983159964616
 21
386.1780876234148
 31
0.0
  0
LINE
  5
9DC
330
1F
100
AcDbEntity
  8
PEF-190A
  6
CONTINUOUS
100
AcDbLine
 10
130.6843746852726
 20
384.8220106884951
 30
0.0
 11
116.5422390615419
 21
398.964146312226
 31
0.0
  0
LINE
  5
9DD
330
1F
100
AcDbEntity
  8
PEF-190A
  6
CONTINUOUS
100
AcDbLine
 10
135.6341221535785
 20
389.7717581568008
 30
0.0
 11
121.4919865298476
 21
403.9138937805318
 31
0.0
  0
LINE
  5
9DE
330
1F
100
AcDbEntity
  8
PEF-190A
  6
CONTINUOUS
100
AcDbLine
 10
133.4967329485408
 20
372.8172642698018
 30
0.0
 11
111.9460449838292
 21
394.3679522345135
 31
0.0
  0
LINE
  5
9DF
330
1F
100
AcDbEntity
  8
PEF-190A
  6
CONTINUOUS
100
AcDbLine
 10
147.6388685722714
 20
386.9593998935328
 30
0.0
 11
126.0881806075601
 21
408.5100878582442
 31
0.0
  0
ARC
  5
9E0
330
1F
100
AcDbEntity
  8
PEF-190A
  6
CONTINUOUS
100
AcDbCircle
 10
133.1592484194257
 20
387.296884422648
 30
0.0
 40
3.500000000000056
100
AcDbArc
 50
225.0
 51
45.0
  0
LINE
  5
9E1
330
1F
100
AcDbEntity
  8
PEF-190A
  6
CONTINUOUS
100
AcDbLine
 10
137.0174481645809
 20
355.6192148929842
 30
0.0
 11
123.1558431411837
 21
355.6192148929844
 31
0.0
  0
LINE
  5
9E2
330
1F
100
AcDbEntity
  8
PEF-190A
  6
CENTER2
100
AcDbLine
 10
93.61166339101378
 20
305.9796045861948
 30
0.0
 11
335.3413931207437
 21
305.9796045861947
 31
0.0
  0
LINE
  5
9E3
330
1F
100
AcDbEntity
  8
PEF-190A
  6
CENTER2
100
AcDbLine
 10
116.9765282558787
 20
298.1934564258477
 30
0.0
 11
116.976528255879
 21
314.4226137179181
 31
0.0
  0
CIRCLE
  5
9E4
330
1F
100
AcDbEntity
  8
PEF-190A
  6
CONTINUOUS
100
AcDbCircle
 10
116.976528255879
 20
305.9796045861948
 30
0.0
 40
2.0
  0
CIRCLE
  5
9E5
330
1F
100
AcDbEntity
  8
PEF-190A
  6
CONTINUOUS
100
AcDbCircle
 10
116.976528255879
 20
305.9796045861948
 30
0.0
 40
1.650000000000004
  0
ARC
  5
9E6
330
1F
100
AcDbEntity
  8
PEF-190A
  6
CONTINUOUS
100
AcDbCircle
 10
123.1558431411837
 20
353.6192148929842
 30
0.0
 40
2.0
100
AcDbArc
 50
90.0
 51
152.4501300147101
  0
ARC
  5
9E7
330
1F
100
AcDbEntity
  8
PEF-190A
  6
CONTINUOUS
100
AcDbCircle
 10
119.0171127956947
 20
401.4390200463788
 30
0.0
 40
3.500000000000038
100
AcDbArc
 50
45.0
 51
225.0
  0
ARC
  5
9E8
330
1F
100
AcDbEntity
  8
PEF-190A
  6
CONTINUOUS
100
AcDbCircle
 10
119.0171127956947
 20
401.4390200463788
 30
0.0
 40
10.00000000000003
100
AcDbArc
 50
45.0
 51
225.0
  0
LINE
  5
9EF
330
1F
100
AcDbEntity
  8
PEF-190A
  6
CONTINUOUS
100
AcDbLine
 10
274.4765282558789
 20
325.9796045861948
 30
0.0
 11
239.4765282558788
 21
325.9796045861948
 31
0.0
  0
ARC
  5
9F0
330
1F
100
AcDbEntity
  8
PEF-190A
  6
CONTINUOUS
100
AcDbCircle
 10
214.4765282558788
 20
305.9796045861947
 30
0.0
 40
70.00000000000003
100
AcDbArc
 50
22.61986494803944
 51
67.38013505195756
  0
ARC
  5
9F1
330
1F
100
AcDbEntity
  8
PEF-190A
  6
CONTINUOUS
100
AcDbCircle
 10
214.4765282558788
 20
305.9796045861947
 30
0.0
 40
92.00000000000004
100
AcDbArc
 50
13.53519129176135
 51
106.4648087082384
  0
ARC
  5
9F2
330
1F
100
AcDbEntity
  8
PEF-190A
  6
CONTINUOUS
100
AcDbCircle
 10
214.4765282558788
 20
305.9796045861947
 30
0.0
 40
105.0
100
AcDbArc
 50
4.36962730513091
 51
115.6303726948689
  0
ARC
  5
9F4
330
1F
100
AcDbEntity
  8
PEF-190A
  6
CONTINUOUS
100
AcDbCircle
 10
212.4765282558789
 20
309.4437062013326
 30
0.0
 40
95.0
100
AcDbArc
 50
124.8306285920427
 51
132.1531974690061
  0
ARC
  5
9F5
330
1F
100
AcDbEntity
  8
PEF-190A
  6
CONTINUOUS
100
AcDbCircle
 10
214.4765282558788
 20
305.9796045861947
 30
0.0
 40
94.99999999999992
100
AcDbArc
 50
107.8468025309927
 51
132.1531974690061
  0
ARC
  5
9F6
330
1F
100
AcDbEntity
  8
PEF-190A
  6
CONTINUOUS
100
AcDbCircle
 10
150.8369179490895
 20
369.6192148929843
 30
0.0
 40
9.999999999999984
100
AcDbArc
 50
53.43380409793645
 51
216.5661959020634
  0
LINE
  5
9F7
330
1F
100
AcDbEntity
  8
PEF-190A
  6
CENTER2
100
AcDbLine
 10
172.9699175527698
 20
377.8711631739614
 30
0.0
 11
157.16464918219
 21
405.2466910190666
 31
0.0
  0
LINE
  5
9F8
330
1F
100
AcDbEntity
  8
PEF-190A
  6
HIDDEN
100
AcDbLine
 10
157.9079857609549
 20
376.6902827048497
 30
0.0
 11
147.6388685722714
 21
386.9593998935328
 31
0.0
  0
LINE
  5
9F9
330
1F
100
AcDbEntity
  8
PEF-190A
  6
HIDDEN
100
AcDbLine
 10
164.8369179490894
 20
397.3002897008896
 30
0.0
 11
164.8369179490894
 21
369.6192148929842
 31
0.0
  0
ARC
  5
9FA
330
1F
100
AcDbEntity
  8
PEF-190A
  6
CONTINUOUS
100
AcDbCircle
 10
189.4765282558786
 20
330.9796045861948
 30
0.0
 40
5.000000000000006
100
AcDbArc
 50
270.0
 51
0.0
  0
ARC
  5
9FB
330
1F
100
AcDbEntity
  8
PEF-190A
  6
CONTINUOUS
100
AcDbCircle
 10
189.4765282558788
 20
365.9796045861948
 30
0.0
 40
5.0
100
AcDbArc
 50
0.0
 51
112.6198649480393
  0
ARC
  5
9FC
330
1F
100
AcDbEntity
  8
PEF-190A
  6
CONTINUOUS
100
AcDbCircle
 10
214.4765282558788
 20
305.9796045861947
 30
0.0
 40
69.99999999999999
100
AcDbArc
 50
112.6198649480424
 51
157.3801350519605
  0
LINE
  5
9FD
330
1F
100
AcDbEntity
  8
PEF-190A
  6
CONTINUOUS
100
AcDbLine
 10
189.4765282558786
 20
325.9796045861948
 30
0.0
 11
154.4765282558786
 21
325.9796045861948
 31
0.0
  0
ARC
  5
9FE
330
1F
100
AcDbEntity
  8
PEF-190A
  6
CONTINUOUS
100
AcDbCircle
 10
154.4765282558786
 20
330.9796045861947
 30
0.0
 40
4.999999999999946
100
AcDbArc
 50
157.3801350519605
 51
270.0
  0
ARC
  5
9FF
330
1F
100
AcDbEntity
  8
PEF-190A
  6
HIDDEN
100
AcDbCircle
 10
150.8369179490895
 20
369.6192148929843
 30
0.0
 40
9.999999999999962
100
AcDbArc
 50
216.5661959020634
 51
53.43380409793645
  0
ARC
  5
A00
330
1F
100
AcDbEntity
  8
PEF-190A
  6
HIDDEN
100
AcDbCircle
 10
150.8369179490894
 20
369.6192148929842
 30
0.0
 40
14.0
100
AcDbArc
 50
270.0
 51
0.0
  0
LINE
  5
A01
330
1F
100
AcDbEntity
  8
PEF-190A
  6
HIDDEN
100
AcDbLine
 10
150.8369179490891
 20
355.6192148929842
 30
0.0
 11
137.0174481645809
 21
355.6192148929842
 31
0.0
  0
ARC
  5
A02
330
1F
100
AcDbEntity
  8
PEF-190A
  6
CONTINUOUS
100
AcDbCircle
 10
150.8369179490895
 20
369.6192148929843
 30
0.0
 40
4.899999999999995
100
AcDbArc
 50
67.67330592831189
 51
202.3266940716851
  0
LINE
  5
A03
330
1F
100
AcDbEntity
  8
PEF-190A
  6
HIDDEN
100
AcDbLine
 10
143.7658501372239
 20
362.5481470811187
 30
0.0
 11
133.4967329485408
 21
372.8172642698018
 31
0.0
  0
ARC
  5
A04
330
1F
100
AcDbEntity
  8
PEF-190A
  6
HIDDEN
100
AcDbCircle
 10
150.8369179490895
 20
369.6192148929843
 30
0.0
 40
2.35000000000002
100
AcDbArc
 50
167.0630397131393
 51
102.9369602868605
  0
ARC
  5
A05
330
1F
100
AcDbEntity
  8
PEF-190A
  6
HIDDEN
100
AcDbCircle
 10
150.8369179490895
 20
369.6192148929843
 30
0.0
 40
2.999999999999944
100
AcDbArc
 50
183.8975546065116
 51
86.10244539349146
  0
ARC
  5
A06
330
1F
100
AcDbEntity
  8
PEF-190A
  6
HIDDEN
100
AcDbCircle
 10
150.8369179490895
 20
369.6192148929843
 30
0.0
 40
4.90000000000005
100
AcDbArc
 50
202.3266940716851
 51
67.67330592831189
  0
LINE
  5
A07
330
1F
100
AcDbEntity
  8
PEF-190A
  6
CONTINUOUS
100
AcDbLine
 10
145.2601451910098
 20
368.1249231360848
 30
0.0
 11
146.7544369479088
 21
373.7016958941649
 31
0.0
  0
LINE
  5
A08
330
1F
100
AcDbEntity
  8
PEF-190A
  6
HIDDEN
100
AcDbLine
 10
156.4136907071695
 20
371.1135066498838
 30
0.0
 11
154.9193989502704
 21
365.5367338918038
 31
0.0
  0
LINE
  5
A09
330
1F
100
AcDbEntity
  8
PEF-190A
  6
HIDDEN
100
AcDbLine
 10
154.9193989502704
 20
365.5367338918038
 30
0.0
 11
149.34262619219
 21
364.0424421349043
 31
0.0
  0
LINE
  5
A0A
330
1F
100
AcDbEntity
  8
PEF-190A
  6
HIDDEN
100
AcDbLine
 10
149.34262619219
 20
364.0424421349043
 30
0.0
 11
145.9833173787198
 21
367.4017509483748
 31
0.0
  0
LINE
  5
A0B
330
1F
100
AcDbEntity
  8
PEF-190A
  6
CONTINUOUS
100
AcDbLine
 10
145.9833173787198
 20
367.4017509483748
 30
0.0
 11
145.2601451910098
 21
368.1249231360848
 31
0.0
  0
LINE
  5
A0C
330
1F
100
AcDbEntity
  8
PEF-190A
  6
CONTINUOUS
100
AcDbLine
 10
152.331209705989
 20
375.1959876510642
 30
0.0
 11
153.0543818936989
 21
374.4728154633542
 31
0.0
  0
ARC
  5
A0D
330
1F
100
AcDbEntity
  8
PEF-190A
  6
CONTINUOUS
100
AcDbCircle
 10
150.8369179490895
 20
369.6192148929843
 30
0.0
 40
2.349999999999965
100
AcDbArc
 50
102.9369602868605
 51
167.0630397131393
  0
ARC
  5
A0E
330
1F
100
AcDbEntity
  8
PEF-190A
  6
CONTINUOUS
100
AcDbCircle
 10
150.8369179490895
 20
369.6192148929843
 30
0.0
 40
2.999999999999971
100
AcDbArc
 50
86.10244539349146
 51
183.8975546065116
  0
LINE
  5
A0F
330
1F
100
AcDbEntity
  8
PEF-190A
  6
CONTINUOUS
100
AcDbLine
 10
146.754436947909
 20
373.7016958941649
 30
0.0
 11
152.331209705989
 21
375.1959876510642
 31
0.0
  0
LINE
  5
A10
330
1F
100
AcDbEntity
  8
PEF-190A
  6
CONTINUOUS
100
AcDbLine
 10
148.720581127673
 20
379.8722459120596
 30
0.0
 11
151.4613815450061
 21
375.1250403358322
 31
0.0
  0
ARC
  5
A11
330
1F
100
AcDbEntity
  8
PEF-190A
  6
CONTINUOUS
100
AcDbCircle
 10
149.7293307374375
 20
374.1250403358323
 30
0.0
 40
2.000000000000045
100
AcDbArc
 50
313.5351912917617
 51
30.00000000000057
  0
LINE
  5
A12
330
1F
100
AcDbEntity
  8
PEF-190A
  6
HIDDEN
100
AcDbLine
 10
153.0543818936989
 20
374.4728154633542
 30
0.0
 11
156.4136907071695
 21
371.1135066498838
 31
0.0
  0
LINE
  5
A13
330
1F
100
AcDbEntity
  8
PEF-190A
  6
CONTINUOUS
100
AcDbLine
 10
194.4765282558784
 20
365.9796045861948
 30
0.0
 11
194.4765282558788
 21
330.9796045861947
 31
0.0
  0
LINE
  5
A14
330
1F
100
AcDbEntity
  8
PEF-190A
  6
CONTINUOUS
100
AcDbLine
 10
234.4765282558788
 20
330.9796045861947
 30
0.0
 11
234.4765282558785
 21
365.9796045861948
 31
0.0
  0
CIRCLE
  5
A15
330
1F
100
AcDbEntity
  8
PEF-190A
  6
CONTINUOUS
100
AcDbCircle
 10
214.4765282558788
 20
305.9796045861947
 30
0.0
 40
6.0
  0
CIRCLE
  5
A16
330
1F
100
AcDbEntity
  8
PEF-190A
  6
CONTINUOUS
100
AcDbCircle
 10
214.4765282558788
 20
305.9796045861947
 30
0.0
 40
5.100000000000021
  0
ARC
  5
A17
330
1F
100
AcDbEntity
  8
PEF-190A
  6
CONTINUOUS
100
AcDbCircle
 10
239.4765282558788
 20
330.9796045861947
 30
0.0
 40
5.0
100
AcDbArc
 50
180.0
 51
270.0
  0
ARC
  5
A18
330
1F
100
AcDbEntity
  8
PEF-190A
  6
CONTINUOUS
100
AcDbCircle
 10
239.4765282558788
 20
365.9796045861948
 30
0.0
 40
4.999999999999971
100
AcDbArc
 50
67.38013505196057
 51
180.0
  0
ARC
  5
A19
330
1F
100
AcDbEntity
  8
PEF-190A
  6
CONTINUOUS
100
AcDbCircle
 10
212.4765282558789
 20
309.4437062013326
 30
0.0
 40
95.0
100
AcDbArc
 50
115.1693714079579
 51
124.8306285920427
  0
LINE
  5
A1A
330
1F
100
AcDbEntity
  8
PEF-190A
  6
CONTINUOUS
100
AcDbLine
 10
172.6547314861545
 20
394.4170814551778
 30
0.0
 11
158.7983250256034
 21
386.4170814551778
 31
0.0
  0
LINE
  5
A1B
330
1F
100
AcDbEntity
  8
PEF-190A
  6
CONTINUOUS
100
AcDbLine
 10
171.4047314861543
 20
396.5821449646389
 30
0.0
 11
157.5483250256034
 21
388.5821449646389
 31
0.0
  0
LINE
  5
A1C
330
1F
100
AcDbEntity
  8
PEF-190A
  6
HIDDEN
100
AcDbLine
 10
158.5949583954715
 20
397.26932279113
 30
0.0
 11
162.5949583954716
 21
390.3411195608547
 31
0.0
  0
LINE
  5
A1D
330
1F
100
AcDbEntity
  8
PEF-190A
  6
HIDDEN
100
AcDbLine
 10
156.8629075879028
 20
396.2693227911298
 30
0.0
 11
165.090148923855
 21
401.0193227911297
 31
0.0
  0
LINE
  5
A1E
330
1F
100
AcDbEntity
  8
PEF-190A
  6
CONTINUOUS
100
AcDbLine
 10
165.1547314861545
 20
407.4074625119442
 30
0.0
 11
151.2983250256034
 21
399.4074625119442
 31
0.0
  0
LINE
  5
A1F
330
1F
100
AcDbEntity
  8
PEF-190A
  6
CONTINUOUS
100
AcDbLine
 10
158.048325025603
 20
387.7161195608548
 30
0.0
 11
171.9047314861543
 21
395.7161195608547
 31
0.0
  0
ARC
  5
A20
330
1F
100
AcDbEntity
  8
PEF-190A
  6
HIDDEN
100
AcDbCircle
 10
214.4765282558788
 20
305.9796045861947
 30
0.0
 40
104.9999999999997
100
AcDbArc
 50
115.6303726948689
 51
124.3696273051325
  0
LINE
  5
A21
330
1F
100
AcDbEntity
  8
PEF-190A
  6
CONTINUOUS
100
AcDbLine
 10
151.2983250256034
 20
399.4074625119442
 30
0.0
 11
158.7983250256034
 21
386.4170814551778
 31
0.0
  0
LINE
  5
A22
330
1F
100
AcDbEntity
  8
PEF-190A
  6
HIDDEN
100
AcDbLine
 10
154.1129075879028
 20
401.0324625119443
 30
0.0
 11
156.8629075879028
 21
396.2693227911298
 31
0.0
  0
LINE
  5
A23
330
1F
100
AcDbEntity
  8
PEF-190A
  6
HIDDEN
100
AcDbLine
 10
165.090148923855
 20
401.0193227911297
 30
0.0
 11
162.3401489238552
 21
405.7824625119441
 31
0.0
  0
LINE
  5
A24
330
1F
100
AcDbEntity
  8
PEF-190A
  6
CONTINUOUS
100
AcDbLine
 10
172.6547314861545
 20
394.4170814551778
 30
0.0
 11
165.1547314861545
 21
407.4074625119442
 31
0.0
  0
ARC
  5
A25
330
1F
100
AcDbEntity
  8
PEF-190A
  6
CONTINUOUS
100
AcDbCircle
 10
212.4765282558789
 20
309.4437062013326
 30
0.0
 40
95.00000000000007
100
AcDbArc
 50
107.8468025309927
 51
115.1693714079579
  0
LINE
  5
A26
330
1F
100
AcDbEntity
  8
PEF-190A
  6
HIDDEN
100
AcDbLine
 10
163.3580981162858
 20
400.0193227911298
 30
0.0
 11
167.3580981162858
 21
393.0911195608547
 31
0.0
  0
ARC
  5
A27
330
1F
100
AcDbEntity
  8
PEF-190A
  6
HIDDEN
100
AcDbCircle
 10
166.8369179490895
 20
397.3002897008896
 30
0.0
 40
1.99999999999995
100
AcDbArc
 50
117.5498699852882
 51
180.0
  0
LINE
  5
A28
330
1F
100
AcDbEntity
  8
PEF-190A
  6
CONTINUOUS
100
AcDbLine
 10
183.3615972790504
 20
399.8722459120597
 30
0.0
 11
186.1023976963839
 21
395.1250403358323
 31
0.0
  0
ARC
  5
A29
330
1F
100
AcDbEntity
  8
PEF-190A
  6
CONTINUOUS
100
AcDbCircle
 10
187.8344485039528
 20
396.1250403358322
 30
0.0
 40
2.000000000000039
100
AcDbArc
 50
210.0000000000004
 51
286.4648087082382
  0
ARC
  5
A2A
330
1F
100
AcDbEntity
  8
PEF-190A
  6
CONTINUOUS
100
AcDbCircle
 10
278.1161385626683
 20
369.6192148929838
 30
0.0
 40
10.0
100
AcDbArc
 50
323.4338040979364
 51
126.5661959020635
  0
LINE
  5
A2B
330
1F
100
AcDbEntity
  8
PEF-190A
  6
CENTER2
100
AcDbLine
 10
265.6181576073552
 20
357.1212339376709
 30
0.0
 11
320.9537321992904
 21
412.456808529606
 31
0.0
  0
LINE
  5
A2C
330
1F
100
AcDbEntity
  8
PEF-190A
  6
HIDDEN
100
AcDbLine
 10
271.0450707508026
 20
376.6902827048496
 30
0.0
 11
281.3141879394858
 21
386.9593998935328
 31
0.0
  0
LINE
  5
A2D
330
1F
100
AcDbEntity
  8
PEF-190A
  6
CONTINUOUS
100
AcDbLine
 10
295.4563235632168
 20
372.8172642698018
 30
0.0
 11
317.0070115279283
 21
394.3679522345133
 31
0.0
  0
LINE
  5
A2E
330
1F
100
AcDbEntity
  8
PEF-190A
  6
HIDDEN
100
AcDbLine
 10
264.116138562668
 20
369.6192148929842
 30
0.0
 11
264.1161385626682
 21
383.4386846774928
 31
0.0
  0
LINE
  5
A2F
330
1F
100
AcDbEntity
  8
PEF-190A
  6
CONTINUOUS
100
AcDbLine
 10
311.3474063609125
 20
325.9796045861949
 30
0.0
 11
305.8658055262458
 21
325.9796045861948
 31
0.0
  0
ARC
  5
A30
330
1F
100
AcDbEntity
  8
PEF-190A
  6
CONTINUOUS
100
AcDbCircle
 10
274.4765282558788
 20
330.9796045861947
 30
0.0
 40
5.0
100
AcDbArc
 50
270.0
 51
22.61986494803944
  0
ARC
  5
A31
330
1F
100
AcDbEntity
  8
PEF-190A
  6
CONTINUOUS
100
AcDbCircle
 10
305.8658055262458
 20
327.9796045861948
 30
0.0
 40
1.999999999999995
100
AcDbArc
 50
193.5351912917613
 51
270.0
  0
ARC
  5
A32
330
1F
100
AcDbEntity
  8
PEF-190A
  6
CENTER2
100
AcDbCircle
 10
214.4765282558788
 20
305.9796045861947
 30
0.0
 40
89.99999999999998
100
AcDbArc
 50
28.20174300613143
 51
53.50794833291062
  0
ARC
  5
A33
330
1F
100
AcDbEntity
  8
PEF-190A
  6
CONTINUOUS
100
AcDbCircle
 10
278.1161385626683
 20
369.6192148929838
 30
0.0
 40
2.349999999999992
100
AcDbArc
 50
12.93696028686061
 51
77.06303971313627
  0
ARC
  5
A34
330
1F
100
AcDbEntity
  8
PEF-190A
  6
HIDDEN
100
AcDbCircle
 10
278.1161385626683
 20
369.6192148929838
 30
0.0
 40
3.0
100
AcDbArc
 50
93.89755460650851
 51
356.1024453934912
  0
ARC
  5
A35
330
1F
100
AcDbEntity
  8
PEF-190A
  6
CONTINUOUS
100
AcDbCircle
 10
278.1161385626683
 20
369.6192148929838
 30
0.0
 40
3.0
100
AcDbArc
 50
356.1024453934912
 51
93.89755460650851
  0
ARC
  5
A36
330
1F
100
AcDbEntity
  8
PEF-190A
  6
HIDDEN
100
AcDbCircle
 10
278.1161385626683
 20
369.6192148929838
 30
0.0
 40
4.900000000000003
100
AcDbArc
 50
112.3266940716882
 51
337.6733059283115
  0
ARC
  5
A37
330
1F
100
AcDbEntity
  8
PEF-190A
  6
CONTINUOUS
100
AcDbCircle
 10
278.1161385626683
 20
369.6192148929838
 30
0.0
 40
4.899999999999992
100
AcDbArc
 50
337.6733059283115
 51
112.3266940716882
  0
LINE
  5
A38
330
1F
100
AcDbEntity
  8
PEF-190A
  6
CONTINUOUS
100
AcDbLine
 10
276.6218468057688
 20
375.1959876510638
 30
0.0
 11
282.1986195638487
 21
373.7016958941645
 31
0.0
  0
LINE
  5
A39
330
1F
100
AcDbEntity
  8
PEF-190A
  6
HIDDEN
100
AcDbLine
 10
282.9697391330381
 20
367.4017509483744
 30
0.0
 11
279.6104303195676
 21
364.042442134904
 31
0.0
  0
ARC
  5
A3A
330
1F
100
AcDbEntity
  8
PEF-190A
  6
HIDDEN
100
AcDbCircle
 10
278.1161385626683
 20
369.6192148929838
 30
0.0
 40
9.999999999999987
100
AcDbArc
 50
126.5661959020635
 51
323.4338040979364
  0
ARC
  5
A3B
330
1F
100
AcDbEntity
  8
PEF-190A
  6
CENTER2
100
AcDbCircle
 10
214.4765282558788
 20
305.9796045861947
 30
0.0
 40
90.00000000000001
100
AcDbArc
 50
36.49205166708938
 51
53.50794833291062
  0
LINE
  5
A3C
330
1F
100
AcDbEntity
  8
PEF-190A
  6
HIDDEN
100
AcDbLine
 10
291.9356083471766
 20
355.619214892984
 30
0.0
 11
278.116138562668
 21
355.619214892984
 31
0.0
  0
ARC
  5
A3D
330
1F
100
AcDbEntity
  8
PEF-190A
  6
HIDDEN
100
AcDbCircle
 10
278.116138562668
 20
369.619214892984
 30
0.0
 40
14.0
100
AcDbArc
 50
180.0
 51
270.0
  0
ARC
  5
A3E
330
1F
100
AcDbEntity
  8
PEF-190A
  6
HIDDEN
100
AcDbCircle
 10
278.1161385626683
 20
369.6192148929838
 30
0.0
 40
2.35000000000001
100
AcDbArc
 50
77.06303971313627
 51
12.93696028686061
  0
LINE
  5
A3F
330
1F
100
AcDbEntity
  8
PEF-190A
  6
HIDDEN
100
AcDbLine
 10
274.0336575614878
 20
365.5367338918033
 30
0.0
 11
272.5393658045882
 21
371.1135066498833
 31
0.0
  0
LINE
  5
A40
330
1F
100
AcDbEntity
  8
PEF-190A
  6
HIDDEN
100
AcDbLine
 10
279.6104303195676
 20
364.042442134904
 30
0.0
 11
274.0336575614878
 21
365.5367338918033
 31
0.0
  0
LINE
  5
A41
330
1F
100
AcDbEntity
  8
PEF-190A
  6
HIDDEN
100
AcDbLine
 10
272.5393658045882
 20
371.1135066498833
 30
0.0
 11
275.8986746180589
 21
374.4728154633538
 31
0.0
  0
LINE
  5
A42
330
1F
100
AcDbEntity
  8
PEF-190A
  6
CONTINUOUS
100
AcDbLine
 10
275.8986746180589
 20
374.4728154633538
 30
0.0
 11
276.6218468057688
 21
375.1959876510638
 31
0.0
  0
LINE
  5
A43
330
1F
100
AcDbEntity
  8
PEF-190A
  6
CONTINUOUS
100
AcDbLine
 10
305.7972133705736
 20
355.6192148929842
 30
0.0
 11
291.9356083471766
 21
355.619214892984
 31
0.0
  0
ARC
  5
A44
330
1F
100
AcDbEntity
  8
PEF-190A
  6
CONTINUOUS
100
AcDbCircle
 10
305.7972133705736
 20
353.619214892984
 30
0.0
 40
2.000000000000003
100
AcDbArc
 50
27.54986998528822
 51
90.0
  0
LINE
  5
A45
330
1F
100
AcDbEntity
  8
PEF-190A
  6
CONTINUOUS
100
AcDbLine
 10
282.1986195638487
 20
373.7016958941645
 30
0.0
 11
283.6929113207481
 21
368.1249231360845
 31
0.0
  0
LINE
  5
A46
330
1F
100
AcDbEntity
  8
PEF-190A
  6
HIDDEN
100
AcDbLine
 10
285.1872063745338
 20
362.5481470811187
 30
0.0
 11
295.4563235632168
 21
372.8172642698018
 31
0.0
  0
LINE
  5
A47
330
1F
100
AcDbEntity
  8
PEF-190A
  6
CONTINUOUS
100
AcDbLine
 10
283.6929113207481
 20
368.1249231360845
 30
0.0
 11
282.9697391330381
 21
367.4017509483744
 31
0.0
  0
ARC
  5
A48
330
1F
100
AcDbEntity
  8
PEF-190A
  6
CONTINUOUS
100
AcDbCircle
 10
218.4765282558788
 20
305.9796045861947
 30
0.0
 40
95.00000000000005
100
AcDbArc
 50
4.830628592040248
 51
12.15319746900822
  0
LINE
  5
A49
330
1F
100
AcDbEntity
  8
PEF-190A
  6
HIDDEN
100
AcDbLine
 10
321.4765282558788
 20
301.2296045861946
 30
0.0
 11
326.9765282558787
 21
301.2296045861944
 31
0.0
  0
LINE
  5
A4A
330
1F
100
AcDbEntity
  8
PEF-190A
  6
HIDDEN
100
AcDbLine
 10
326.9765282558787
 20
310.7296045861946
 30
0.0
 11
321.4765282558788
 21
310.7296045861946
 31
0.0
  0
LINE
  5
A4B
330
1F
100
AcDbEntity
  8
PEF-190A
  6
CONTINUOUS
100
AcDbLine
 10
311.9765282558788
 20
297.9796045861943
 30
0.0
 11
326.9765282558787
 21
297.9796045861945
 31
0.0
  0
LINE
  5
A4C
330
1F
100
AcDbEntity
  8
PEF-190A
  6
CONTINUOUS
100
AcDbLine
 10
326.9765282558787
 20
313.9796045861945
 30
0.0
 11
311.9765282558788
 21
313.9796045861946
 31
0.0
  0
ARC
  5
A4D
330
1F
100
AcDbEntity
  8
PEF-190A
  6
CONTINUOUS
100
AcDbCircle
 10
218.4765282558788
 20
305.9796045861947
 30
0.0
 40
95.0
100
AcDbArc
 50
355.1693714079565
 51
4.830628592040248
  0
LINE
  5
A4E
330
1F
100
AcDbEntity
  8
PEF-190A
  6
CONTINUOUS
100
AcDbLine
 10
314.4765282558787
 20
297.9796045861945
 30
0.0
 11
314.4765282558787
 21
313.9796045861945
 31
0.0
  0
LINE
  5
A4F
330
1F
100
AcDbEntity
  8
PEF-190A
  6
CONTINUOUS
100
AcDbLine
 10
311.9765282558788
 20
297.9796045861945
 30
0.0
 11
311.9765282558788
 21
313.9796045861946
 31
0.0
  0
LINE
  5
A50
330
1F
100
AcDbEntity
  8
PEF-190A
  6
CONTINUOUS
100
AcDbLine
 10
313.4765282558791
 20
297.9796045861945
 30
0.0
 11
313.4765282558788
 21
313.9796045861945
 31
0.0
  0
ARC
  5
A51
330
1F
100
AcDbEntity
  8
PEF-190A
  6
HIDDEN
100
AcDbCircle
 10
214.4765282558788
 20
305.9796045861947
 30
0.0
 40
105.0
100
AcDbArc
 50
355.6303726948657
 51
4.36962730513091
  0
LINE
  5
A52
330
1F
100
AcDbEntity
  8
PEF-190A
  6
HIDDEN
100
AcDbLine
 10
321.4765282558788
 20
310.7296045861946
 30
0.0
 11
321.4765282558788
 21
301.2296045861946
 31
0.0
  0
LINE
  5
A53
330
1F
100
AcDbEntity
  8
PEF-190A
  6
HIDDEN
100
AcDbLine
 10
321.4765282558788
 20
303.2296045861946
 30
0.0
 11
313.4765282558791
 21
303.2296045861945
 31
0.0
  0
LINE
  5
A54
330
1F
100
AcDbEntity
  8
PEF-190A
  6
HIDDEN
100
AcDbLine
 10
321.476528255879
 20
308.7296045861946
 30
0.0
 11
313.4765282558791
 21
308.7296045861946
 31
0.0
  0
LINE
  5
A55
330
1F
100
AcDbEntity
  8
PEF-190A
  6
CONTINUOUS
100
AcDbLine
 10
326.9765282558787
 20
297.9796045861945
 30
0.0
 11
326.9765282558787
 21
313.9796045861945
 31
0.0
  0
POINT
  5
A57
330
1F
100
AcDbEntity
  8
PEF-190A
  6
CONTINUOUS
100
AcDbPoint
 10
309.9359437160632
 20
401.4390200463783
 30
0.0
  0
LINE
  5
A58
330
1F
100
AcDbEntity
  8
PEF-190A
  6
CENTER2
100
AcDbLine
 10
311.6455740415759
 20
385.5872540971347
 30
0.0
 11
294.6750112930988
 21
402.557816845612
 31
0.0
  0
LINE
  5
A59
330
1F
100
AcDbEntity
  8
PEF-190A
  6
CONTINUOUS
100
AcDbLine
 10
298.2686818264848
 20
384.822010688495
 30
0.0
 11
312.4108174502158
 21
398.9641463122261
 31
0.0
  0
ARC
  5
A5A
330
1F
100
AcDbEntity
  8
PEF-190A
  6
CONTINUOUS
100
AcDbCircle
 10
309.9359437160628
 20
401.4390200463788
 30
0.0
 40
3.499999999999998
100
AcDbArc
 50
315.0
 51
135.0
  0
ARC
  5
A5B
330
1F
100
AcDbEntity
  8
PEF-190A
  6
CONTINUOUS
100
AcDbCircle
 10
309.9359437160628
 20
401.4390200463788
 30
0.0
 40
10.0
100
AcDbArc
 50
315.0
 51
135.0
  0
LINE
  5
A61
330
1F
100
AcDbEntity
  8
PEF-190A
  6
CONTINUOUS
100
AcDbLine
 10
264.1161385626682
 20
383.4386846774928
 30
0.0
 11
264.116138562668
 21
397.3002897008898
 31
0.0
  0
ARC
  5
A62
330
1F
100
AcDbEntity
  8
PEF-190A
  6
CONTINUOUS
100
AcDbCircle
 10
262.1161385626677
 20
397.3002897008898
 30
0.0
 40
2.0
100
AcDbArc
 50
0.0
 51
62.45013001471019
  0
LINE
  5
A64
330
1F
100
AcDbEntity
  8
PEF-190A
  6
CONTINUOUS
100
AcDbLine
 10
293.318934358179
 20
389.7717581568008
 30
0.0
 11
307.4610699819098
 21
403.9138937805318
 31
0.0
  0
LINE
  5
A65
330
1F
100
AcDbEntity
  8
PEF-190A
  6
CONTINUOUS
100
AcDbLine
 10
281.3141879394858
 20
386.9593998935328
 30
0.0
 11
302.8648759041975
 21
408.5100878582442
 31
0.0
  0
POINT
  5
A66
330
1F
100
AcDbEntity
  8
PEF-190A
  6
CONTINUOUS
100
AcDbPoint
 10
295.7938080923322
 20
387.2968844226476
 30
0.0
  0
ARC
  5
A67
330
1F
100
AcDbEntity
  8
PEF-190A
  6
CONTINUOUS
100
AcDbCircle
 10
295.793808092332
 20
387.2968844226477
 30
0.0
 40
3.499999999999988
100
AcDbArc
 50
135.0
 51
315.0
  0
POINT
  5
A68
330
1F
100
AcDbEntity
  8
PEF-190A
  6
CONTINUOUS
100
AcDbPoint
 10
302.8648759041975
 20
394.3679522345133
 30
0.0
  0
LINE
  5
A7D
330
1F
100
AcDbEntity
  8
PEF-190A
  6
CONTINUOUS
100
AcDbLine
 10
466.5578755257333
 20
297.9796045861948
 30
0.0
 11
466.5578755257333
 21
286.3653188719091
 31
0.0
  0
LINE
  5
A7E
330
1F
100
AcDbEntity
  8
PEF-190A
  6
CONTINUOUS
100
AcDbLine
 10
650.0108444277811
 20
298.3754241666578
 30
0.0
 11
657.7751858830302
 21
281.7247401826778
 31
0.0
  0
LINE
  5
A7F
330
1F
100
AcDbEntity
  8
PEF-190A
  6
CONTINUOUS
100
AcDbLine
 10
645.4793054925983
 20
296.2623328579545
 30
0.0
 11
653.243646947847
 21
279.6116488739742
 31
0.0
  0
LINE
  5
A88
330
1F
100
AcDbEntity
  8
PEF-190A
  6
CONTINUOUS
100
AcDbLine
 10
634.1504581546403
 20
202.9796045861956
 30
0.0
 11
634.15045815464
 21
408.9796045861953
 31
0.0
  0
LINE
  5
A8E
330
1F
100
AcDbEntity
  8
PEF-190A
  6
HIDDEN
100
AcDbLine
 10
479.5578755257333
 20
289.3155095085091
 30
0.0
 11
479.5578755257333
 21
322.6436996638806
 31
0.0
  0
LINE
  5
A90
330
1F
100
AcDbEntity
  8
PEF-190A
  6
CONTINUOUS
100
AcDbLine
 10
478.0578755257336
 20
215.4796045861948
 30
0.0
 11
478.057875525733
 21
403.9796045861948
 31
0.0
  0
LINE
  5
A91
330
1F
100
AcDbEntity
  8
PEF-190A
  6
CONTINUOUS
100
AcDbLine
 10
462.0578755257333
 20
216.1758744211933
 30
0.0
 11
462.0578755257331
 21
399.9796045861948
 31
0.0
  0
LINE
  5
A96
330
1F
100
AcDbEntity
  8
PEF-190A
  6
CONTINUOUS
100
AcDbLine
 10
622.2880623378706
 20
254.4684353702177
 30
0.0
 11
600.15045815464
 21
255.9951666931989
 31
0.0
  0
LINE
  5
A97
330
1F
100
AcDbEntity
  8
PEF-190A
  6
CONTINUOUS
100
AcDbLine
 10
602.0587908295373
 20
213.5419816426935
 30
0.0
 11
622.2421254797438
 21
214.468030990928
 31
0.0
  0
LINE
  5
A98
330
1F
100
AcDbEntity
  8
PEF-190A
  6
CONTINUOUS
100
AcDbLine
 10
602.1504581546403
 20
200.9796045861953
 30
0.0
 11
632.1504581546403
 21
200.9796045861956
 31
0.0
  0
LINE
  5
AAB
330
1F
100
AcDbEntity
  8
PEF-190A
  6
CONTINUOUS
100
AcDbLine
 10
600.1504581546403
 20
215.9796045861956
 30
0.0
 11
485.1504581546405
 21
215.9796045861945
 31
0.0
  0
LINE
  5
AAC
330
1F
100
AcDbEntity
  8
PEF-190A
  6
CONTINUOUS
100
AcDbLine
 10
485.1504581546404
 20
214.7796045861963
 30
0.0
 11
600.15045815464
 21
214.7796045861954
 31
0.0
  0
LINE
  5
AAD
330
1F
100
AcDbEntity
  8
PEF-190A
  6
CONTINUOUS
100
AcDbLine
 10
489.9347744701262
 20
214.7796045861947
 30
0.0
 11
581.934774470126
 21
214.7796045861954
 31
0.0
  0
LINE
  5
AAE
330
1F
100
AcDbEntity
  8
PEF-190A
  6
CONTINUOUS
100
AcDbLine
 10
485.1504581546418
 20
220.9712825125035
 30
0.0
 11
481.8481070056257
 21
220.9712825125035
 31
0.0
  0
LINE
  5
AAF
330
1F
100
AcDbEntity
  8
PEF-190A
  6
CONTINUOUS
100
AcDbLine
 10
485.1504581546411
 20
270.9712825125035
 30
0.0
 11
481.8481070056257
 21
270.9712825125035
 31
0.0
  0
LINE
  5
AC5
330
1F
100
AcDbEntity
  8
PEF-190A
  6
CONTINUOUS
100
AcDbLine
 10
485.1504581546408
 20
279.3347273423985
 30
0.0
 11
479.5578755257336
 21
280.9796045861949
 31
0.0
  0
LINE
  5
AC6
330
1F
100
AcDbEntity
  8
PEF-190A
  6
CONTINUOUS
100
AcDbLine
 10
479.5578755257333
 20
287.4796045861948
 30
0.0
 11
485.1504581546408
 21
288.9599941056116
 31
0.0
  0
LINE
  5
AC7
330
1F
100
AcDbEntity
  8
PEF-190A
  6
CONTINUOUS
100
AcDbLine
 10
478.0578755257335
 20
218.4796045861947
 30
0.0
 11
485.1504581546418
 21
218.4796045861947
 31
0.0
  0
LINE
  5
AC9
330
1F
100
AcDbEntity
  8
PEF-190A
  6
CENTER2
100
AcDbLine
 10
470.0578755257335
 20
203.0284103951031
 30
0.0
 11
470.0578755257335
 21
225.9666958082258
 31
0.0
  0
LINE
  5
ACB
330
1F
100
AcDbEntity
  8
PEF-190A
  6
CONTINUOUS
100
AcDbLine
 10
481.8481070056257
 20
270.9712825125035
 30
0.0
 11
481.8481070056257
 21
220.9712825125035
 31
0.0
  0
LINE
  5
ACC
330
1F
100
AcDbEntity
  8
PEF-190A
  6
CONTINUOUS
100
AcDbLine
 10
483.1422022311382
 20
220.9712825125035
 30
0.0
 11
483.1422022311381
 21
270.9712825125035
 31
0.0
  0
LINE
  5
ACD
330
1F
100
AcDbEntity
  8
PEF-190A
  6
CONTINUOUS
100
AcDbLine
 10
481.3578755257335
 20
218.4796045861949
 30
0.0
 11
481.3578755257333
 21
280.4501928214891
 31
0.0
  0
LINE
  5
ACE
330
1F
100
AcDbEntity
  8
PEF-190A
  6
CONTINUOUS
100
AcDbLine
 10
479.5578755257336
 20
218.4796045861949
 30
0.0
 11
479.5578755257333
 21
287.4796045861948
 31
0.0
  0
ARC
  5
AD0
330
1F
100
AcDbEntity
  8
PEF-190A
  6
CONTINUOUS
100
AcDbCircle
 10
464.0578755257336
 20
216.1758744211933
 30
0.0
 40
2.0
100
AcDbArc
 50
180.0
 51
275.3558250428554
  0
LINE
  5
AD5
330
1F
100
AcDbEntity
  8
PEF-190A
  6
PHANTOM2
100
AcDbLine
 10
466.5578755257333
 20
206.9796045861949
 30
0.0
 11
477.0578755257337
 21
206.9796045861949
 31
0.0
  0
LINE
  5
AD6
330
1F
100
AcDbEntity
  8
PEF-190A
  6
CONTINUOUS
100
AcDbLine
 10
464.2445569431196
 20
214.1846059690745
 30
0.0
 11
478.0578755257336
 21
215.4796045861948
 31
0.0
  0
LINE
  5
AD7
330
1F
100
AcDbEntity
  8
PEF-190A
  6
PHANTOM2
100
AcDbLine
 10
466.5578755257333
 20
210.9796045861946
 30
0.0
 11
466.5578755257333
 21
206.9796045861949
 31
0.0
  0
LINE
  5
AD8
330
1F
100
AcDbEntity
  8
PEF-190A
  6
PHANTOM2
100
AcDbLine
 10
463.0578755257332
 20
210.9796045861946
 30
0.0
 11
466.5578755257333
 21
210.9796045861946
 31
0.0
  0
LINE
  5
AD9
330
1F
100
AcDbEntity
  8
PEF-190A
  6
PHANTOM2
100
AcDbLine
 10
462.0578755257333
 20
211.9796045861948
 30
0.0
 11
463.0578755257332
 21
210.9796045861946
 31
0.0
  0
LINE
  5
ADA
330
1F
100
AcDbEntity
  8
PEF-190A
  6
PHANTOM2
100
AcDbLine
 10
462.0578755257333
 20
216.1758744211933
 30
0.0
 11
462.0578755257333
 21
211.9796045861948
 31
0.0
  0
LINE
  5
ADC
330
1F
100
AcDbEntity
  8
PEF-190A
  6
PHANTOM2
100
AcDbLine
 10
477.0578755257337
 20
206.9796045861949
 30
0.0
 11
478.0578755257335
 21
207.9796045861949
 31
0.0
  0
LINE
  5
ADD
330
1F
100
AcDbEntity
  8
PEF-190A
  6
PHANTOM2
100
AcDbLine
 10
478.0578755257336
 20
215.4796045861948
 30
0.0
 11
478.0578755257335
 21
207.9796045861949
 31
0.0
  0
ARC
  5
AE6
330
1F
100
AcDbEntity
  8
PEF-190A
  6
CONTINUOUS
100
AcDbCircle
 10
464.0578755257333
 20
288.1583666513664
 30
0.0
 40
2.0
100
AcDbArc
 50
180.0
 51
274.8990924537878
  0
LINE
  5
AF0
330
1F
100
AcDbEntity
  8
PEF-190A
  6
CONTINUOUS
100
AcDbLine
 10
477.7286778084262
 20
287.3228162104256
 30
0.0
 11
464.2286778084262
 21
286.1656733532828
 31
0.0
  0
ARC
  5
AF1
330
1F
100
AcDbEntity
  8
PEF-190A
  6
CONTINUOUS
100
AcDbCircle
 10
477.5578755257335
 20
289.3155095085091
 30
0.0
 40
1.999999999999995
100
AcDbArc
 50
274.8990924537844
 51
284.4775121859303
  0
ARC
  5
AF2
330
1F
100
AcDbEntity
  8
PEF-190A
  6
HIDDEN
100
AcDbCircle
 10
477.5578755257335
 20
289.3155095085091
 30
0.0
 40
1.999999999999999
100
AcDbArc
 50
284.4775121859303
 51
0.0
  0
LINE
  5
AF5
330
1F
100
AcDbEntity
  8
PEF-190A
  6
CONTINUOUS
100
AcDbLine
 10
600.15045815464
 20
230.9069125564689
 30
0.0
 11
600.15045815464
 21
202.9796045861952
 31
0.0
  0
LINE
  5
AF6
330
1F
100
AcDbEntity
  8
PEF-190A
  6
CONTINUOUS
100
AcDbLine
 10
602.1504581546403
 20
200.9796045861953
 30
0.0
 11
600.15045815464
 21
202.9796045861952
 31
0.0
  0
ARC
  5
B40
330
1F
100
AcDbEntity
  8
PEF-190A
  6
CONTINUOUS
100
AcDbCircle
 10
602.1504581546406
 20
211.5440834717376
 30
0.0
 40
2.000000000000018
100
AcDbArc
 50
92.626995737654
 51
180.0
  0
LINE
  5
B63
330
1F
100
AcDbEntity
  8
PEF-190A
  6
CONTINUOUS
100
AcDbLine
 10
649.1504581546402
 20
187.3399942794058
 30
0.0
 11
649.1504581546402
 21
252.339994279406
 31
0.0
  0
LINE
  5
B64
330
1F
100
AcDbEntity
  8
PEF-190A
  6
CONTINUOUS
100
AcDbLine
 10
646.8504581546401
 20
252.339994279406
 30
0.0
 11
646.8504581546405
 21
187.3399942794058
 31
0.0
  0
LINE
  5
B67
330
1F
100
AcDbEntity
  8
PEF-190A
  6
CONTINUOUS
100
AcDbLine
 10
632.1504581546403
 20
200.9796045861956
 30
0.0
 11
634.1504581546403
 21
202.9796045861956
 31
0.0
  0
LINE
  5
B68
330
1F
100
AcDbEntity
  8
PEF-190A
  6
HIDDEN
100
AcDbLine
 10
646.8504581546405
 20
193.8399942794058
 30
0.0
 11
649.1504581546402
 21
193.8399942794058
 31
0.0
  0
LINE
  5
B69
330
1F
100
AcDbEntity
  8
PEF-190A
  6
CONTINUOUS
100
AcDbLine
 10
646.8504581546405
 20
187.3399942794058
 30
0.0
 11
649.1504581546402
 21
187.3399942794058
 31
0.0
  0
LINE
  5
B6A
330
1F
100
AcDbEntity
  8
PEF-190A
  6
CONTINUOUS
100
AcDbLine
 10
674.6718181230598
 20
249.7741078517007
 30
0.0
 11
664.4099337520502
 21
261.5809735038479
 31
0.0
  0
LINE
  5
B6B
330
1F
100
AcDbEntity
  8
PEF-190A
  6
CONTINUOUS
100
AcDbLine
 10
676.1813737866721
 20
251.0860688642523
 30
0.0
 11
666.2955447057558
 21
262.4602483318616
 31
0.0
  0
LINE
  5
B6C
330
1F
100
AcDbEntity
  8
PEF-190A
  6
CONTINUOUS
100
AcDbLine
 10
664.8829613298532
 20
245.8175326106444
 30
0.0
 11
662.5243227983446
 21
260.7016986758337
 31
0.0
  0
LINE
  5
B6D
330
1F
100
AcDbEntity
  8
PEF-190A
  6
CONTINUOUS
100
AcDbLine
 10
666.8583054498092
 20
246.1306070550731
 30
0.0
 11
664.4099337520502
 21
261.5809735038479
 31
0.0
  0
LINE
  5
B6E
330
1F
100
AcDbEntity
  8
PEF-190A
  6
CONTINUOUS
100
AcDbLine
 10
624.1504581546405
 20
252.3399942794058
 30
0.0
 11
624.1504581546402
 21
232.3399942794059
 31
0.0
  0
LINE
  5
B6F
330
1F
100
AcDbEntity
  8
PEF-190A
  6
CONTINUOUS
100
AcDbLine
 10
622.1504581546403
 20
232.3399942794059
 30
0.0
 11
622.15045815464
 21
252.3399942794058
 31
0.0
  0
LINE
  5
B70
330
1F
100
AcDbEntity
  8
PEF-190A
  6
CONTINUOUS
100
AcDbLine
 10
636.45045815464
 20
232.3399942794059
 30
0.0
 11
636.4504581546404
 21
252.339994279406
 31
0.0
  0
LINE
  5
B71
330
1F
100
AcDbEntity
  8
PEF-190A
  6
CONTINUOUS
100
AcDbLine
 10
634.1504581546403
 20
252.339994279406
 30
0.0
 11
634.1504581546403
 21
232.3399942794059
 31
0.0
  0
LINE
  5
B72
330
1F
100
AcDbEntity
  8
PEF-190A
  6
CONTINUOUS
100
AcDbLine
 10
624.1504581546402
 20
216.4659291618838
 30
0.0
 11
624.1504581546397
 21
252.4731747133717
 31
0.0
  0
LINE
  5
B73
330
1F
100
AcDbEntity
  8
PEF-190A
  6
CONTINUOUS
100
AcDbLine
 10
637.9504581546405
 20
234.8399942794058
 30
0.0
 11
645.3504581546402
 21
234.8399942794058
 31
0.0
  0
LINE
  5
B74
330
1F
100
AcDbEntity
  8
PEF-190A
  6
CENTER2
100
AcDbLine
 10
613.8078274119252
 20
242.3399942794058
 30
0.0
 11
652.2749985953926
 21
242.339994279406
 31
0.0
  0
ARC
  5
B75
330
1F
100
AcDbEntity
  8
PEF-190A
  6
CONTINUOUS
100
AcDbCircle
 10
622.1504581546403
 20
216.4659291618838
 30
0.0
 40
2.000000000000014
100
AcDbArc
 50
272.6269957376507
 51
0.0
  0
ARC
  5
B78
330
1F
100
AcDbEntity
  8
PEF-190A
  6
CONTINUOUS
100
AcDbCircle
 10
620.154773530922
 20
238.0098692794059
 30
0.0
 40
2.886751174926818
100
AcDbArc
 50
150.0000130688825
 51
209.9999869311169
  0
LINE
  5
B79
330
1F
100
AcDbEntity
  8
PEF-190A
  6
CONTINUOUS
100
AcDbLine
 10
617.15045815464
 20
247.2399942794059
 30
0.0
 11
617.1504581546403
 21
237.4399942794058
 31
0.0
  0
LINE
  5
B7A
330
1F
100
AcDbEntity
  8
PEF-190A
  6
CONTINUOUS
100
AcDbLine
 10
622.15045815464
 20
236.5664942794058
 30
0.0
 11
617.6547733796402
 21
236.5664942794059
 31
0.0
  0
LINE
  5
B7B
330
1F
100
AcDbEntity
  8
PEF-190A
  6
CONTINUOUS
100
AcDbLine
 10
617.6547733796402
 20
236.5664942794059
 30
0.0
 11
617.1504581546403
 21
237.4399942794058
 31
0.0
  0
LINE
  5
B7C
330
1F
100
AcDbEntity
  8
PEF-190A
  6
CONTINUOUS
100
AcDbLine
 10
624.1504581546402
 20
232.3399942794059
 30
0.0
 11
622.1504581546403
 21
232.3399942794059
 31
0.0
  0
LINE
  5
B7D
330
1F
100
AcDbEntity
  8
PEF-190A
  6
CONTINUOUS
100
AcDbLine
 10
622.1504581546403
 20
245.2267442794059
 30
0.0
 11
617.6547733796402
 21
245.2267442794059
 31
0.0
  0
LINE
  5
B7E
330
1F
100
AcDbEntity
  8
PEF-190A
  6
CONTINUOUS
100
AcDbLine
 10
622.15045815464
 20
239.4532442794059
 30
0.0
 11
617.6547733796402
 21
239.4532442794058
 31
0.0
  0
LINE
  5
B7F
330
1F
100
AcDbEntity
  8
PEF-190A
  6
CONTINUOUS
100
AcDbLine
 10
622.15045815464
 20
248.113494279406
 30
0.0
 11
617.6547733796402
 21
248.1134942794059
 31
0.0
  0
ARC
  5
B80
330
1F
100
AcDbEntity
  8
PEF-190A
  6
CONTINUOUS
100
AcDbCircle
 10
620.154773530922
 20
246.6701192794058
 30
0.0
 40
2.886751174926768
100
AcDbArc
 50
150.0000130688799
 51
209.9999869311198
  0
ARC
  5
B81
330
1F
100
AcDbEntity
  8
PEF-190A
  6
CONTINUOUS
100
AcDbCircle
 10
625.6646364307023
 20
242.339994279406
 30
0.0
 40
8.514178276062041
100
AcDbArc
 50
160.1808667565913
 51
199.8191332434085
  0
LINE
  5
B82
330
1F
100
AcDbEntity
  8
PEF-190A
  6
CONTINUOUS
100
AcDbLine
 10
617.6547733796402
 20
248.1134942794059
 30
0.0
 11
617.15045815464
 21
247.2399942794059
 31
0.0
  0
LINE
  5
B83
330
1F
100
AcDbEntity
  8
PEF-190A
  6
CONTINUOUS
100
AcDbLine
 10
616.4504581546403
 20
239.9899942794058
 30
0.0
 11
617.1504581546403
 21
239.9899942794058
 31
0.0
  0
LINE
  5
B84
330
1F
100
AcDbEntity
  8
PEF-190A
  6
CONTINUOUS
100
AcDbLine
 10
616.4504581546403
 20
244.6899942794058
 30
0.0
 11
617.15045815464
 21
244.6899942794058
 31
0.0
  0
LINE
  5
B85
330
1F
100
AcDbEntity
  8
PEF-190A
  6
CONTINUOUS
100
AcDbLine
 10
616.4504581546403
 20
239.3399942794058
 30
0.0
 11
617.15045815464
 21
239.3399942794058
 31
0.0
  0
LINE
  5
B86
330
1F
100
AcDbEntity
  8
PEF-190A
  6
CONTINUOUS
100
AcDbLine
 10
616.4504581546403
 20
245.3399942794058
 30
0.0
 11
617.15045815464
 21
245.3399942794058
 31
0.0
  0
LINE
  5
B87
330
1F
100
AcDbEntity
  8
PEF-190A
  6
CONTINUOUS
100
AcDbLine
 10
616.4504581546403
 20
245.3399942794058
 30
0.0
 11
616.4504581546403
 21
239.3399942794058
 31
0.0
  0
LINE
  5
B88
330
1F
100
AcDbEntity
  8
PEF-190A
  6
CONTINUOUS
100
AcDbLine
 10
634.1504581546403
 20
232.3399942794059
 30
0.0
 11
636.45045815464
 21
232.3399942794059
 31
0.0
  0
ARC
  5
B8B
330
1F
100
AcDbEntity
  8
PEF-190A
  6
CONTINUOUS
100
AcDbCircle
 10
637.9504581546402
 20
233.3399942794058
 30
0.0
 40
1.5
100
AcDbArc
 50
90.0
 51
180.0
  0
LINE
  5
B8C
330
1F
100
AcDbEntity
  8
PEF-190A
  6
CONTINUOUS
100
AcDbLine
 10
665.262686405873
 20
229.3748309528504
 30
0.0
 11
666.0771653235801
 21
224.2382159375007
 31
0.0
  0
LINE
  5
B8D
330
1F
100
AcDbEntity
  8
PEF-190A
  6
CONTINUOUS
100
AcDbLine
 10
671.5837169504311
 20
230.3771147723179
 30
0.0
 11
672.3981958681377
 21
225.2404997569696
 31
0.0
  0
LINE
  5
B8E
330
1F
100
AcDbEntity
  8
PEF-190A
  6
CONTINUOUS
100
AcDbLine
 10
666.4793243167247
 20
229.3644492665869
 30
0.0
 11
667.2623585506848
 21
224.4261441536512
 31
0.0
  0
LINE
  5
B8F
330
1F
100
AcDbEntity
  8
PEF-190A
  6
CONTINUOUS
100
AcDbLine
 10
671.2130026410334
 20
225.0525715408193
 30
0.0
 11
670.4299684070734
 21
229.9908766537551
 31
0.0
  0
LINE
  5
B90
330
1F
100
AcDbEntity
  8
PEF-190A
  6
CENTER2
100
AcDbLine
 10
644.2749985953923
 20
207.3399942794059
 30
0.0
 11
652.2749985953927
 21
207.3399942794059
 31
0.0
  0
LINE
  5
B91
330
1F
100
AcDbEntity
  8
PEF-190A
  6
HIDDEN
100
AcDbLine
 10
646.8504581546402
 20
220.839994279406
 30
0.0
 11
649.1504581546402
 21
220.8399942794058
 31
0.0
  0
LINE
  5
B92
330
1F
100
AcDbEntity
  8
PEF-190A
  6
CONTINUOUS
100
AcDbLine
 10
667.2623585506851
 20
224.4261441536512
 30
0.0
 11
666.0771653235801
 21
224.2382159375007
 31
0.0
  0
LINE
  5
B93
330
1F
100
AcDbEntity
  8
PEF-190A
  6
CONTINUOUS
100
AcDbLine
 10
672.3981958681377
 20
225.2404997569696
 30
0.0
 11
671.213002641033
 21
225.0525715408193
 31
0.0
  0
ARC
  5
B94
330
1F
100
AcDbEntity
  8
PEF-190A
  6
CONTINUOUS
100
AcDbCircle
 10
645.3504581546401
 20
233.3399942794058
 30
0.0
 40
1.5
100
AcDbArc
 50
0.0
 51
90.0
  0
LINE
  5
B95
330
1F
100
AcDbEntity
  8
PEF-190A
  6
CONTINUOUS
100
AcDbLine
 10
664.552022213386
 20
235.1338085553178
 30
0.0
 11
662.90765032207
 21
245.5042492924828
 31
0.0
  0
LINE
  5
B96
330
1F
100
AcDbEntity
  8
PEF-190A
  6
CONTINUOUS
100
AcDbLine
 10
668.8336164575928
 20
246.4438903732346
 30
0.0
 11
670.4779883489086
 21
236.0734496360699
 31
0.0
  0
LINE
  5
B97
330
1F
100
AcDbEntity
  8
PEF-190A
  6
CONTINUOUS
100
AcDbLine
 10
665.1475667550966
 20
232.9793955444629
 30
0.0
 11
665.453759908264
 21
235.2767911108696
 31
0.0
  0
LINE
  5
B98
330
1F
100
AcDbEntity
  8
PEF-190A
  6
CONTINUOUS
100
AcDbLine
 10
670.4779883489086
 20
236.0734496360699
 30
0.0
 11
664.552022213386
 21
235.1338085553178
 31
0.0
  0
LINE
  5
B99
330
1F
100
AcDbEntity
  8
PEF-190A
  6
CONTINUOUS
100
AcDbLine
 10
665.262686405873
 20
229.3748309528504
 30
0.0
 11
665.1475667550966
 21
232.9793955444629
 31
0.0
  0
LINE
  5
B9A
330
1F
100
AcDbEntity
  8
PEF-190A
  6
CONTINUOUS
100
AcDbLine
 10
671.5837169504311
 20
230.3771147723179
 30
0.0
 11
670.5781215236727
 21
233.8404825360365
 31
0.0
  0
LINE
  5
B9B
330
1F
100
AcDbEntity
  8
PEF-190A
  6
CONTINUOUS
100
AcDbLine
 10
670.5781215236727
 20
233.8404825360365
 30
0.0
 11
669.5762506540301
 21
235.9304670805185
 31
0.0
  0
ARC
  5
B9C
330
1F
100
AcDbEntity
  8
PEF-190A
  6
CONTINUOUS
100
AcDbCircle
 10
668.4546463618987
 20
229.6776629601711
 30
0.0
 40
2.00000000000005
100
AcDbArc
 50
9.009999999999745
 51
189.0099999999995
  0
LINE
  5
B9D
330
1F
100
AcDbEntity
  8
PEF-190A
  6
CONTINUOUS
100
AcDbLine
 10
662.90765032207
 20
245.5042492924828
 30
0.0
 11
668.8336164575928
 21
246.4438903732346
 31
0.0
  0
LINE
  5
B9E
330
1F
100
AcDbEntity
  8
PEF-190A
  6
CONTINUOUS
100
AcDbLine
 10
637.9504581546405
 20
249.839994279406
 30
0.0
 11
645.3504581546407
 21
249.8399942794058
 31
0.0
  0
LINE
  5
B9F
330
1F
100
AcDbEntity
  8
PEF-190A
  6
CONTINUOUS
100
AcDbLine
 10
622.15045815464
 20
252.3399942794058
 30
0.0
 11
624.1504581546405
 21
252.3399942794058
 31
0.0
  0
ARC
  5
BA0
330
1F
100
AcDbEntity
  8
PEF-190A
  6
CONTINUOUS
100
AcDbCircle
 10
622.1504581546398
 20
252.4731747133717
 30
0.0
 40
2.0
100
AcDbArc
 50
0.0
 51
86.05481377096142
  0
LINE
  5
BA1
330
1F
100
AcDbEntity
  8
PEF-190A
  6
CONTINUOUS
100
AcDbLine
 10
636.4504581546404
 20
252.339994279406
 30
0.0
 11
634.1504581546403
 21
252.339994279406
 31
0.0
  0
ARC
  5
BA2
330
1F
100
AcDbEntity
  8
PEF-190A
  6
CONTINUOUS
100
AcDbCircle
 10
637.9504581546405
 20
251.3399942794058
 30
0.0
 40
1.5
100
AcDbArc
 50
180.0
 51
270.0
  0
LINE
  5
BA4
330
1F
100
AcDbEntity
  8
PEF-190A
  6
CONTINUOUS
100
AcDbLine
 10
659.1249120374939
 20
278.830243103638
 30
0.0
 11
666.6757032196417
 21
262.6375191581995
 31
0.0
  0
LINE
  5
BA5
330
1F
100
AcDbEntity
  8
PEF-190A
  6
CONTINUOUS
100
AcDbLine
 10
654.5933731023104
 20
276.7171517949345
 30
0.0
 11
662.1441642844586
 21
260.5244278494962
 31
0.0
  0
ARC
  5
BA6
330
1F
100
AcDbEntity
  8
PEF-190A
  6
CONTINUOUS
100
AcDbCircle
 10
645.3504581546401
 20
251.3399942794058
 30
0.0
 40
1.5
100
AcDbArc
 50
270.0
 51
0.0
  0
LINE
  5
BA7
330
1F
100
AcDbEntity
  8
PEF-190A
  6
CONTINUOUS
100
AcDbLine
 10
649.1504581546402
 20
252.339994279406
 30
0.0
 11
646.8504581546401
 21
252.339994279406
 31
0.0
  0
LINE
  5
BA8
330
1F
100
AcDbEntity
  8
PEF-190A
  6
CONTINUOUS
100
AcDbLine
 10
666.6757032196417
 20
262.6375191581995
 30
0.0
 11
662.1441642844587
 21
260.5244278494962
 31
0.0
  0
LINE
  5
BA9
330
1F
100
AcDbEntity
  8
PEF-190A
  6
CONTINUOUS
100
AcDbLine
 10
658.3253741519847
 20
278.0064203955104
 30
0.0
 11
657.0195987945781
 21
278.089693672204
 31
0.0
  0
LINE
  5
BAA
330
1F
100
AcDbEntity
  8
PEF-190A
  6
CONTINUOUS
100
AcDbLine
 10
655.1026094400874
 20
277.423507458655
 30
0.0
 11
654.5933731023104
 21
276.7171517949345
 31
0.0
  0
LINE
  5
BAB
330
1F
100
AcDbEntity
  8
PEF-190A
  6
CONTINUOUS
100
AcDbLine
 10
656.2694725254292
 20
276.9793833162891
 30
0.0
 11
655.1026094400874
 21
277.423507458655
 31
0.0
  0
LINE
  5
BAC
330
1F
100
AcDbEntity
  8
PEF-190A
  6
CONTINUOUS
100
AcDbLine
 10
657.0195987945781
 20
278.089693672204
 30
0.0
 11
656.2694725254292
 21
276.9793833162891
 31
0.0
  0
LINE
  5
BAD
330
1F
100
AcDbEntity
  8
PEF-190A
  6
CONTINUOUS
100
AcDbLine
 10
653.7528832856239
 20
280.3180045376945
 30
0.0
 11
653.243646947847
 21
279.6116488739742
 31
0.0
  0
LINE
  5
BAE
330
1F
100
AcDbEntity
  8
PEF-190A
  6
CONTINUOUS
100
AcDbLine
 10
654.9197463709662
 20
279.8738803953285
 30
0.0
 11
653.7528832856239
 21
280.3180045376945
 31
0.0
  0
LINE
  5
BAF
330
1F
100
AcDbEntity
  8
PEF-190A
  6
CONTINUOUS
100
AcDbLine
 10
655.6698726401142
 20
280.9841907512435
 30
0.0
 11
654.9197463709662
 21
279.8738803953285
 31
0.0
  0
LINE
  5
BB0
330
1F
100
AcDbEntity
  8
PEF-190A
  6
CONTINUOUS
100
AcDbLine
 10
656.975647997521
 20
280.9009174745501
 30
0.0
 11
655.6698726401142
 21
280.9841907512435
 31
0.0
  0
LINE
  5
BB1
330
1F
100
AcDbEntity
  8
PEF-190A
  6
CONTINUOUS
100
AcDbLine
 10
657.7751858830302
 20
281.7247401826778
 30
0.0
 11
656.975647997521
 21
280.9009174745501
 31
0.0
  0
LINE
  5
BB2
330
1F
100
AcDbEntity
  8
PEF-190A
  6
CONTINUOUS
100
AcDbLine
 10
659.1249120374939
 20
278.830243103638
 30
0.0
 11
658.3253741519847
 21
278.0064203955104
 31
0.0
  0
LINE
  5
BB5
330
1F
100
AcDbEntity
  8
PEF-190A
  6
CONTINUOUS
100
AcDbLine
 10
684.5783047946972
 20
244.4722174873592
 30
0.0
 11
677.691068172752
 21
252.397870249961
 31
0.0
  0
LINE
  5
BB6
330
1F
100
AcDbEntity
  8
PEF-190A
  6
CONTINUOUS
100
AcDbLine
 10
677.691068172752
 20
252.397870249961
 30
0.0
 11
673.1621237369798
 21
248.4623064659923
 31
0.0
  0
LINE
  5
BB7
330
1F
100
AcDbEntity
  8
PEF-190A
  6
CONTINUOUS
100
AcDbLine
 10
688.5331314475351
 20
240.2260176844523
 30
0.0
 11
685.8458722574172
 21
242.6311739110266
 31
0.0
  0
LINE
  5
BB8
330
1F
100
AcDbEntity
  8
PEF-190A
  6
CONTINUOUS
100
AcDbLine
 10
687.7590445060367
 20
239.2873457542588
 30
0.0
 11
691.0386809926773
 21
235.513225391115
 31
0.0
  0
LINE
  5
BB9
330
1F
100
AcDbEntity
  8
PEF-190A
  6
CONTINUOUS
100
AcDbLine
 10
688.0193847021623
 20
232.8895162018024
 30
0.0
 11
684.739748215522
 21
236.6636365649462
 31
0.0
  0
ARC
  5
BBA
330
1F
100
AcDbEntity
  8
PEF-190A
  6
CONTINUOUS
100
AcDbCircle
 10
686.2493963607793
 20
237.9754911596025
 30
0.0
 40
2.000000000000043
100
AcDbArc
 50
40.98999999999874
 51
220.9900000000009
  0
LINE
  5
BBB
330
1F
100
AcDbEntity
  8
PEF-190A
  6
CONTINUOUS
100
AcDbLine
 10
687.1135958150079
 20
232.1024034450085
 30
0.0
 11
688.0193847021623
 21
232.8895162018024
 31
0.0
  0
LINE
  5
BBC
330
1F
100
AcDbEntity
  8
PEF-190A
  6
CONTINUOUS
100
AcDbLine
 10
683.7022573827121
 20
236.028082981551
 30
0.0
 11
681.6955480335153
 21
239.0246236565511
 31
0.0
  0
LINE
  5
BBD
330
1F
100
AcDbEntity
  8
PEF-190A
  6
CONTINUOUS
100
AcDbLine
 10
683.7022573827121
 20
236.028082981551
 30
0.0
 11
687.1135958150079
 21
232.1024034450085
 31
0.0
  0
LINE
  5
BBE
330
1F
100
AcDbEntity
  8
PEF-190A
  6
CONTINUOUS
100
AcDbLine
 10
680.0493603589242
 20
240.5366537033905
 30
0.0
 11
684.5783047946972
 21
244.4722174873592
 31
0.0
  0
LINE
  5
BBF
330
1F
100
AcDbEntity
  8
PEF-190A
  6
CONTINUOUS
100
AcDbLine
 10
673.1621237369798
 20
248.4623064659923
 30
0.0
 11
680.0493603589242
 21
240.5366537033905
 31
0.0
  0
LINE
  5
BC0
330
1F
100
AcDbEntity
  8
PEF-190A
  6
CONTINUOUS
100
AcDbLine
 10
685.8458722574172
 20
242.6311739110266
 30
0.0
 11
683.8891479850986
 21
243.8733537521565
 31
0.0
  0
LINE
  5
BC1
330
1F
100
AcDbEntity
  8
PEF-190A
  6
CONTINUOUS
100
AcDbLine
 10
681.6955480335153
 20
239.0246236565511
 30
0.0
 11
680.7385171685226
 21
241.1355174385934
 31
0.0
  0
LINE
  5
BC2
330
1F
100
AcDbEntity
  8
PEF-190A
  6
CONTINUOUS
100
AcDbLine
 10
688.5331314475351
 20
240.2260176844523
 30
0.0
 11
691.9444698798323
 21
236.3003381479088
 31
0.0
  0
LINE
  5
BC3
330
1F
100
AcDbEntity
  8
PEF-190A
  6
CONTINUOUS
100
AcDbLine
 10
691.0386809926773
 20
235.513225391115
 30
0.0
 11
691.9444698798323
 21
236.3003381479088
 31
0.0
  0
LINE
  5
BC8
330
1F
100
AcDbEntity
  8
PEF-190A
  6
CONTINUOUS
100
AcDbLine
 10
602.1504581546403
 20
410.9796045861956
 30
0.0
 11
632.1504581546401
 21
410.9796045861953
 31
0.0
  0
LINE
  5
BC9
330
1F
100
AcDbEntity
  8
PEF-190A
  6
CENTER2
100
AcDbLine
 10
447.8413931207438
 20
305.9796045861947
 30
0.0
 11
647.8705156408008
 21
305.9796045861957
 31
0.0
  0
LINE
  5
BD2
330
1F
100
AcDbEntity
  8
PEF-190A
  6
CONTINUOUS
100
AcDbLine
 10
485.1504581546404
 20
319.963385133551
 30
0.0
 11
481.3304689154207
 21
320.9869481652956
 31
0.0
  0
LINE
  5
BD6
330
1F
100
AcDbEntity
  8
PEF-190A
  6
CONTINUOUS
100
AcDbLine
 10
485.1504581546391
 20
401.0796045861948
 30
0.0
 11
584.15045815464
 21
401.0796045861955
 31
0.0
  0
LINE
  5
BD7
330
1F
100
AcDbEntity
  8
PEF-190A
  6
CONTINUOUS
100
AcDbLine
 10
485.1504581546396
 20
395.9796045861948
 30
0.0
 11
600.1504581546395
 21
395.9796045861955
 31
0.0
  0
LINE
  5
BD8
330
1F
100
AcDbEntity
  8
PEF-190A
  6
CONTINUOUS
100
AcDbLine
 10
600.1504581546392
 20
397.1796045861955
 30
0.0
 11
485.1504581546392
 21
397.1796045861948
 31
0.0
  0
LINE
  5
BE8
330
1F
100
AcDbEntity
  8
PEF-190A
  6
CONTINUOUS
100
AcDbLine
 10
481.3578755257331
 20
320.9796045861947
 30
0.0
 11
485.1504581546405
 21
319.9633851335509
 31
0.0
  0
LINE
  5
BE9
330
1F
100
AcDbEntity
  8
PEF-190A
  6
CONTINUOUS
100
AcDbLine
 10
478.057875525733
 20
393.4796045861948
 30
0.0
 11
485.1504581546392
 21
393.4796045861949
 31
0.0
  0
LINE
  5
BEE
330
1F
100
AcDbEntity
  8
PEF-190A
  6
CONTINUOUS
100
AcDbLine
 10
479.5578755257331
 20
393.4796045861948
 30
0.0
 11
479.5578755257333
 21
324.4796045861948
 31
0.0
  0
ARC
  5
BF6
330
1F
100
AcDbEntity
  8
PEF-190A
  6
CONTINUOUS
100
AcDbCircle
 10
464.057875525733
 20
323.8008425210233
 30
0.0
 40
2.0
100
AcDbArc
 50
85.10090754621213
 51
180.0
  0
LINE
  5
BF7
330
1F
100
AcDbEntity
  8
PEF-190A
  6
CONTINUOUS
100
AcDbLine
 10
466.5578755257333
 20
325.5938903004806
 30
0.0
 11
466.5578755257333
 21
313.9796045861948
 31
0.0
  0
LINE
  5
BF8
330
1F
100
AcDbEntity
  8
PEF-190A
  6
CONTINUOUS
100
AcDbLine
 10
478.057875525733
 20
313.9796045861948
 30
0.0
 11
462.0578755257331
 21
313.9796045861948
 31
0.0
  0
LINE
  5
BF9
330
1F
100
AcDbEntity
  8
PEF-190A
  6
CONTINUOUS
100
AcDbLine
 10
462.0578755257333
 20
297.9796045861947
 30
0.0
 11
478.057875525733
 21
297.9796045861948
 31
0.0
  0
LINE
  5
BFA
330
1F
100
AcDbEntity
  8
PEF-190A
  6
HIDDEN
100
AcDbLine
 10
479.5578755257333
 20
311.0796045861949
 30
0.0
 11
462.0578755257331
 21
311.0796045861948
 31
0.0
  0
LINE
  5
BFB
330
1F
100
AcDbEntity
  8
PEF-190A
  6
HIDDEN
100
AcDbLine
 10
462.0578755257333
 20
300.8796045861949
 30
0.0
 11
479.5578755257333
 21
300.8796045861949
 31
0.0
  0
LINE
  5
BFC
330
1F
100
AcDbEntity
  8
PEF-190A
  6
HIDDEN
100
AcDbLine
 10
462.0578755257331
 20
311.9796045861948
 30
0.0
 11
479.5578755257333
 21
311.9796045861948
 31
0.0
  0
LINE
  5
BFD
330
1F
100
AcDbEntity
  8
PEF-190A
  6
HIDDEN
100
AcDbLine
 10
462.0578755257333
 20
299.9796045861947
 30
0.0
 11
479.5578755257333
 21
299.9796045861948
 31
0.0
  0
LINE
  5
BFE
330
1F
100
AcDbEntity
  8
PEF-190A
  6
CENTER2
100
AcDbLine
 10
470.0578755257332
 20
313.3875324346941
 30
0.0
 11
470.0578755257333
 21
298.5716767376956
 31
0.0
  0
CIRCLE
  5
BFF
330
1F
100
AcDbEntity
  8
PEF-190A
  6
CONTINUOUS
100
AcDbCircle
 10
470.0578755257333
 20
305.9796045861947
 30
0.0
 40
3.73038451545851
  0
LINE
  5
C00
330
1F
100
AcDbEntity
  8
PEF-190A
  6
CONTINUOUS
100
AcDbLine
 10
472.0578745932331
 20
304.824904586195
 30
0.0
 11
470.0578755257332
 21
303.6702045861948
 31
0.0
  0
LINE
  5
C01
330
1F
100
AcDbEntity
  8
PEF-190A
  6
CONTINUOUS
100
AcDbLine
 10
470.0578755257332
 20
303.6702045861948
 30
0.0
 11
468.0578764582334
 21
304.8249045861948
 31
0.0
  0
CIRCLE
  5
C02
330
1F
100
AcDbEntity
  8
PEF-190A
  6
CONTINUOUS
100
AcDbCircle
 10
470.0578755257333
 20
305.9796045861947
 30
0.0
 40
4.7499999999999
  0
LINE
  5
C03
330
1F
100
AcDbEntity
  8
PEF-190A
  6
CONTINUOUS
100
AcDbLine
 10
468.0578764582334
 20
307.1343045861949
 30
0.0
 11
470.0578755257332
 21
308.2890045861947
 31
0.0
  0
LINE
  5
C04
330
1F
100
AcDbEntity
  8
PEF-190A
  6
CONTINUOUS
100
AcDbLine
 10
468.0578764582334
 20
304.8249045861948
 30
0.0
 11
468.0578764582334
 21
307.1343045861949
 31
0.0
  0
LINE
  5
C05
330
1F
100
AcDbEntity
  8
PEF-190A
  6
CONTINUOUS
100
AcDbLine
 10
472.0578745932328
 20
307.1343045861949
 30
0.0
 11
472.0578745932331
 21
304.824904586195
 31
0.0
  0
LINE
  5
C06
330
1F
100
AcDbEntity
  8
PEF-190A
  6
CONTINUOUS
100
AcDbLine
 10
470.0578755257332
 20
308.2890045861947
 30
0.0
 11
472.0578745932328
 21
307.1343045861949
 31
0.0
  0
LINE
  5
C07
330
1F
100
AcDbEntity
  8
PEF-190A
  6
CONTINUOUS
100
AcDbLine
 10
464.2286778084259
 20
325.7935358191068
 30
0.0
 11
477.7286778084261
 21
324.6363929619641
 31
0.0
  0
ARC
  5
C0D
330
1F
100
AcDbEntity
  8
PEF-190A
  6
CONTINUOUS
100
AcDbCircle
 10
477.5578755257332
 20
322.6436996638806
 30
0.0
 40
2.0
100
AcDbArc
 50
75.52248781406976
 51
85.10090754621213
  0
ARC
  5
C0E
330
1F
100
AcDbEntity
  8
PEF-190A
  6
HIDDEN
100
AcDbCircle
 10
477.5578755257332
 20
322.6436996638806
 30
0.0
 40
2.0
100
AcDbArc
 50
0.0
 51
75.52248781406976
  0
LINE
  5
C0F
330
1F
100
AcDbEntity
  8
PEF-190A
  6
CONTINUOUS
100
AcDbLine
 10
481.3578755257331
 20
320.9796045861947
 30
0.0
 11
481.3578755257331
 21
324.0031339979596
 31
0.0
  0
LINE
  5
C10
330
1F
100
AcDbEntity
  8
PEF-190A
  6
CONTINUOUS
100
AcDbLine
 10
479.5578755257333
 20
324.4796045861948
 30
0.0
 11
485.1504581546404
 21
322.9992150667783
 31
0.0
  0
LINE
  5
C11
330
1F
100
AcDbEntity
  8
PEF-190A
  6
CONTINUOUS
100
AcDbLine
 10
485.1504581546402
 20
332.6244818299911
 30
0.0
 11
479.5578755257333
 21
330.9796045861948
 31
0.0
  0
ARC
  5
C19
330
1F
100
AcDbEntity
  8
PEF-190A
  6
HIDDEN
100
AcDbCircle
 10
464.057875525733
 20
395.7833347511964
 30
0.0
 40
2.000000000000011
100
AcDbArc
 50
84.64417495714455
 51
180.0
  0
LINE
  5
C1B
330
1F
100
AcDbEntity
  8
PEF-190A
  6
CONTINUOUS
100
AcDbLine
 10
466.5578755257326
 20
400.9796045861948
 30
0.0
 11
466.5578755257326
 21
404.9796045861948
 31
0.0
  0
LINE
  5
C1C
330
1F
100
AcDbEntity
  8
PEF-190A
  6
CENTER2
100
AcDbLine
 10
470.0578755257331
 20
423.2763139590443
 30
0.0
 11
470.0578755257331
 21
389.5297206676398
 31
0.0
  0
LINE
  5
C1D
330
1F
100
AcDbEntity
  8
PEF-190A
  6
HIDDEN
100
AcDbLine
 10
464.2445569431191
 20
397.7746032033148
 30
0.0
 11
478.057875525733
 21
396.4796045861948
 31
0.0
  0
LINE
  5
C1E
330
1F
100
AcDbEntity
  8
PEF-190A
  6
CONTINUOUS
100
AcDbLine
 10
463.0578755257328
 20
400.9796045861948
 30
0.0
 11
466.5578755257326
 21
400.9796045861951
 31
0.0
  0
LINE
  5
C1F
330
1F
100
AcDbEntity
  8
PEF-190A
  6
CONTINUOUS
100
AcDbLine
 10
462.0578755257331
 20
399.9796045861948
 30
0.0
 11
463.0578755257328
 21
400.9796045861948
 31
0.0
  0
LINE
  5
C20
330
1F
100
AcDbEntity
  8
PEF-190A
  6
CONTINUOUS
100
AcDbLine
 10
485.150458154642
 20
214.7796045861946
 30
0.0
 11
485.1504581546391
 21
401.0796045861948
 31
0.0
  0
LINE
  5
C21
330
1F
100
AcDbEntity
  8
PEF-190A
  6
CONTINUOUS
100
AcDbLine
 10
485.1504581546392
 20
397.1796045861948
 30
0.0
 11
485.1504581546396
 21
393.4796045861948
 31
0.0
  0
LINE
  5
C22
330
1F
100
AcDbEntity
  8
PEF-190A
  6
CONTINUOUS
100
AcDbLine
 10
478.0578755257285
 20
404.9796045861948
 30
0.0
 11
466.5578755257326
 21
404.9796045861948
 31
0.0
  0
LINE
  5
C23
330
1F
100
AcDbEntity
  8
PEF-190A
  6
CONTINUOUS
100
AcDbLine
 10
462.0578755257283
 20
418.4796045861948
 30
0.0
 11
478.0578755257285
 21
418.4796045861948
 31
0.0
  0
LINE
  5
C24
330
1F
100
AcDbEntity
  8
PEF-190A
  6
HIDDEN
100
AcDbLine
 10
472.8078755257285
 20
412.9796045861948
 30
0.0
 11
472.8078755257284
 21
405.9796045861948
 31
0.0
  0
LINE
  5
C25
330
1F
100
AcDbEntity
  8
PEF-190A
  6
HIDDEN
100
AcDbLine
 10
467.3078755257285
 20
412.9796045861948
 30
0.0
 11
467.3078755257283
 21
405.9796045861948
 31
0.0
  0
LINE
  5
C26
330
1F
100
AcDbEntity
  8
PEF-190A
  6
CONTINUOUS
100
AcDbLine
 10
462.0578755257283
 20
418.4796045861948
 30
0.0
 11
462.0578755257283
 21
403.4796045861948
 31
0.0
  0
LINE
  5
C27
330
1F
100
AcDbEntity
  8
PEF-190A
  6
CONTINUOUS
100
AcDbLine
 10
466.0578755257283
 20
405.9796045861948
 30
0.0
 11
474.0578755257283
 21
405.9796045861948
 31
0.0
  0
LINE
  5
C28
330
1F
100
AcDbEntity
  8
PEF-190A
  6
CONTINUOUS
100
AcDbLine
 10
466.0578755257285
 20
403.4796045861948
 30
0.0
 11
466.0578755257283
 21
405.9796045861948
 31
0.0
  0
LINE
  5
C29
330
1F
100
AcDbEntity
  8
PEF-190A
  6
CONTINUOUS
100
AcDbLine
 10
462.0578755257283
 20
403.4796045861948
 30
0.0
 11
466.0578755257285
 21
403.4796045861948
 31
0.0
  0
LINE
  5
C2A
330
1F
100
AcDbEntity
  8
PEF-190A
  6
CONTINUOUS
100
AcDbLine
 10
474.0578755257285
 20
404.9796045861948
 30
0.0
 11
474.0578755257283
 21
405.9796045861948
 31
0.0
  0
LINE
  5
C2B
330
1F
100
AcDbEntity
  8
PEF-190A
  6
HIDDEN
100
AcDbLine
 10
465.3078755257284
 20
412.9796045861948
 30
0.0
 11
474.8078755257281
 21
412.9796045861948
 31
0.0
  0
LINE
  5
C2C
330
1F
100
AcDbEntity
  8
PEF-190A
  6
HIDDEN
100
AcDbLine
 10
465.3078755257284
 20
418.4796045861948
 30
0.0
 11
465.3078755257284
 21
412.9796045861948
 31
0.0
  0
LINE
  5
C2D
330
1F
100
AcDbEntity
  8
PEF-190A
  6
HIDDEN
100
AcDbLine
 10
474.8078755257282
 20
418.4796045861948
 30
0.0
 11
474.8078755257281
 21
412.9796045861948
 31
0.0
  0
LINE
  5
C2E
330
1F
100
AcDbEntity
  8
PEF-190A
  6
CONTINUOUS
100
AcDbLine
 10
478.0578755257285
 20
404.9796045861948
 30
0.0
 11
478.0578755257285
 21
418.4796045861948
 31
0.0
  0
LINE
  5
C2F
330
1F
100
AcDbEntity
  8
PEF-190A
  6
CONTINUOUS
100
AcDbLine
 10
477.0578755257326
 20
404.9796045861948
 30
0.0
 11
478.0578755257328
 21
403.9796045861948
 31
0.0
  0
LINE
  5
D01
330
1F
100
AcDbEntity
  8
PEF-190A
  6
CONTINUOUS
100
AcDbLine
 10
505.1504581546392
 20
401.0796045861948
 30
0.0
 11
505.1504581546392
 21
397.1796045861948
 31
0.0
  0
LINE
  5
D0B
330
1F
100
AcDbEntity
  8
PEF-190A
  6
CONTINUOUS
100
AcDbLine
 10
525.1504581546392
 20
397.1796045861951
 30
0.0
 11
525.1504581546392
 21
401.0796045861951
 31
0.0
  0
LINE
  5
D0C
330
1F
100
AcDbEntity
  8
PEF-190A
  6
CONTINUOUS
100
AcDbLine
 10
545.1504581546394
 20
397.1796045861951
 30
0.0
 11
545.1504581546394
 21
401.0796045861952
 31
0.0
  0
LINE
  5
D12
330
1F
100
AcDbEntity
  8
PEF-190A
  6
CONTINUOUS
100
AcDbLine
 10
564.1504581546394
 20
397.1796045861951
 30
0.0
 11
564.1504581546394
 21
401.0796045861952
 31
0.0
  0
LINE
  5
D18
330
1F
100
AcDbEntity
  8
PEF-190A
  6
CONTINUOUS
100
AcDbLine
 10
600.15045815464
 20
230.9069125564689
 30
0.0
 11
600.1504581546399
 21
408.9796045861957
 31
0.0
  0
LINE
  5
D1D
330
1F
100
AcDbEntity
  8
PEF-190A
  6
CONTINUOUS
100
AcDbLine
 10
584.15045815464
 20
401.0796045861955
 30
0.0
 11
584.1504581546395
 21
397.1796045861953
 31
0.0
  0
LINE
  5
D1F
330
1F
100
AcDbEntity
  8
PEF-190A
  6
CONTINUOUS
100
AcDbLine
 10
602.1504581546403
 20
410.9796045861956
 30
0.0
 11
600.1504581546399
 21
408.9796045861957
 31
0.0
  0
LINE
  5
D2B
330
1F
100
AcDbEntity
  8
PEF-190A
  6
CONTINUOUS
100
AcDbLine
 10
649.1504581546397
 20
424.6192148929851
 30
0.0
 11
649.1504581546397
 21
359.619214892985
 31
0.0
  0
LINE
  5
D2C
330
1F
100
AcDbEntity
  8
PEF-190A
  6
CONTINUOUS
100
AcDbLine
 10
646.8504581546397
 20
359.619214892985
 30
0.0
 11
646.8504581546396
 21
424.6192148929851
 31
0.0
  0
ARC
  5
D2F
330
1F
100
AcDbEntity
  8
PEF-190A
  6
CONTINUOUS
100
AcDbCircle
 10
634.15045815464
 20
290.9796045861956
 30
0.0
 40
17.49999999999997
100
AcDbArc
 50
24.99999999999646
 51
90.0
  0
ARC
  5
D30
330
1F
100
AcDbEntity
  8
PEF-190A
  6
CONTINUOUS
100
AcDbCircle
 10
634.15045815464
 20
290.9796045861956
 30
0.0
 40
12.50000000000001
100
AcDbArc
 50
24.99999999999646
 51
90.0
  0
LINE
  5
D35
330
1F
100
AcDbEntity
  8
PEF-190A
  6
CONTINUOUS
100
AcDbLine
 10
637.9504581546397
 20
377.1192148929848
 30
0.0
 11
645.3504581546398
 21
377.1192148929848
 31
0.0
  0
LINE
  5
D36
330
1F
100
AcDbEntity
  8
PEF-190A
  6
CONTINUOUS
100
AcDbLine
 10
637.9504581546399
 20
362.1192148929848
 30
0.0
 11
645.3504581546398
 21
362.1192148929848
 31
0.0
  0
LINE
  5
D4E
330
1F
100
AcDbEntity
  8
PEF-190A
  6
CONTINUOUS
100
AcDbLine
 10
636.4504581546396
 20
379.6192148929848
 30
0.0
 11
636.45045815464
 21
359.619214892985
 31
0.0
  0
LINE
  5
D4F
330
1F
100
AcDbEntity
  8
PEF-190A
  6
CONTINUOUS
100
AcDbLine
 10
634.15045815464
 20
359.6192148929848
 30
0.0
 11
634.1504581546397
 21
379.6192148929848
 31
0.0
  0
LINE
  5
D50
330
1F
100
AcDbEntity
  8
PEF-190A
  6
CONTINUOUS
100
AcDbLine
 10
636.45045815464
 20
359.619214892985
 30
0.0
 11
634.15045815464
 21
359.6192148929848
 31
0.0
  0
ARC
  5
D51
330
1F
100
AcDbEntity
  8
PEF-190A
  6
CONTINUOUS
100
AcDbCircle
 10
637.95045815464
 20
360.6192148929848
 30
0.0
 40
1.5
100
AcDbArc
 50
90.0
 51
180.0
  0
LINE
  5
D52
330
1F
100
AcDbEntity
  8
PEF-190A
  6
CONTINUOUS
100
AcDbLine
 10
634.1504581546397
 20
379.6192148929848
 30
0.0
 11
636.4504581546396
 21
379.6192148929848
 31
0.0
  0
ARC
  5
D53
330
1F
100
AcDbEntity
  8
PEF-190A
  6
CONTINUOUS
100
AcDbCircle
 10
637.9504581546397
 20
378.619214892985
 30
0.0
 40
1.5
100
AcDbArc
 50
180.0
 51
270.0
  0
ARC
  5
D54
330
1F
100
AcDbEntity
  8
PEF-190A
  6
CONTINUOUS
100
AcDbCircle
 10
645.3504581546399
 20
360.6192148929851
 30
0.0
 40
1.5
100
AcDbArc
 50
0.0
 51
90.0
  0
LINE
  5
D55
330
1F
100
AcDbEntity
  8
PEF-190A
  6
CONTINUOUS
100
AcDbLine
 10
649.1504581546397
 20
359.619214892985
 30
0.0
 11
646.8504581546397
 21
359.619214892985
 31
0.0
  0
ARC
  5
D56
330
1F
100
AcDbEntity
  8
PEF-190A
  6
CONTINUOUS
100
AcDbCircle
 10
645.3504581546398
 20
378.619214892985
 30
0.0
 40
1.5
100
AcDbArc
 50
270.0
 51
0.0
  0
LINE
  5
D5C
330
1F
100
AcDbEntity
  8
PEF-190A
  6
CONTINUOUS
100
AcDbLine
 10
632.1504581546401
 20
410.9796045861953
 30
0.0
 11
634.15045815464
 21
408.9796045861953
 31
0.0
  0
LINE
  5
D5D
330
1F
100
AcDbEntity
  8
PEF-190A
  6
HIDDEN
100
AcDbLine
 10
646.8504581546397
 20
391.1192148929848
 30
0.0
 11
649.1504581546397
 21
391.1192148929851
 31
0.0
  0
LINE
  5
D5E
330
1F
100
AcDbEntity
  8
PEF-190A
  6
CENTER2
100
AcDbLine
 10
644.2749985953915
 20
404.619214892985
 30
0.0
 11
652.2749985953923
 21
404.6192148929852
 31
0.0
  0
LINE
  5
D5F
330
1F
100
AcDbEntity
  8
PEF-190A
  6
HIDDEN
100
AcDbLine
 10
646.8504581546396
 20
418.1192148929851
 30
0.0
 11
649.1504581546396
 21
418.1192148929851
 31
0.0
  0
LINE
  5
D63
330
1F
100
AcDbEntity
  8
PEF-190A
  6
CONTINUOUS
100
AcDbLine
 10
646.8504581546396
 20
424.6192148929851
 30
0.0
 11
649.1504581546397
 21
424.6192148929851
 31
0.0
  0
TEXT
  5
13F4
330
1F
100
AcDbEntity
  8
PEF-190A
100
AcDbText
 10
374.0
 20
204.0
 30
0.0
 40
5.0
  1
PEF-190AR
100
AcDbText
  0
ENDSEC
  0
SECTION
  2
OBJECTS
  0
DICTIONARY
  5
C
330
0
100
AcDbDictionary
  3
ACAD_GROUP
350
D
  3
ACAD_LAYOUT
350
1A
  3
ACAD_MLINESTYLE
350
17
  3
ACAD_PLOTSETTINGS
350
19
  3
ACAD_PLOTSTYLENAME
350
E
  3
ACADDIM
350
453
  3
DWGPROPS
350
17AF
  3
ACDBHEADERROUNDTRIPXREC
350
180B
  0
DICTIONARY
  5
17D4
330
1F
100
AcDbDictionary
280
     1
  3
ACAD_LAYOUTSELFREF
360
182C
  0
DICTIONARY
  5
17D2
330
1B
100
AcDbDictionary
280
     1
  3
ACAD_LAYOUTSELFREF
360
182B
  0
DICTIONARY
  5
D
102
{ACAD_REACTORS
330
C
102
}
330
C
100
AcDbDictionary
  0
DICTIONARY
  5
1A
102
{ACAD_REACTORS
330
C
102
}
330
C
100
AcDbDictionary
  0
DICTIONARY
  5
17
102
{ACAD_REACTORS
330
C
102
}
330
C
100
AcDbDictionary
  3
STANDARD
350
18
  0
DICTIONARY
  5
19
102
{ACAD_REACTORS
330
C
102
}
330
C
100
AcDbDictionary
  3
PLOT-A4
350
10DD
  0
ACDBDICTIONARYWDFLT
  5
E
102
{ACAD_REACTORS
330
C
102
}
330
C
100
AcDbDictionary
281
     1
  3
Normal
350
F
100
AcDbDictionaryWithDefault
340
F
  0
XRECORD
  5
453
102
{ACAD_REACTORS
330
C
102
}
330
C
100
AcDbXrecord
 90
   990106
  3

 60
     0
 61
     0
 62
     4
 63
     4
 64
     1
 65
     0
 66
     0
 67
     3
 68
     1
 69
     0
 70
     0
 71
     0
 72
     0
 40
0.0
170
     1
340
0
  0
XRECORD
  5
17AF
102
{ACAD_REACTORS
330
C
102
}
330
C
100
AcDbXrecord
  1
DWGPROPS COOKIE
  2

  3

  4

  6

  7

  8
한신
  9

300
=
301
=
302
=
303
=
304
=
305
=
306
=
307
=
308
=
309
=
 40
0.0317023148148148
 41
2451745.471621065
 42
2451814.601134028
  1

 90
        0
  0
DICTIONARY
  5
180B
102
{ACAD_REACTORS
330
C
102
}
330
C
100
AcDbDictionary
  3
TSTACKALIGN
350
180C
  3
TSTACKSIZE
350
180D
  3
HYPERLINKBASE
350
180E
  3
STYLESHEET
350
180F
  3
LAYOUTDICT
350
1810
  3
PLOTSETDICT
350
1811
  3
PLOTSTYLNAMDICT
350
1812
  3
LWETCUNION
350
1813
  3
INSUNITS
350
1814
  3
CEPSNTYPE
350
1815
  3
FINGERPRINTGUID
350
1816
  3
VERSIONGUID
350
1817
  3
PSVPSCALE
350
1818
  3
PUCSORTHOREF
350
1819
  3
PUCSORTHOVIEW
350
181A
  3
PUCSBASE
350
181B
  3
PUCSORGTOP
350
181C
  3
PUCSORGBOTTOM
350
181D
  3
PUCSORGLEFT
350
181E
  3
PUCSORGRIGHT
350
181F
  3
PUCSORGFRONT
350
1820
  3
PUCSORGBACK
350
1821
  3
UCSORTHOREF
350
1822
  3
UCSORTHOVIEW
350
1823
  3
UCSBASE
350
1824
  3
UCSORGTOP
350
1825
  3
UCSORGBOTTOM
350
1826
  3
UCSORGLEFT
350
1827
  3
UCSORGRIGHT
350
1828
  3
UCSORGFRONT
350
1829
  3
UCSORGBACK
350
182A
  0
XRECORD
  5
182C
102
{ACAD_REACTORS
330
17D4
102
}
330
17D4
100
AcDbXrecord
340
1F
  0
XRECORD
  5
182B
102
{ACAD_REACTORS
330
17D2
102
}
330
17D2
100
AcDbXrecord
340
1B
  0
MLINESTYLE
  5
18
102
{ACAD_REACTORS
330
17
102
}
330
17
100
AcDbMlineStyle
  2
STANDARD
 70
     0
  3

 62
   256
 51
90.0
 52
90.0
 71
     2
 49
0.5
 62
   256
  6
BYLAYER
 49
-0.5
 62
   256
  6
BYLAYER
  0
PLOTSETTINGS
  5
10DD
102
{ACAD_REACTORS
330
19
102
}
330
19
100
AcDbPlotSettings
  1
PLOT-A4
  2
HP DesignJet 220 (C3187A)
  4
User268
  6

 40
4.995333194732666
 41
16.93333625793457
 42
4.995330810546875
 43
16.93331909179687
 44
209.9733276367186
 45
296.8413391113281
 46
0.0
 47
0.0
 48
-5.323039304012127
 49
8.623552404294116
140
260.7151680203912
141
196.7570966029639
142
1.0
143
1.0
 70
  1712
 72
     1
 73
     0
 74
     2
  7
acad.ctb
 75
    16
147
1.0
148
0.0
149
0.0
  0
ACDBPLACEHOLDER
  5
F
102
{ACAD_REACTORS
330
E
102
}
330
E
100
AcDbPlaceHolder
280
     0
  0
XRECORD
  5
180C
102
{ACAD_REACTORS
330
180B
102
}
330
180B
100
AcDbXrecord
 90
        1
  0
XRECORD
  5
180D
102
{ACAD_REACTORS
330
180B
102
}
330
180B
100
AcDbXrecord
 90
       70
  0
XRECORD
  5
180E
102
{ACAD_REACTORS
330
180B
102
}
330
180B
100
AcDbXrecord
  1

  0
XRECORD
  5
180F
102
{ACAD_REACTORS
330
180B
102
}
330
180B
100
AcDbXrecord
  1

  0
XRECORD
  5
1810
102
{ACAD_REACTORS
330
180B
102
}
330
180B
100
AcDbXrecord
340
1A
  0
XRECORD
  5
1811
102
{ACAD_REACTORS
330
180B
102
}
330
180B
100
AcDbXrecord
340
19
  0
XRECORD
  5
1812
102
{ACAD_REACTORS
330
180B
102
}
330
180B
100
AcDbXrecord
340
E
  0
XRECORD
  5
1813
102
{ACAD_REACTORS
330
180B
102
}
330
180B
100
AcDbXrecord
 90
    10781
  0
XRECORD
  5
1814
102
{ACAD_REACTORS
330
180B
102
}
330
180B
100
AcDbXrecord
 90
        1
  0
XRECORD
  5
1815
102
{ACAD_REACTORS
330
180B
102
}
330
180B
100
AcDbXrecord
 90
        0
  0
XRECORD
  5
1816
102
{ACAD_REACTORS
330
180B
102
}
330
180B
100
AcDbXrecord
  1
{FDEAD576-A652-11D2-9A35-0060089B3A3F}
  0
XRECORD
  5
1817
102
{ACAD_REACTORS
330
180B
102
}
330
180B
100
AcDbXrecord
  1
{EFA2E138-FB8C-4BFB-88A0-A011BBEBEE8F}
  0
XRECORD
  5
1818
102
{ACAD_REACTORS
330
180B
102
}
330
180B
100
AcDbXrecord
 40
0.0
  0
XRECORD
  5
1819
102
{ACAD_REACTORS
330
180B
102
}
330
180B
100
AcDbXrecord
340
0
  0
XRECORD
  5
181A
102
{ACAD_REACTORS
330
180B
102
}
330
180B
100
AcDbXrecord
 70
     0
  0
XRECORD
  5
181B
102
{ACAD_REACTORS
330
180B
102
}
330
180B
100
AcDbXrecord
340
0
  0
XRECORD
  5
181C
102
{ACAD_REACTORS
330
180B
102
}
330
180B
100
AcDbXrecord
 10
0.0
 20
0.0
 30
0.0
  0
XRECORD
  5
181D
102
{ACAD_REACTORS
330
180B
102
}
330
180B
100
AcDbXrecord
 10
0.0
 20
0.0
 30
0.0
  0
XRECORD
  5
181E
102
{ACAD_REACTORS
330
180B
102
}
330
180B
100
AcDbXrecord
 10
0.0
 20
0.0
 30
0.0
  0
XRECORD
  5
181F
102
{ACAD_REACTORS
330
180B
102
}
330
180B
100
AcDbXrecord
 10
0.0
 20
0.0
 30
0.0
  0
XRECORD
  5
1820
102
{ACAD_REACTORS
330
180B
102
}
330
180B
100
AcDbXrecord
 10
0.0
 20
0.0
 30
0.0
  0
XRECORD
  5
1821
102
{ACAD_REACTORS
330
180B
102
}
330
180B
100
AcDbXrecord
 10
0.0
 20
0.0
 30
0.0
  0
XRECORD
  5
1822
102
{ACAD_REACTORS
330
180B
102
}
330
180B
100
AcDbXrecord
340
0
  0
XRECORD
  5
1823
102
{ACAD_REACTORS
330
180B
102
}
330
180B
100
AcDbXrecord
 70
     0
  0
XRECORD
  5
1824
102
{ACAD_REACTORS
330
180B
102
}
330
180B
100
AcDbXrecord
340
0
  0
XRECORD
  5
1825
102
{ACAD_REACTORS
330
180B
102
}
330
180B
100
AcDbXrecord
 10
0.0
 20
0.0
 30
0.0
  0
XRECORD
  5
1826
102
{ACAD_REACTORS
330
180B
102
}
330
180B
100
AcDbXrecord
 10
0.0
 20
0.0
 30
0.0
  0
XRECORD
  5
1827
102
{ACAD_REACTORS
330
180B
102
}
330
180B
100
AcDbXrecord
 10
0.0
 20
0.0
 30
0.0
  0
XRECORD
  5
1828
102
{ACAD_REACTORS
330
180B
102
}
330
180B
100
AcDbXrecord
 10
0.0
 20
0.0
 30
0.0
  0
XRECORD
  5
1829
102
{ACAD_REACTORS
330
180B
102
}
330
180B
100
AcDbXrecord
 10
0.0
 20
0.0
 30
0.0
  0
XRECORD
  5
182A
102
{ACAD_REACTORS
330
180B
102
}
330
180B
100
AcDbXrecord
 10
0.0
 20
0.0
 30
0.0
  0
ENDSEC
  0
EOF
