  0
SECTION
  2
HEADER
  9
$ACADVER
  1
AC1014
  9
$ACADMAINTVER
 70
     9
  9
$DWGCODEPAGE
  3
ANSI_949
  9
$INSBASE
 10
0.0
 20
0.0
 30
0.0
  9
$EXTMIN
 10
190.8599601058335
 20
228.527772198131
 30
-0.000000000000013
  9
$EXTMAX
 10
992.0388347718876
 20
639.2398162606776
 30
0.0000000000000023
  9
$LIMMIN
 10
0.0
 20
0.0
  9
$LIMMAX
 10
420.0
 20
297.0
  9
$ORTHOMODE
 70
     1
  9
$REGENMODE
 70
     1
  9
$FILLMODE
 70
     1
  9
$QTEXTMODE
 70
     0
  9
$MIRRTEXT
 70
     1
  9
$DRAGMODE
 70
     2
  9
$LTSCALE
 40
12.0
  9
$OSMODE
 70
    37
  9
$ATTMODE
 70
     1
  9
$TEXTSIZE
 40
4.0
  9
$TRACEWID
 40
0.05
  9
$TEXTSTYLE
  7
STANDARD
  9
$CLAYER
  8
0
  9
$CELTYPE
  6
BYLAYER
  9
$CECOLOR
 62
   256
  9
$CELTSCALE
 40
1.0
  9
$DELOBJ
 70
     1
  9
$DISPSILH
 70
     0
  9
$DIMSCALE
 40
2.0
  9
$DIMASZ
 40
2.299999999999998
  9
$DIMEXO
 40
0.5
  9
$DIMDLI
 40
8.0
  9
$DIMRND
 40
0.0
  9
$DIMDLE
 40
0.0
  9
$DIMEXE
 40
1.0
  9
$DIMTP
 40
0.0
  9
$DIMTM
 40
0.000000001
  9
$DIMTXT
 40
2.299999999999998
  9
$DIMCEN
 40
0.09
  9
$DIMTSZ
 40
0.0
  9
$DIMTOL
 70
     0
  9
$DIMLIM
 70
     0
  9
$DIMTIH
 70
     0
  9
$DIMTOH
 70
     0
  9
$DIMSE1
 70
     0
  9
$DIMSE2
 70
     0
  9
$DIMTAD
 70
     1
  9
$DIMZIN
 70
     8
  9
$DIMBLK
  1

  9
$DIMASO
 70
     1
  9
$DIMSHO
 70
     1
  9
$DIMPOST
  1

  9
$DIMAPOST
  1

  9
$DIMALT
 70
     0
  9
$DIMALTD
 70
     1
  9
$DIMALTF
 40
25.4
  9
$DIMLFAC
 40
1.0
  9
$DIMTOFL
 70
     1
  9
$DIMTVP
 40
0.0
  9
$DIMTIX
 70
     0
  9
$DIMSOXD
 70
     0
  9
$DIMSAH
 70
     0
  9
$DIMBLK1
  1

  9
$DIMBLK2
  1

  9
$DIMSTYLE
  2
STANDARD
  9
$DIMCLRD
 70
     5
  9
$DIMCLRE
 70
     5
  9
$DIMCLRT
 70
     3
  9
$DIMTFAC
 40
0.7
  9
$DIMGAP
 40
0.5
  9
$DIMJUST
 70
     0
  9
$DIMSD1
 70
     0
  9
$DIMSD2
 70
     0
  9
$DIMTOLJ
 70
     1
  9
$DIMTZIN
 70
     0
  9
$DIMALTZ
 70
     0
  9
$DIMALTTZ
 70
     0
  9
$DIMFIT
 70
     3
  9
$DIMUPT
 70
     1
  9
$DIMUNIT
 70
     2
  9
$DIMDEC
 70
     1
  9
$DIMTDEC
 70
     1
  9
$DIMALTU
 70
     2
  9
$DIMALTTD
 70
     1
  9
$DIMTXSTY
  7
STANDARD
  9
$DIMAUNIT
 70
     0
  9
$LUNITS
 70
     2
  9
$LUPREC
 70
     4
  9
$SKETCHINC
 40
0.1
  9
$FILLETRAD
 40
0.5
  9
$AUNITS
 70
     0
  9
$AUPREC
 70
     0
  9
$MENU
  1
.
  9
$ELEVATION
 40
0.0
  9
$PELEVATION
 40
0.0
  9
$THICKNESS
 40
0.0
  9
$LIMCHECK
 70
     0
  9
$BLIPMODE
 70
     0
  9
$CHAMFERA
 40
0.5
  9
$CHAMFERB
 40
0.5
  9
$CHAMFERC
 40
1.0
  9
$CHAMFERD
 40
0.0
  9
$SKPOLY
 70
     0
  9
$TDCREATE
 40
2451745.474417592
  9
$TDUPDATE
 40
2452761.347354409
  9
$TDINDWG
 40
0.0238694676
  9
$TDUSRTIMER
 40
0.0238692824
  9
$USRTIMER
 70
     1
  9
$ANGBASE
 50
0.0
  9
$ANGDIR
 70
     0
  9
$PDMODE
 70
     0
  9
$PDSIZE
 40
0.0
  9
$PLINEWID
 40
0.0
  9
$COORDS
 70
     2
  9
$SPLFRAME
 70
     0
  9
$SPLINETYPE
 70
     6
  9
$SPLINESEGS
 70
     8
  9
$ATTDIA
 70
     0
  9
$ATTREQ
 70
     1
  9
$HANDLING
 70
 12289
  9
$HANDSEED
  5
1240
  9
$SURFTAB1
 70
     6
  9
$SURFTAB2
 70
     6
  9
$SURFTYPE
 70
     6
  9
$SURFU
 70
     6
  9
$SURFV
 70
     6
  9
$UCSNAME
  2

  9
$UCSORG
 10
0.0
 20
0.0
 30
0.0
  9
$UCSXDIR
 10
1.0
 20
0.0
 30
0.0
  9
$UCSYDIR
 10
0.0
 20
1.0
 30
0.0
  9
$PUCSNAME
  2

  9
$PUCSORG
 10
0.0
 20
0.0
 30
0.0
  9
$PUCSXDIR
 10
1.0
 20
0.0
 30
0.0
  9
$PUCSYDIR
 10
0.0
 20
1.0
 30
0.0
  9
$USERI1
 70
     0
  9
$USERI2
 70
     0
  9
$USERI3
 70
     0
  9
$USERI4
 70
     0
  9
$USERI5
 70
     0
  9
$USERR1
 40
0.0
  9
$USERR2
 40
0.0
  9
$USERR3
 40
0.0
  9
$USERR4
 40
0.0
  9
$USERR5
 40
0.0
  9
$WORLDVIEW
 70
     1
  9
$SHADEDGE
 70
     3
  9
$SHADEDIF
 70
    70
  9
$TILEMODE
 70
     1
  9
$MAXACTVP
 70
    64
  9
$PINSBASE
 10
0.0
 20
0.0
 30
0.0
  9
$PLIMCHECK
 70
     0
  9
$PEXTMIN
 10
1.000000000000000E+20
 20
1.000000000000000E+20
 30
1.000000000000000E+20
  9
$PEXTMAX
 10
-1.000000000000000E+20
 20
-1.000000000000000E+20
 30
-1.000000000000000E+20
  9
$PLIMMIN
 10
0.0
 20
0.0
  9
$PLIMMAX
 10
12.0
 20
9.0
  9
$UNITMODE
 70
     0
  9
$VISRETAIN
 70
     1
  9
$PLINEGEN
 70
     0
  9
$PSLTSCALE
 70
     1
  9
$TREEDEPTH
 70
  3020
  9
$PICKSTYLE
 70
     1
  9
$CMLSTYLE
  2
STANDARD
  9
$CMLJUST
 70
     0
  9
$CMLSCALE
 40
1.0
  9
$PROXYGRAPHICS
 70
     1
  9
$MEASUREMENT
 70
     0
  0
ENDSEC
  0
SECTION
  2
CLASSES
  0
CLASS
  1
ACDBDICTIONARYWDFLT
  2
AcDbDictionaryWithDefault
  3
AutoCAD 2000
 90
        0
280
     0
281
     0
  0
CLASS
  1
ACDBPLACEHOLDER
  2
AcDbPlaceHolder
  3
AutoCAD 2000
 90
        0
280
     0
281
     0
  0
CLASS
  1
LAYOUT
  2
AcDbLayout
  3
AutoCAD 2000
 90
        0
280
     0
281
     0
  0
CLASS
  1
LONG_TRANSACTION
  2
AcDbLongTransaction
  3
AutoCAD 2000
 90
        0
280
     0
281
     0
  0
CLASS
  1
LWPOLYLINE
  2
AcDbPolyline
  3
AutoCAD 2000
 90
        0
280
     0
281
     1
  0
CLASS
  1
HATCH
  2
AcDbHatch
  3
AutoCAD 2000
 90
        0
280
     0
281
     1
  0
CLASS
  1
XRECORD
  2
AcDbXrecord
  3
AutoCAD 2000
 90
        0
280
     0
281
     0
  0
CLASS
  1
LONG_TRANSACTION
  2
AcDbLongTransaction
  3
AutoCAD 2000
 90
        0
280
     0
281
     0
  0
CLASS
  1
LWPOLYLINE
  2
AcDbPolyline
  3
AutoCAD 2000
 90
        0
280
     0
281
     1
  0
CLASS
  1
HATCH
  2
AcDbHatch
  3
AutoCAD 2000
 90
        0
280
     0
281
     1
  0
CLASS
  1
XRECORD
  2
AcDbXrecord
  3
AutoCAD 2000
 90
        0
280
     0
281
     0
  0
CLASS
  1
LONG_TRANSACTION
  2
AcDbLongTransaction
  3
AutoCAD 2000
 90
        0
280
     0
281
     0
  0
CLASS
  1
LWPOLYLINE
  2
AcDbPolyline
  3
AutoCAD 2000
 90
        0
280
     0
281
     1
  0
CLASS
  1
HATCH
  2
AcDbHatch
  3
AutoCAD 2000
 90
        0
280
     0
281
     1
  0
CLASS
  1
XRECORD
  2
AcDbXrecord
  3
AutoCAD 2000
 90
        0
280
     0
281
     0
  0
ENDSEC
  0
SECTION
  2
TABLES
  0
TABLE
  2
VPORT
  5
8
330
0
100
AcDbSymbolTable
 70
     2
  0
VPORT
  5
121D
330
8
100
AcDbSymbolTableRecord
100
AcDbViewportTableRecord
  2
*ACTIVE
 70
     0
 10
0.0
 20
0.0
 11
1.0
 21
1.0
 12
591.4493974388606
 22
433.8837942294043
 13
0.0
 23
0.0
 14
1.0
 24
1.0
 15
5.0
 25
5.0
 16
0.0
 26
0.0
 36
1.0
 17
0.0
 27
0.0
 37
0.0
 40
543.276032707532
 41
1.481743227326266
 42
50.0
 43
0.0
 44
0.0
 50
0.0
 51
0.0
 71
     0
 72
  2000
 73
     1
 74
     3
 75
     1
 76
     0
 77
     0
 78
     0
  0
ENDTAB
  0
TABLE
  2
LTYPE
  5
5
330
0
100
AcDbSymbolTable
 70
     4
  0
LTYPE
  5
14
330
5
100
AcDbSymbolTableRecord
100
AcDbLinetypeTableRecord
  2
BYBLOCK
 70
     0
  3

 72
    65
 73
     0
 40
0.0
  0
LTYPE
  5
15
330
5
100
AcDbSymbolTableRecord
100
AcDbLinetypeTableRecord
  2
BYLAYER
 70
     0
  3

 72
    65
 73
     0
 40
0.0
  0
LTYPE
  5
16
330
5
100
AcDbSymbolTableRecord
100
AcDbLinetypeTableRecord
  2
CONTINUOUS
 70
     0
  3
Solid line
 72
    65
 73
     0
 40
0.0
  0
LTYPE
  5
45E
330
5
100
AcDbSymbolTableRecord
100
AcDbLinetypeTableRecord
  2
CENTER2
 70
     0
  3
Center (.5x) ___ _ ___ _ ___ _ ___ _ ___ _ ___
 72
    65
 73
     4
 40
1.125
 49
0.75
 74
     0
 49
-0.125
 74
     0
 49
0.125
 74
     0
 49
-0.125
 74
     0
  0
LTYPE
  5
45F
330
5
100
AcDbSymbolTableRecord
100
AcDbLinetypeTableRecord
  2
HIDDEN
 70
     0
  3
Hidden __ __ __ __ __ __ __ __ __ __ __ __ __ _
 72
    65
 73
     2
 40
0.375
 49
0.25
 74
     0
 49
-0.125
 74
     0
  0
LTYPE
  5
460
330
5
100
AcDbSymbolTableRecord
100
AcDbLinetypeTableRecord
  2
PHANTOM2
 70
     0
  3
Phantom (.5x) ___ _ _ ___ _ _ ___ _ _ ___ _ _
 72
    65
 73
     6
 40
1.25
 49
0.625
 74
     0
 49
-0.125
 74
     0
 49
0.125
 74
     0
 49
-0.125
 74
     0
 49
0.125
 74
     0
 49
-0.125
 74
     0
  0
ENDTAB
  0
TABLE
  2
LAYER
  5
2
330
0
100
AcDbSymbolTable
 70
     2
  0
LAYER
  5
10
330
2
100
AcDbSymbolTableRecord
100
AcDbLayerTableRecord
  2
0
 70
     0
 62
     7
  6
CONTINUOUS
  0
LAYER
  5
121C
330
2
100
AcDbSymbolTableRecord
100
AcDbLayerTableRecord
  2
PEF-300A
 70
     0
 62
     7
  6
CONTINUOUS
  0
ENDTAB
  0
TABLE
  2
STYLE
  5
3
330
0
100
AcDbSymbolTable
 70
     1
  0
STYLE
  5
11
330
3
100
AcDbSymbolTableRecord
100
AcDbTextStyleTableRecord
  2
STANDARD
 70
     0
 40
0.0
 41
1.0
 50
0.0
 71
     0
 42
4.0
  3
txt.shx
  4
whgtxt.shx
  0
ENDTAB
  0
TABLE
  2
VIEW
  5
6
330
0
100
AcDbSymbolTable
 70
     0
  0
ENDTAB
  0
TABLE
  2
UCS
  5
7
330
0
100
AcDbSymbolTable
 70
     0
  0
ENDTAB
  0
TABLE
  2
APPID
  5
9
330
0
100
AcDbSymbolTable
 70
     3
  0
APPID
  5
12
330
9
100
AcDbSymbolTableRecord
100
AcDbRegAppTableRecord
  2
ACAD
 70
     0
  0
APPID
  5
D3E
330
9
100
AcDbSymbolTableRecord
100
AcDbRegAppTableRecord
  2
MCAD_NO_VIS
 70
     0
  0
APPID
  5
D3F
330
9
100
AcDbSymbolTableRecord
100
AcDbRegAppTableRecord
  2
ACAD_TEMP_GRAPHIC
 70
     0
  0
ENDTAB
  0
TABLE
  2
DIMSTYLE
  5
A
330
0
100
AcDbSymbolTable
 70
     1
  0
DIMSTYLE
105
27
330
A
100
AcDbSymbolTableRecord
100
AcDbDimStyleTableRecord
  2
STANDARD
 70
     0
  3

  4

  5

  6

  7

 40
2.0
 41
2.299999999999998
 42
0.5
 43
8.0
 44
1.0
 45
0.0
 46
0.0
 47
0.0
 48
0.000000001
140
2.299999999999998
141
0.09
142
0.0
143
25.4
144
1.0
145
0.0
146
0.7
147
0.5
 71
     0
 72
     0
 73
     0
 74
     0
 75
     0
 76
     0
 77
     1
 78
     8
170
     0
171
     1
172
     1
173
     0
174
     0
175
     0
176
     5
177
     5
178
     3
270
     2
271
     1
272
     1
273
     2
274
     1
340
11
275
     0
280
     0
281
     0
282
     0
283
     1
284
     0
285
     0
286
     0
287
     3
288
     1
  0
ENDTAB
  0
TABLE
  2
BLOCK_RECORD
  5
1
330
0
100
AcDbSymbolTable
 70
     0
  0
BLOCK_RECORD
  5
1F
102
{ACAD_XDICTIONARY
360
11E7
102
}
330
1
100
AcDbSymbolTableRecord
100
AcDbBlockTableRecord
  2
*MODEL_SPACE
  0
BLOCK_RECORD
  5
1B
102
{ACAD_XDICTIONARY
360
11E5
102
}
330
1
100
AcDbSymbolTableRecord
100
AcDbBlockTableRecord
  2
*PAPER_SPACE
  0
ENDTAB
  0
ENDSEC
  0
SECTION
  2
BLOCKS
  0
BLOCK
  5
20
330
1F
100
AcDbEntity
  8
0
100
AcDbBlockBegin
  2
*MODEL_SPACE
 70
     0
 10
0.0
 20
0.0
 30
0.0
  3
*MODEL_SPACE
  1

  0
ENDBLK
  5
21
330
1F
100
AcDbEntity
  8
0
100
AcDbBlockEnd
  0
BLOCK
  5
1C
330
1B
100
AcDbEntity
 67
     1
  8
0
100
AcDbBlockBegin
  2
*PAPER_SPACE
 70
     0
 10
0.0
 20
0.0
 30
0.0
  3
*PAPER_SPACE
  1

  0
ENDBLK
  5
1D
330
1B
100
AcDbEntity
 67
     1
  8
0
100
AcDbBlockEnd
  0
ENDSEC
  0
SECTION
  2
ENTITIES
  0
ARC
  5
944
330
1F
100
AcDbEntity
  8
PEF-300A
  6
CONTINUOUS
100
AcDbCircle
 10
360.2235811344431
 20
433.890724193509
 30
0.0
 40
160.0
100
AcDbArc
 50
123.4039389457148
 51
236.5960610542851
  0
LINE
  5
945
330
1F
100
AcDbEntity
  8
PEF-300A
  6
CENTER2
100
AcDbLine
 10
360.2235811344432
 20
263.5112882604885
 30
0.0
 11
360.2235811344423
 21
605.7224717676204
 31
0.0
  0
ARC
  5
946
330
1F
100
AcDbEntity
  8
PEF-300A
  6
CONTINUOUS
100
AcDbCircle
 10
360.2235811344431
 20
433.890724193509
 30
0.0
 40
160.0
100
AcDbArc
 50
243.4039389457141
 51
356.5960610542849
  0
ARC
  5
947
330
1F
100
AcDbEntity
  8
PEF-300A
  6
CONTINUOUS
100
AcDbCircle
 10
360.2235811344431
 20
433.890724193509
 30
0.0
 40
115.0
100
AcDbArc
 50
194.7466528752441
 51
255.2533471247556
  0
ARC
  5
948
330
1F
100
AcDbEntity
  8
PEF-300A
  6
CONTINUOUS
100
AcDbCircle
 10
327.2235811344431
 20
400.8907241935092
 30
0.0
 40
10.0
100
AcDbArc
 50
0.0
 51
90.0
  0
ARC
  5
949
330
1F
100
AcDbEntity
  8
PEF-300A
  6
CONTINUOUS
100
AcDbCircle
 10
393.2235811344426
 20
400.890724193509
 30
0.0
 40
10.0
100
AcDbArc
 50
90.0
 51
180.0
  0
ARC
  5
94A
330
1F
100
AcDbEntity
  8
PEF-300A
  6
CONTINUOUS
100
AcDbCircle
 10
360.2235811344431
 20
433.890724193509
 30
0.0
 40
146.9999999999999
100
AcDbArc
 50
249.6590728253245
 51
350.3409271746776
  0
ARC
  5
94B
330
1F
100
AcDbEntity
  8
PEF-300A
  6
CONTINUOUS
100
AcDbCircle
 10
360.2235811344431
 20
433.890724193509
 30
0.0
 40
147.0
100
AcDbArc
 50
129.659072825321
 51
230.3409271746788
  0
ARC
  5
94C
330
1F
100
AcDbEntity
  8
PEF-300A
  6
CONTINUOUS
100
AcDbCircle
 10
360.2235811344431
 20
433.890724193509
 30
0.0
 40
114.9999999999999
100
AcDbArc
 50
284.7466528752441
 51
345.2533471247558
  0
ARC
  5
951
330
1F
100
AcDbEntity
  8
PEF-300A
  6
CENTER2
100
AcDbCircle
 10
360.2235811344431
 20
433.890724193509
 30
0.0
 40
135.0
100
AcDbArc
 50
216.7182108329729
 51
233.2817891670269
  0
CIRCLE
  5
952
330
1F
100
AcDbEntity
  8
PEF-300A
  6
CONTINUOUS
100
AcDbCircle
 10
264.7641656742591
 20
338.4313087333247
 30
0.0
 40
3.299999999999952
  0
CIRCLE
  5
953
330
1F
100
AcDbEntity
  8
PEF-300A
  6
CONTINUOUS
100
AcDbCircle
 10
264.7641656742591
 20
338.4313087333247
 30
0.0
 40
4.0
  0
CIRCLE
  5
954
330
1F
100
AcDbEntity
  8
PEF-300A
  6
CONTINUOUS
100
AcDbCircle
 10
264.7641656742591
 20
338.4313087333247
 30
0.0
 40
6.25
  0
LINE
  5
955
330
1F
100
AcDbEntity
  8
PEF-300A
  6
CONTINUOUS
100
AcDbLine
 10
266.7067449582286
 20
331.1815041478208
 30
0.0
 11
259.4569403727246
 21
333.1240834317902
 31
0.0
  0
LINE
  5
956
330
1F
100
AcDbEntity
  8
PEF-300A
  6
CONTINUOUS
100
AcDbLine
 10
262.8215863902901
 20
345.6811133188286
 30
0.0
 11
270.071390975794
 21
343.7385340348594
 31
0.0
  0
CIRCLE
  5
957
330
1F
100
AcDbEntity
  8
PEF-300A
  6
HIDDEN
100
AcDbCircle
 10
264.7641656742591
 20
338.4313087333247
 30
0.0
 40
15.0
  0
CIRCLE
  5
958
330
1F
100
AcDbEntity
  8
PEF-300A
  6
CONTINUOUS
100
AcDbCircle
 10
264.7641656742591
 20
338.4313087333247
 30
0.0
 40
11.0
  0
LINE
  5
959
330
1F
100
AcDbEntity
  8
PEF-300A
  6
CENTER2
100
AcDbLine
 10
282.4686529471778
 20
356.1357960062435
 30
0.0
 11
210.9091362737022
 21
284.5762793327671
 31
0.0
  0
LINE
  5
95A
330
1F
100
AcDbEntity
  8
PEF-300A
  6
HIDDEN
100
AcDbLine
 10
275.3707673920577
 20
327.8247070155265
 30
0.0
 11
257.250594670497
 21
311.4302650293527
 31
0.0
  0
ARC
  5
95C
330
1F
100
AcDbEntity
  8
PEF-300A
  6
CONTINUOUS
100
AcDbCircle
 10
360.2235811344431
 20
433.890724193509
 30
0.0
 40
154.0
100
AcDbArc
 50
231.410702376065
 51
248.589297623935
  0
ARC
  5
95D
330
1F
100
AcDbEntity
  8
PEF-300A
  6
PHANTOM2
100
AcDbCircle
 10
360.2235811344431
 20
433.890724193509
 30
0.0
 40
149.9999999999999
100
AcDbArc
 50
204.1836022359819
 51
231.100762178793
  0
LINE
  5
95E
330
1F
100
AcDbEntity
  8
PEF-300A
  6
CONTINUOUS
100
AcDbLine
 10
264.1686060740008
 20
313.5186270690598
 30
0.0
 11
266.8611407394869
 21
318.1822339108238
 31
0.0
  0
LINE
  5
95F
330
1F
100
AcDbEntity
  8
PEF-300A
  6
CONTINUOUS
100
AcDbLine
 10
257.5143610887554
 20
340.3738880172939
 30
0.0
 11
262.8215863902901
 21
345.6811133188286
 31
0.0
  0
LINE
  5
960
330
1F
100
AcDbEntity
  8
PEF-300A
  6
HIDDEN
100
AcDbLine
 10
254.157563956461
 20
349.0379104511229
 30
0.0
 11
237.7631219702871
 21
330.9177377295623
 31
0.0
  0
LINE
  5
961
330
1F
100
AcDbEntity
  8
PEF-300A
  6
CENTER2
100
AcDbLine
 10
218.2445114137796
 20
321.3113526870153
 30
0.0
 11
246.5287826612416
 21
293.0270814395535
 31
0.0
  0
LINE
  5
962
330
1F
100
AcDbEntity
  8
PEF-300A
  6
CONTINUOUS
100
AcDbLine
 10
241.07608850451
 20
319.6929790318812
 30
0.0
 11
219.8628850689139
 21
298.4797755962848
 31
0.0
  0
LINE
  5
963
330
1F
100
AcDbEntity
  8
PEF-300A
  6
CONTINUOUS
100
AcDbLine
 10
237.7631219702871
 20
330.9177377295623
 30
0.0
 11
213.852477428828
 21
304.4901832363704
 31
0.0
  0
ARC
  5
964
330
1F
100
AcDbEntity
  8
PEF-300A
  6
CONTINUOUS
100
AcDbCircle
 10
222.3377588030668
 20
296.0049018621318
 30
0.0
 40
3.500000000000038
100
AcDbArc
 50
135.0
 51
315.0
  0
ARC
  5
965
330
1F
100
AcDbEntity
  8
PEF-300A
  6
CONTINUOUS
100
AcDbCircle
 10
222.3377588030668
 20
296.0049018621318
 30
0.0
 40
12.00000000000006
100
AcDbArc
 50
135.0
 51
315.0
  0
LINE
  5
966
330
1F
100
AcDbEntity
  8
PEF-300A
  6
CONTINUOUS
100
AcDbLine
 10
246.0258359728158
 20
314.7432315635753
 30
0.0
 11
224.8126325372195
 21
293.5300281279788
 31
0.0
  0
LINE
  5
967
330
1F
100
AcDbEntity
  8
PEF-300A
  6
CONTINUOUS
100
AcDbLine
 10
257.250594670497
 20
311.4302650293527
 30
0.0
 11
230.8230401773053
 21
287.5196204878931
 31
0.0
  0
ARC
  5
968
330
1F
100
AcDbEntity
  8
PEF-300A
  6
CONTINUOUS
100
AcDbCircle
 10
243.5509622386629
 20
317.2181052977281
 30
0.0
 40
3.500000000000006
100
AcDbArc
 50
315.0
 51
135.0
  0
LINE
  5
969
330
1F
100
AcDbEntity
  8
PEF-300A
  6
CONTINUOUS
100
AcDbLine
 10
259.4569403727246
 20
333.1240834317902
 30
0.0
 11
257.5143610887554
 21
340.3738880172939
 31
0.0
  0
LINE
  5
96A
330
1F
100
AcDbEntity
  8
PEF-300A
  6
CONTINUOUS
100
AcDbLine
 10
233.4766220500538
 20
359.4313089426635
 30
0.0
 11
220.4289033312848
 21
359.4313087333246
 31
0.0
  0
ARC
  5
96B
330
1F
100
AcDbEntity
  8
PEF-300A
  6
CONTINUOUS
100
AcDbCircle
 10
220.4289033312849
 20
362.4313087333246
 30
0.0
 40
2.999999999999973
100
AcDbArc
 50
207.0749406211559
 51
270.0
  0
ARC
  5
96F
330
1F
100
AcDbEntity
  8
PEF-300A
  6
CENTER2
100
AcDbCircle
 10
360.2235811344431
 20
433.890724193509
 30
0.0
 40
135.0
100
AcDbArc
 50
294.6036610928786
 51
323.2817891670269
  0
LINE
  5
970
330
1F
100
AcDbEntity
  8
PEF-300A
  6
CONTINUOUS
100
AcDbLine
 10
270.071390975794
 20
343.7385340348594
 30
0.0
 11
272.0139702597633
 21
336.4887294493556
 31
0.0
  0
LINE
  5
972
330
1F
100
AcDbEntity
  8
PEF-300A
  6
CONTINUOUS
100
AcDbLine
 10
337.223581134443
 20
400.8907241935092
 30
0.0
 11
337.2235811344431
 21
327.5140350177313
 31
0.0
  0
ARC
  5
973
330
1F
100
AcDbEntity
  8
PEF-300A
  6
CONTINUOUS
100
AcDbCircle
 10
308.43036012114
 20
294.182233910824
 30
0.0
 40
1.999999999999918
100
AcDbArc
 50
69.65907282532453
 51
149.9999999999993
  0
LINE
  5
975
330
1F
100
AcDbEntity
  8
PEF-300A
  6
HIDDEN
100
AcDbLine
 10
286.7143541586748
 20
298.5690082463653
 30
0.0
 11
299.1876827495808
 21
320.1734471053163
 31
0.0
  0
LINE
  5
976
330
1F
100
AcDbEntity
  8
PEF-300A
  6
HIDDEN
100
AcDbLine
 10
279.7861509283992
 20
302.5690082463652
 30
0.0
 11
292.2594795193055
 21
324.1734471053165
 31
0.0
  0
LINE
  5
977
330
1F
100
AcDbEntity
  8
PEF-300A
  6
HIDDEN
100
AcDbLine
 10
286.0996171636135
 20
298.904252537627
 30
0.0
 11
300.0814649669317
 21
323.1215233166698
 31
0.0
  0
LINE
  5
978
330
1F
100
AcDbEntity
  8
PEF-300A
  6
HIDDEN
100
AcDbLine
 10
280.3838494986363
 20
302.2042525376268
 30
0.0
 11
294.3656973019545
 21
326.4215233166698
 31
0.0
  0
LINE
  5
979
330
1F
100
AcDbEntity
  8
PEF-300A
  6
CENTER2
100
AcDbLine
 10
273.6171741967613
 20
283.8840271164578
 30
0.0
 11
300.7235811344431
 21
330.8337011431607
 31
0.0
  0
ARC
  5
97A
330
1F
100
AcDbEntity
  8
PEF-300A
  6
CONTINUOUS
100
AcDbCircle
 10
360.2235811344431
 20
433.890724193509
 30
0.0
 40
150.0
100
AcDbArc
 50
231.1798521707659
 51
236.368837033307
  0
ARC
  5
97B
330
1F
100
AcDbEntity
  8
PEF-300A
  6
CONTINUOUS
100
AcDbCircle
 10
360.2235811344431
 20
433.890724193509
 30
0.0
 40
150.0
100
AcDbArc
 50
236.368837033307
 51
243.6311629666913
  0
LINE
  5
97C
330
1F
100
AcDbEntity
  8
PEF-300A
  6
HIDDEN
100
AcDbLine
 10
285.120695451473
 20
294.8087103955675
 30
0.0
 11
288.6206954514729
 21
300.8708882220586
 31
0.0
  0
LINE
  5
97D
330
1F
100
AcDbEntity
  8
PEF-300A
  6
HIDDEN
100
AcDbLine
 10
287.2857589609341
 20
293.5587103955673
 30
0.0
 11
283.0357589609341
 21
286.1974944633998
 31
0.0
  0
LINE
  5
97E
330
1F
100
AcDbEntity
  8
PEF-300A
  6
HIDDEN
100
AcDbLine
 10
275.1614033079519
 20
300.5587103955675
 30
0.0
 11
287.2857589609341
 21
293.5587103955673
 31
0.0
  0
LINE
  5
97F
330
1F
100
AcDbEntity
  8
PEF-300A
  6
CONTINUOUS
100
AcDbLine
 10
294.2008224703952
 20
300.5359517315196
 30
0.0
 11
277.7463397984908
 21
310.0359517315196
 31
0.0
  0
LINE
  5
980
330
1F
100
AcDbEntity
  8
PEF-300A
  6
CONTINUOUS
100
AcDbLine
 10
276.4963397984906
 20
307.8708882220585
 30
0.0
 11
292.9508224703952
 21
298.3708882220586
 31
0.0
  0
LINE
  5
981
330
1F
100
AcDbEntity
  8
PEF-300A
  6
CONTINUOUS
100
AcDbLine
 10
294.2008224703953
 20
300.5359517315196
 30
0.0
 11
285.2008224703954
 21
284.9474944633998
 31
0.0
  0
LINE
  5
982
330
1F
100
AcDbEntity
  8
PEF-300A
  6
CONTINUOUS
100
AcDbLine
 10
276.9963397984909
 20
308.736913625843
 30
0.0
 11
293.4508224703952
 21
299.236913625843
 31
0.0
  0
ARC
  5
983
330
1F
100
AcDbEntity
  8
PEF-300A
  6
HIDDEN
100
AcDbCircle
 10
360.2235811344431
 20
433.890724193509
 30
0.0
 40
160.0
100
AcDbArc
 50
236.5960610542851
 51
243.4039389457141
  0
ARC
  5
984
330
1F
100
AcDbEntity
  8
PEF-300A
  6
CONTINUOUS
100
AcDbCircle
 10
288.7641656742596
 20
294.0960463903503
 30
0.0
 40
3.0
100
AcDbArc
 50
180.0
 51
242.9250593788469
  0
LINE
  5
985
330
1F
100
AcDbEntity
  8
PEF-300A
  6
HIDDEN
100
AcDbLine
 10
270.911403307952
 20
293.1974944633997
 30
0.0
 11
275.1614033079519
 21
300.5587103955675
 31
0.0
  0
LINE
  5
986
330
1F
100
AcDbEntity
  8
PEF-300A
  6
CONTINUOUS
100
AcDbLine
 10
268.7463397984909
 20
294.4474944633998
 30
0.0
 11
277.7463397984908
 21
310.0359517315196
 31
0.0
  0
LINE
  5
987
330
1F
100
AcDbEntity
  8
PEF-300A
  6
CONTINUOUS
100
AcDbLine
 10
285.2008224703954
 20
284.9474944633998
 30
0.0
 11
268.7463397984909
 21
294.4474944633998
 31
0.0
  0
LINE
  5
988
330
1F
100
AcDbEntity
  8
PEF-300A
  6
HIDDEN
100
AcDbLine
 10
277.3264668174131
 20
299.3087103955676
 30
0.0
 11
280.8264668174131
 21
305.3708882220586
 31
0.0
  0
ARC
  5
989
330
1F
100
AcDbEntity
  8
PEF-300A
  6
CONTINUOUS
100
AcDbCircle
 10
360.2235811344431
 20
433.890724193509
 30
0.0
 40
150.0
100
AcDbArc
 50
243.6311629666913
 51
248.820147829235
  0
LINE
  5
98A
330
1F
100
AcDbEntity
  8
PEF-300A
  6
CONTINUOUS
100
AcDbLine
 10
304.0057746480846
 20
290.5186270690601
 30
0.0
 11
306.6983093135713
 21
295.182233910824
 31
0.0
  0
ARC
  5
98B
330
1F
100
AcDbEntity
  8
PEF-300A
  6
CONTINUOUS
100
AcDbCircle
 10
265.1290899319183
 20
319.1822339108238
 30
0.0
 40
1.999999999999965
100
AcDbArc
 50
329.9999999999993
 51
50.34092717467888
  0
LINE
  5
98C
330
1F
100
AcDbEntity
  8
PEF-300A
  6
CONTINUOUS
100
AcDbLine
 10
272.0139702597633
 20
336.4887294493556
 30
0.0
 11
266.7067449582286
 21
331.1815041478208
 31
0.0
  0
LINE
  5
98D
330
1F
100
AcDbEntity
  8
PEF-300A
  6
HIDDEN
100
AcDbLine
 10
294.3656973019545
 20
326.4215233166698
 30
0.0
 11
298.1762090786061
 21
326.4215233166698
 31
0.0
  0
LINE
  5
98E
330
1F
100
AcDbEntity
  8
PEF-300A
  6
HIDDEN
100
AcDbLine
 10
294.3656973019545
 20
326.4215233166698
 30
0.0
 11
300.0814649669317
 21
323.1215233166698
 31
0.0
  0
LINE
  5
98F
330
1F
100
AcDbEntity
  8
PEF-300A
  6
HIDDEN
100
AcDbLine
 10
292.2594795193055
 20
324.1734471053165
 30
0.0
 11
299.1876827495808
 21
320.1734471053163
 31
0.0
  0
LINE
  5
990
330
1F
100
AcDbEntity
  8
PEF-300A
  6
HIDDEN
100
AcDbLine
 10
292.2594795193055
 20
324.1734471053165
 30
0.0
 11
293.4719150846035
 21
324.8734471053164
 31
0.0
  0
LINE
  5
991
330
1F
100
AcDbEntity
  8
PEF-300A
  6
HIDDEN
100
AcDbLine
 10
299.1876827495808
 20
320.1734471053163
 30
0.0
 11
299.1876827495808
 21
321.5734471053165
 31
0.0
  0
LINE
  5
992
330
1F
100
AcDbEntity
  8
PEF-300A
  6
HIDDEN
100
AcDbLine
 10
300.0814649669317
 20
323.1215233166698
 30
0.0
 11
298.1762090786061
 21
326.4215233166698
 31
0.0
  0
ARC
  5
993
330
1F
100
AcDbEntity
  8
PEF-300A
  6
CONTINUOUS
100
AcDbCircle
 10
332.2235811344428
 20
327.5140350177315
 30
0.0
 40
4.999999999999976
100
AcDbArc
 50
255.2533471247556
 51
0.0
  0
LINE
  5
995
330
1F
100
AcDbEntity
  8
PEF-300A
  6
CONTINUOUS
100
AcDbLine
 10
383.2235811344432
 20
327.5140350177313
 30
0.0
 11
383.2235811344428
 21
400.890724193509
 31
0.0
  0
ARC
  5
996
330
1F
100
AcDbEntity
  8
PEF-300A
  6
CONTINUOUS
100
AcDbCircle
 10
388.2235811344429
 20
327.5140350177313
 30
0.0
 40
5.0
100
AcDbArc
 50
180.0
 51
284.7466528752441
  0
ARC
  5
998
330
1F
100
AcDbEntity
  8
PEF-300A
  6
CONTINUOUS
100
AcDbCircle
 10
498.1094034658203
 20
296.0049018621326
 30
0.0
 40
12.00000000000001
100
AcDbArc
 50
225.0
 51
45.0
  0
CIRCLE
  5
999
330
1F
100
AcDbEntity
  8
PEF-300A
  6
CONTINUOUS
100
AcDbCircle
 10
455.682996594627
 20
338.4313087333253
 30
0.0
 40
3.299999999999997
  0
CIRCLE
  5
99A
330
1F
100
AcDbEntity
  8
PEF-300A
  6
CONTINUOUS
100
AcDbCircle
 10
455.682996594627
 20
338.4313087333253
 30
0.0
 40
4.0
  0
CIRCLE
  5
99B
330
1F
100
AcDbEntity
  8
PEF-300A
  6
CONTINUOUS
100
AcDbCircle
 10
455.682996594627
 20
338.4313087333253
 30
0.0
 40
6.25
  0
LINE
  5
99C
330
1F
100
AcDbEntity
  8
PEF-300A
  6
CONTINUOUS
100
AcDbLine
 10
457.6255758785963
 20
345.6811133188292
 30
0.0
 11
462.9328011801312
 21
340.3738880172946
 31
0.0
  0
LINE
  5
99D
330
1F
100
AcDbEntity
  8
PEF-300A
  6
CONTINUOUS
100
AcDbLine
 10
448.4331920091233
 20
336.4887294493561
 30
0.0
 11
450.3757712930926
 21
343.7385340348598
 31
0.0
  0
CIRCLE
  5
99E
330
1F
100
AcDbEntity
  8
PEF-300A
  6
HIDDEN
100
AcDbCircle
 10
455.682996594627
 20
338.4313087333253
 30
0.0
 40
15.0
  0
CIRCLE
  5
99F
330
1F
100
AcDbEntity
  8
PEF-300A
  6
CONTINUOUS
100
AcDbCircle
 10
455.682996594627
 20
338.4313087333253
 30
0.0
 40
11.0
  0
LINE
  5
9A0
330
1F
100
AcDbEntity
  8
PEF-300A
  6
CENTER2
100
AcDbLine
 10
437.9785093217082
 20
356.1357960062438
 30
0.0
 11
509.5380259951847
 21
284.5762793327681
 31
0.0
  0
LINE
  5
9A1
330
1F
100
AcDbEntity
  8
PEF-300A
  6
HIDDEN
100
AcDbLine
 10
466.2895983124252
 20
349.0379104511236
 30
0.0
 11
482.6840402985991
 21
330.9177377295628
 31
0.0
  0
LINE
  5
9A3
330
1F
100
AcDbEntity
  8
PEF-300A
  6
CONTINUOUS
100
AcDbLine
 10
463.1965675983898
 20
311.4302650293531
 30
0.0
 11
489.6241220915816
 21
287.5196204878938
 31
0.0
  0
ARC
  5
9A4
330
1F
100
AcDbEntity
  8
PEF-300A
  6
CONTINUOUS
100
AcDbCircle
 10
476.8962000302236
 20
317.2181052977288
 30
0.0
 40
3.500000000000017
100
AcDbArc
 50
45.0
 51
225.0
  0
LINE
  5
9A5
330
1F
100
AcDbEntity
  8
PEF-300A
  6
HIDDEN
100
AcDbLine
 10
445.0763948768288
 20
327.8247070155269
 30
0.0
 11
463.1965675983898
 21
311.4302650293531
 31
0.0
  0
LINE
  5
9A7
330
1F
100
AcDbEntity
  8
PEF-300A
  6
CONTINUOUS
100
AcDbLine
 10
434.6829971721247
 20
307.1437570627815
 30
0.0
 11
434.6829965946271
 21
294.0960463903508
 31
0.0
  0
ARC
  5
9A8
330
1F
100
AcDbEntity
  8
PEF-300A
  6
CONTINUOUS
100
AcDbCircle
 10
431.6829965946271
 20
294.0960463903508
 30
0.0
 40
3.000000000000026
100
AcDbArc
 50
297.0749406211559
 51
0.0
  0
LINE
  5
9A9
330
1F
100
AcDbEntity
  8
PEF-300A
  6
CONTINUOUS
100
AcDbLine
 10
453.740417310658
 20
331.1815041478213
 30
0.0
 11
448.4331920091233
 21
336.4887294493561
 31
0.0
  0
LINE
  5
9AA
330
1F
100
AcDbEntity
  8
PEF-300A
  6
CONTINUOUS
100
AcDbLine
 10
462.9328011801312
 20
340.3738880172946
 30
0.0
 11
460.990221896162
 21
333.1240834317906
 31
0.0
  0
LINE
  5
9AB
330
1F
100
AcDbEntity
  8
PEF-300A
  6
CONTINUOUS
100
AcDbLine
 10
460.990221896162
 20
333.1240834317906
 30
0.0
 11
453.740417310658
 21
331.1815041478213
 31
0.0
  0
LINE
  5
9AC
330
1F
100
AcDbEntity
  8
PEF-300A
  6
CENTER2
100
AcDbLine
 10
472.8029526409367
 20
291.9116544728453
 30
0.0
 11
501.0872238883987
 21
320.1959257203075
 31
0.0
  0
LINE
  5
9AD
330
1F
100
AcDbEntity
  8
PEF-300A
  6
CONTINUOUS
100
AcDbLine
 10
479.3710737643766
 20
319.6929790318818
 30
0.0
 11
500.5842771999731
 21
298.4797755962853
 31
0.0
  0
LINE
  5
9AE
330
1F
100
AcDbEntity
  8
PEF-300A
  6
CONTINUOUS
100
AcDbLine
 10
474.4213262960707
 20
314.7432315635758
 30
0.0
 11
495.6345297316674
 21
293.5300281279797
 31
0.0
  0
LINE
  5
9AF
330
1F
100
AcDbEntity
  8
PEF-300A
  6
CONTINUOUS
100
AcDbLine
 10
482.6840402985991
 20
330.9177377295628
 30
0.0
 11
506.5946848400589
 21
304.4901832363711
 31
0.0
  0
ARC
  5
9B0
330
1F
100
AcDbEntity
  8
PEF-300A
  6
CONTINUOUS
100
AcDbCircle
 10
498.1094034658203
 20
296.0049018621326
 30
0.0
 40
3.499999999999998
100
AcDbArc
 50
225.0
 51
45.0
  0
LINE
  5
9B3
330
1F
100
AcDbEntity
  8
PEF-300A
  6
CONTINUOUS
100
AcDbLine
 10
450.3757712930926
 20
343.7385340348598
 30
0.0
 11
457.6255758785963
 21
345.6811133188292
 31
0.0
  0
POINT
  5
9B5
330
1F
100
AcDbEntity
  8
PEF-300A
  6
CONTINUOUS
100
AcDbPoint
 10
461.8516078924097
 20
351.1063917378002
 30
0.0
  0
LINE
  5
9B6
330
1F
100
AcDbEntity
  8
PEF-300A
  6
CONTINUOUS
100
AcDbLine
 10
486.9705566814015
 20
359.4313089426643
 30
0.0
 11
500.0182589376016
 21
359.4313087333255
 31
0.0
  0
ARC
  5
9B7
330
1F
100
AcDbEntity
  8
PEF-300A
  6
CONTINUOUS
100
AcDbCircle
 10
500.0182589376014
 20
362.4313087333255
 30
0.0
 40
3.0
100
AcDbArc
 50
270.0
 51
332.9250593788438
  0
ARC
  5
9BB
330
1F
100
AcDbEntity
  8
PEF-300A
  6
CENTER2
100
AcDbCircle
 10
360.2235811344431
 20
433.890724193509
 30
0.0
 40
135.0
100
AcDbArc
 50
115.5070396735456
 51
143.2817891670269
  0
CIRCLE
  5
9BC
330
1F
100
AcDbEntity
  8
PEF-300A
  6
CONTINUOUS
100
AcDbCircle
 10
264.7641656742588
 20
529.3501396536925
 30
0.0
 40
3.300000000000011
  0
CIRCLE
  5
9BD
330
1F
100
AcDbEntity
  8
PEF-300A
  6
CONTINUOUS
100
AcDbCircle
 10
264.7641656742588
 20
529.3501396536925
 30
0.0
 40
4.0
  0
CIRCLE
  5
9BE
330
1F
100
AcDbEntity
  8
PEF-300A
  6
CONTINUOUS
100
AcDbCircle
 10
264.7641656742588
 20
529.3501396536925
 30
0.0
 40
6.25
  0
LINE
  5
9BF
330
1F
100
AcDbEntity
  8
PEF-300A
  6
CONTINUOUS
100
AcDbLine
 10
270.0713909757936
 20
524.0429143521581
 30
0.0
 11
262.8215863902896
 21
522.1003350681886
 31
0.0
  0
LINE
  5
9C0
330
1F
100
AcDbEntity
  8
PEF-300A
  6
CONTINUOUS
100
AcDbLine
 10
259.4569403727242
 20
534.6573649552273
 30
0.0
 11
266.7067449582279
 21
536.5999442391967
 31
0.0
  0
CIRCLE
  5
9C1
330
1F
100
AcDbEntity
  8
PEF-300A
  6
HIDDEN
100
AcDbCircle
 10
264.7641656742588
 20
529.3501396536925
 30
0.0
 40
15.0
  0
CIRCLE
  5
9C2
330
1F
100
AcDbEntity
  8
PEF-300A
  6
CONTINUOUS
100
AcDbCircle
 10
264.7641656742588
 20
529.3501396536925
 30
0.0
 40
11.0
  0
LINE
  5
9C3
330
1F
100
AcDbEntity
  8
PEF-300A
  6
CENTER2
100
AcDbLine
 10
282.4686529471772
 20
511.6456523807741
 30
0.0
 11
210.9091362737014
 21
583.2051690542497
 31
0.0
  0
LINE
  5
9C4
330
1F
100
AcDbEntity
  8
PEF-300A
  6
HIDDEN
100
AcDbLine
 10
275.370767392057
 20
539.9567413714907
 30
0.0
 11
257.2505946704962
 21
556.3511833576646
 31
0.0
  0
LINE
  5
9C6
330
1F
100
AcDbEntity
  8
PEF-300A
  6
CENTER2
100
AcDbLine
 10
190.9207531543596
 20
433.8907241935086
 30
0.0
 11
533.4363950098072
 21
433.8907241935092
 31
0.0
  0
ARC
  5
9C7
330
1F
100
AcDbEntity
  8
PEF-300A
  6
CONTINUOUS
100
AcDbCircle
 10
360.2235811344431
 20
433.890724193509
 30
0.0
 40
154.0
100
AcDbArc
 50
111.4107023760647
 51
128.5892976239348
  0
LINE
  5
9C8
330
1F
100
AcDbEntity
  8
PEF-300A
  6
CONTINUOUS
100
AcDbLine
 10
253.8468919586652
 20
410.8907241935092
 30
0.0
 11
327.2235811344431
 21
410.890724193509
 31
0.0
  0
LINE
  5
9C9
330
1F
100
AcDbEntity
  8
PEF-300A
  6
CONTINUOUS
100
AcDbLine
 10
327.2235811344433
 20
456.890724193509
 30
0.0
 11
253.8468919586656
 21
456.8907241935091
 31
0.0
  0
ARC
  5
9CA
330
1F
100
AcDbEntity
  8
PEF-300A
  6
CONTINUOUS
100
AcDbCircle
 10
360.2235811344431
 20
433.8907241935092
 30
0.0
 40
114.9999999999999
100
AcDbArc
 50
104.7466528752441
 51
165.2533471247559
  0
LINE
  5
9CB
330
1F
100
AcDbEntity
  8
PEF-300A
  6
CONTINUOUS
100
AcDbLine
 10
264.1686060740001
 20
554.2628213179575
 30
0.0
 11
266.8611407394869
 21
549.599214476194
 31
0.0
  0
LINE
  5
9CC
330
1F
100
AcDbEntity
  8
PEF-300A
  6
CONTINUOUS
100
AcDbLine
 10
262.8215863902896
 20
522.1003350681886
 30
0.0
 11
257.514361088755
 21
527.4075603697232
 31
0.0
  0
LINE
  5
9CD
330
1F
100
AcDbEntity
  8
PEF-300A
  6
HIDDEN
100
AcDbLine
 10
254.1575639564606
 20
518.7435379358944
 30
0.0
 11
237.7631219702866
 21
536.8637106574549
 31
0.0
  0
ARC
  5
9CE
330
1F
100
AcDbEntity
  8
PEF-300A
  6
CONTINUOUS
100
AcDbCircle
 10
253.8468919586656
 20
461.8907241935088
 30
0.0
 40
4.999999999999983
100
AcDbArc
 50
165.2533471247559
 51
270.0
  0
ARC
  5
9CF
330
1F
100
AcDbEntity
  8
PEF-300A
  6
CONTINUOUS
100
AcDbCircle
 10
253.8468919586652
 20
405.8907241935092
 30
0.0
 40
5.0
100
AcDbArc
 50
90.0
 51
194.7466528752441
  0
LINE
  5
9D0
330
1F
100
AcDbEntity
  8
PEF-300A
  6
CONTINUOUS
100
AcDbLine
 10
233.4766220500536
 20
508.3501398142455
 30
0.0
 11
220.4289033312848
 21
508.3501396536926
 31
0.0
  0
ARC
  5
9D1
330
1F
100
AcDbEntity
  8
PEF-300A
  6
CONTINUOUS
100
AcDbCircle
 10
220.4289033312845
 20
505.3501396536923
 30
0.0
 40
3.0
100
AcDbArc
 50
90.0
 51
152.9250593788439
  0
ARC
  5
9D3
330
1F
100
AcDbEntity
  8
PEF-300A
  6
CONTINUOUS
100
AcDbCircle
 10
222.3377588030656
 20
571.7765465248852
 30
0.0
 40
11.99999999999999
100
AcDbArc
 50
45.0
 51
225.0
  0
LINE
  5
9D4
330
1F
100
AcDbEntity
  8
PEF-300A
  6
CENTER2
100
AcDbLine
 10
247.6442096279491
 20
575.8697939141725
 30
0.0
 11
219.3599383804876
 21
547.5855226667105
 31
0.0
  0
LINE
  5
9D5
330
1F
100
AcDbEntity
  8
PEF-300A
  6
CONTINUOUS
100
AcDbLine
 10
241.0760885045093
 20
548.0884693551359
 30
0.0
 11
219.8628850689126
 21
569.3016727907322
 31
0.0
  0
LINE
  5
9D6
330
1F
100
AcDbEntity
  8
PEF-300A
  6
CONTINUOUS
100
AcDbLine
 10
237.7631219702866
 20
536.8637106574549
 30
0.0
 11
213.852477428827
 21
563.2912651506469
 31
0.0
  0
ARC
  5
9D7
330
1F
100
AcDbEntity
  8
PEF-300A
  6
CONTINUOUS
100
AcDbCircle
 10
222.3377588030656
 20
571.7765465248852
 30
0.0
 40
3.499999999999988
100
AcDbArc
 50
45.0
 51
225.0
  0
ARC
  5
9D8
330
1F
100
AcDbEntity
  8
PEF-300A
  6
CONTINUOUS
100
AcDbCircle
 10
243.5509622386621
 20
550.5633430892891
 30
0.0
 40
3.499999999999968
100
AcDbArc
 50
225.0
 51
45.0
  0
LINE
  5
9D9
330
1F
100
AcDbEntity
  8
PEF-300A
  6
CONTINUOUS
100
AcDbLine
 10
257.514361088755
 20
527.4075603697232
 30
0.0
 11
259.4569403727242
 21
534.6573649552273
 31
0.0
  0
LINE
  5
9DA
330
1F
100
AcDbEntity
  8
PEF-300A
  6
CONTINUOUS
100
AcDbLine
 10
246.0258359728153
 20
553.0382168234418
 30
0.0
 11
224.8126325372187
 21
574.2514202590382
 31
0.0
  0
LINE
  5
9DB
330
1F
100
AcDbEntity
  8
PEF-300A
  6
CONTINUOUS
100
AcDbLine
 10
257.2505946704962
 20
556.3511833576646
 30
0.0
 11
230.8230401773043
 21
580.2618278991237
 31
0.0
  0
ARC
  5
9E1
330
1F
100
AcDbEntity
  8
PEF-300A
  6
CONTINUOUS
100
AcDbCircle
 10
360.2235811344431
 20
433.890724193509
 30
0.0
 40
160.0
100
AcDbArc
 50
3.403938945715047
 51
116.5960610542858
  0
LINE
  5
9E2
330
1F
100
AcDbEntity
  8
PEF-300A
  6
CONTINUOUS
100
AcDbLine
 10
466.6002703102206
 20
456.890724193509
 30
0.0
 11
393.2235811344432
 21
456.8907241935088
 31
0.0
  0
ARC
  5
9E3
330
1F
100
AcDbEntity
  8
PEF-300A
  6
CONTINUOUS
100
AcDbCircle
 10
360.2235811344431
 20
433.890724193509
 30
0.0
 40
115.0
100
AcDbArc
 50
14.74665287524421
 51
75.2533471247558
  0
LINE
  5
9E4
330
1F
100
AcDbEntity
  8
PEF-300A
  6
CONTINUOUS
100
AcDbLine
 10
393.2235811344428
 20
410.890724193509
 30
0.0
 11
466.6002703102207
 21
410.8907241935092
 31
0.0
  0
ARC
  5
9E5
330
1F
100
AcDbEntity
  8
PEF-300A
  6
CONTINUOUS
100
AcDbCircle
 10
360.2235811344431
 20
433.890724193509
 30
0.0
 40
147.0
100
AcDbArc
 50
9.659072825322247
 51
110.3409271746784
  0
LINE
  5
9E8
330
1F
100
AcDbEntity
  8
PEF-300A
  6
CONTINUOUS
100
AcDbLine
 10
337.2235811344431
 20
540.2674133692864
 30
0.0
 11
337.2235811344431
 21
466.890724193509
 31
0.0
  0
LINE
  5
9E9
330
1F
100
AcDbEntity
  8
PEF-300A
  6
CONTINUOUS
100
AcDbLine
 10
383.2235811344432
 20
466.8907241935088
 30
0.0
 11
383.2235811344428
 21
540.2674133692864
 31
0.0
  0
ARC
  5
9EA
330
1F
100
AcDbEntity
  8
PEF-300A
  6
CONTINUOUS
100
AcDbCircle
 10
327.2235811344433
 20
466.890724193509
 30
0.0
 40
10.0
100
AcDbArc
 50
270.0
 51
0.0
  0
POINT
  5
9EB
330
1F
100
AcDbEntity
  8
PEF-300A
  6
CONTINUOUS
100
AcDbPoint
 10
282.4686529471772
 20
511.6456523807741
 30
0.0
  0
ARC
  5
9ED
330
1F
100
AcDbEntity
  8
PEF-300A
  6
CONTINUOUS
100
AcDbCircle
 10
393.2235811344432
 20
466.8907241935088
 30
0.0
 40
10.0
100
AcDbArc
 50
180.0
 51
270.0
  0
CIRCLE
  5
9EE
330
1F
100
AcDbEntity
  8
PEF-300A
  6
CONTINUOUS
100
AcDbCircle
 10
360.2235811344431
 20
433.890724193509
 30
0.0
 40
6.0
  0
CIRCLE
  5
9EF
330
1F
100
AcDbEntity
  8
PEF-300A
  6
CONTINUOUS
100
AcDbCircle
 10
360.2235811344431
 20
433.890724193509
 30
0.0
 40
5.099999999999994
  0
LINE
  5
9F1
330
1F
100
AcDbEntity
  8
PEF-300A
  6
CENTER2
100
AcDbLine
 10
372.0191046827337
 20
586.3907241935089
 30
0.0
 11
347.0045252527584
 21
586.3907241935091
 31
0.0
  0
LINE
  5
9F2
330
1F
100
AcDbEntity
  8
PEF-300A
  6
CENTER2
100
AcDbLine
 10
273.6171741967609
 20
583.89742127056
 30
0.0
 11
300.7235811344428
 21
536.9477472438573
 31
0.0
  0
ARC
  5
9F3
330
1F
100
AcDbEntity
  8
PEF-300A
  6
CONTINUOUS
100
AcDbCircle
 10
308.4303601211398
 20
573.5992144761937
 30
0.0
 40
1.999999999999965
100
AcDbArc
 50
210.0000000000004
 51
290.3409271746797
  0
ARC
  5
9F4
330
1F
100
AcDbEntity
  8
PEF-300A
  6
CONTINUOUS
100
AcDbCircle
 10
360.2235811344431
 20
433.890724193509
 30
0.0
 40
150.0
100
AcDbArc
 50
123.6311629666927
 51
128.820147829234
  0
LINE
  5
9F6
330
1F
100
AcDbEntity
  8
PEF-300A
  6
HIDDEN
100
AcDbLine
 10
279.786150928399
 20
565.2124401406528
 30
0.0
 11
292.2594795193052
 21
543.6080012817012
 31
0.0
  0
LINE
  5
9F7
330
1F
100
AcDbEntity
  8
PEF-300A
  6
HIDDEN
100
AcDbLine
 10
286.7143541586746
 20
569.2124401406528
 30
0.0
 11
299.1876827495808
 21
547.6080012817016
 31
0.0
  0
LINE
  5
9F8
330
1F
100
AcDbEntity
  8
PEF-300A
  6
HIDDEN
100
AcDbLine
 10
280.3838494986359
 20
565.577195849391
 30
0.0
 11
294.3656973019542
 21
541.3599250703482
 31
0.0
  0
LINE
  5
9F9
330
1F
100
AcDbEntity
  8
PEF-300A
  6
HIDDEN
100
AcDbLine
 10
286.0996171636132
 20
568.877195849391
 30
0.0
 11
300.0814649669316
 21
544.6599250703481
 31
0.0
  0
LINE
  5
9FA
330
1F
100
AcDbEntity
  8
PEF-300A
  6
CONTINUOUS
100
AcDbLine
 10
272.0139702597628
 20
531.2927189376619
 30
0.0
 11
270.0713909757936
 21
524.0429143521581
 31
0.0
  0
LINE
  5
9FB
330
1F
100
AcDbEntity
  8
PEF-300A
  6
CONTINUOUS
100
AcDbLine
 10
266.7067449582279
 20
536.5999442391967
 30
0.0
 11
272.0139702597628
 21
531.2927189376619
 31
0.0
  0
ARC
  5
9FC
330
1F
100
AcDbEntity
  8
PEF-300A
  6
CONTINUOUS
100
AcDbCircle
 10
265.1290899319179
 20
548.5992144761938
 30
0.0
 40
2.0
100
AcDbArc
 50
309.6590728253231
 51
30.00000000000057
  0
LINE
  5
9FD
330
1F
100
AcDbEntity
  8
PEF-300A
  6
HIDDEN
100
AcDbLine
 10
294.3656973019542
 20
541.3599250703482
 30
0.0
 11
298.1762090786059
 21
541.3599250703482
 31
0.0
  0
LINE
  5
9FE
330
1F
100
AcDbEntity
  8
PEF-300A
  6
HIDDEN
100
AcDbLine
 10
300.0814649669316
 20
544.6599250703481
 30
0.0
 11
294.3656973019542
 21
541.3599250703482
 31
0.0
  0
LINE
  5
9FF
330
1F
100
AcDbEntity
  8
PEF-300A
  6
HIDDEN
100
AcDbLine
 10
299.1876827495808
 20
547.6080012817016
 30
0.0
 11
292.2594795193052
 21
543.6080012817012
 31
0.0
  0
LINE
  5
A00
330
1F
100
AcDbEntity
  8
PEF-300A
  6
HIDDEN
100
AcDbLine
 10
292.2594795193052
 20
543.6080012817012
 30
0.0
 11
293.4719150846035
 21
542.9080012817015
 31
0.0
  0
LINE
  5
A01
330
1F
100
AcDbEntity
  8
PEF-300A
  6
HIDDEN
100
AcDbLine
 10
299.1876827495808
 20
547.6080012817016
 30
0.0
 11
299.1876827495808
 21
546.2080012817015
 31
0.0
  0
LINE
  5
A02
330
1F
100
AcDbEntity
  8
PEF-300A
  6
HIDDEN
100
AcDbLine
 10
300.0814649669316
 20
544.6599250703481
 30
0.0
 11
298.1762090786059
 21
541.3599250703482
 31
0.0
  0
ARC
  5
A03
330
1F
100
AcDbEntity
  8
PEF-300A
  6
CONTINUOUS
100
AcDbCircle
 10
360.2235811344431
 20
433.890724193509
 30
0.0
 40
149.9999999999999
100
AcDbArc
 50
116.3688370333086
 51
123.6311629666927
  0
LINE
  5
A04
330
1F
100
AcDbEntity
  8
PEF-300A
  6
HIDDEN
100
AcDbLine
 10
285.1206954514724
 20
572.9727379914502
 30
0.0
 11
288.6206954514723
 21
566.9105601649587
 31
0.0
  0
LINE
  5
A05
330
1F
100
AcDbEntity
  8
PEF-300A
  6
HIDDEN
100
AcDbLine
 10
287.2857589609333
 20
574.2227379914501
 30
0.0
 11
283.0357589609336
 21
581.5839539236177
 31
0.0
  0
LINE
  5
A06
330
1F
100
AcDbEntity
  8
PEF-300A
  6
HIDDEN
100
AcDbLine
 10
275.1614033079513
 20
567.22273799145
 30
0.0
 11
287.2857589609333
 21
574.2227379914501
 31
0.0
  0
LINE
  5
A07
330
1F
100
AcDbEntity
  8
PEF-300A
  6
CONTINUOUS
100
AcDbLine
 10
294.2008224703946
 20
567.2454966554977
 30
0.0
 11
277.7463397984901
 21
557.7454966554978
 31
0.0
  0
LINE
  5
A08
330
1F
100
AcDbEntity
  8
PEF-300A
  6
CONTINUOUS
100
AcDbLine
 10
276.4963397984903
 20
559.9105601649588
 30
0.0
 11
292.9508224703946
 21
569.4105601649591
 31
0.0
  0
LINE
  5
A09
330
1F
100
AcDbEntity
  8
PEF-300A
  6
CONTINUOUS
100
AcDbLine
 10
294.200822470395
 20
567.2454966554977
 30
0.0
 11
285.2008224703946
 21
582.8339539236178
 31
0.0
  0
LINE
  5
A0A
330
1F
100
AcDbEntity
  8
PEF-300A
  6
CONTINUOUS
100
AcDbLine
 10
276.9963397984902
 20
559.0445347611744
 30
0.0
 11
293.4508224703946
 21
568.5445347611744
 31
0.0
  0
ARC
  5
A0B
330
1F
100
AcDbEntity
  8
PEF-300A
  6
HIDDEN
100
AcDbCircle
 10
360.2235811344431
 20
433.890724193509
 30
0.0
 40
160.0
100
AcDbArc
 50
116.5960610542858
 51
123.4039389457148
  0
ARC
  5
A0C
330
1F
100
AcDbEntity
  8
PEF-300A
  6
CONTINUOUS
100
AcDbCircle
 10
288.7641656742585
 20
573.6854019966671
 30
0.0
 40
3.000000000000001
100
AcDbArc
 50
117.0749406211559
 51
180.0
  0
LINE
  5
A0D
330
1F
100
AcDbEntity
  8
PEF-300A
  6
HIDDEN
100
AcDbLine
 10
277.3264668174125
 20
568.47273799145
 30
0.0
 11
280.8264668174126
 21
562.4105601649588
 31
0.0
  0
LINE
  5
A0E
330
1F
100
AcDbEntity
  8
PEF-300A
  6
HIDDEN
100
AcDbLine
 10
270.9114033079513
 20
574.5839539236177
 30
0.0
 11
275.1614033079513
 21
567.22273799145
 31
0.0
  0
LINE
  5
A0F
330
1F
100
AcDbEntity
  8
PEF-300A
  6
CONTINUOUS
100
AcDbLine
 10
268.7463397984901
 20
573.3339539236177
 30
0.0
 11
277.7463397984901
 21
557.7454966554978
 31
0.0
  0
LINE
  5
A10
330
1F
100
AcDbEntity
  8
PEF-300A
  6
CONTINUOUS
100
AcDbLine
 10
285.2008224703946
 20
582.8339539236178
 30
0.0
 11
268.7463397984901
 21
573.3339539236177
 31
0.0
  0
ARC
  5
A11
330
1F
100
AcDbEntity
  8
PEF-300A
  6
CONTINUOUS
100
AcDbCircle
 10
360.2235811344431
 20
433.890724193509
 30
0.0
 40
149.9999999999999
100
AcDbArc
 50
111.179852170768
 51
116.3688370333086
  0
LINE
  5
A12
330
1F
100
AcDbEntity
  8
PEF-300A
  6
CONTINUOUS
100
AcDbLine
 10
304.005774648084
 20
577.262821317957
 30
0.0
 11
306.698309313571
 21
572.5992144761939
 31
0.0
  0
ARC
  5
A13
330
1F
100
AcDbEntity
  8
PEF-300A
  6
CONTINUOUS
100
AcDbCircle
 10
332.2235811344431
 20
540.2674133692864
 30
0.0
 40
5.0
100
AcDbArc
 50
0.0
 51
104.7466528752441
  0
ARC
  5
A14
330
1F
100
AcDbEntity
  8
PEF-300A
  6
CONTINUOUS
100
AcDbCircle
 10
388.2235811344429
 20
540.2674133692868
 30
0.0
 40
4.999999999999955
100
AcDbArc
 50
75.2533471247558
 51
180.0
  0
CIRCLE
  5
A15
330
1F
100
AcDbEntity
  8
PEF-300A
  6
CONTINUOUS
100
AcDbCircle
 10
360.2235811344431
 20
586.3907241935086
 30
0.0
 40
2.0
  0
CIRCLE
  5
A16
330
1F
100
AcDbEntity
  8
PEF-300A
  6
CONTINUOUS
100
AcDbCircle
 10
360.2235811344431
 20
586.3907241935086
 30
0.0
 40
1.650000000000004
  0
ARC
  5
A17
330
1F
100
AcDbEntity
  8
PEF-300A
  6
CENTER2
100
AcDbCircle
 10
360.2235811344428
 20
433.890724193509
 30
0.0
 40
135.0
100
AcDbArc
 50
36.71821083297302
 51
56.52650109257461
  0
LINE
  5
A18
330
1F
100
AcDbEntity
  8
PEF-300A
  6
CONTINUOUS
100
AcDbLine
 10
457.6255758785958
 20
522.1003350681893
 30
0.0
 11
450.3757712930919
 21
524.0429143521586
 31
0.0
  0
LINE
  5
A19
330
1F
100
AcDbEntity
  8
PEF-300A
  6
CONTINUOUS
100
AcDbLine
 10
462.9328011801306
 20
527.4075603697241
 30
0.0
 11
457.6255758785958
 21
522.1003350681893
 31
0.0
  0
CIRCLE
  5
A1A
330
1F
100
AcDbEntity
  8
PEF-300A
  6
HIDDEN
100
AcDbCircle
 10
455.6829965946266
 20
529.3501396536933
 30
0.0
 40
15.0
  0
CIRCLE
  5
A1B
330
1F
100
AcDbEntity
  8
PEF-300A
  6
CONTINUOUS
100
AcDbCircle
 10
455.6829965946266
 20
529.3501396536933
 30
0.0
 40
11.0
  0
LINE
  5
A1C
330
1F
100
AcDbEntity
  8
PEF-300A
  6
CENTER2
100
AcDbLine
 10
437.9785093217081
 20
511.6456523807745
 30
0.0
 11
509.5380259951839
 21
583.205169054251
 31
0.0
  0
LINE
  5
A1D
330
1F
100
AcDbEntity
  8
PEF-300A
  6
HIDDEN
100
AcDbLine
 10
466.289598312425
 20
518.7435379358951
 30
0.0
 11
482.6840402985986
 21
536.8637106574558
 31
0.0
  0
LINE
  5
A1F
330
1F
100
AcDbEntity
  8
PEF-300A
  6
HIDDEN
100
AcDbLine
 10
518.2235811344432
 20
438.390724193509
 30
0.0
 11
511.2235811344428
 21
438.390724193509
 31
0.0
  0
LINE
  5
A20
330
1F
100
AcDbEntity
  8
PEF-300A
  6
HIDDEN
100
AcDbLine
 10
518.2235811344428
 20
429.390724193509
 30
0.0
 11
511.2235811344428
 21
429.390724193509
 31
0.0
  0
LINE
  5
A21
330
1F
100
AcDbEntity
  8
PEF-300A
  6
CONTINUOUS
100
AcDbLine
 10
508.7235811344428
 20
443.3907241935092
 30
0.0
 11
526.7235811344428
 21
443.3907241935092
 31
0.0
  0
LINE
  5
A22
330
1F
100
AcDbEntity
  8
PEF-300A
  6
CONTINUOUS
100
AcDbLine
 10
526.7235811344429
 20
424.3907241935088
 30
0.0
 11
508.7235811344428
 21
424.3907241935088
 31
0.0
  0
ARC
  5
A23
330
1F
100
AcDbEntity
  8
PEF-300A
  6
CONTINUOUS
100
AcDbCircle
 10
360.2235811344431
 20
433.890724193509
 30
0.0
 40
154.0
100
AcDbArc
 50
351.4107023760641
 51
8.589297623935857
  0
LINE
  5
A24
330
1F
100
AcDbEntity
  8
PEF-300A
  6
HIDDEN
100
AcDbLine
 10
514.1702383162553
 20
437.8907241935091
 30
0.0
 11
489.2235811344431
 21
437.890724193509
 31
0.0
  0
LINE
  5
A25
330
1F
100
AcDbEntity
  8
PEF-300A
  6
HIDDEN
100
AcDbLine
 10
514.1702383162553
 20
429.890724193509
 30
0.0
 11
489.2235811344431
 21
429.890724193509
 31
0.0
  0
LINE
  5
A26
330
1F
100
AcDbEntity
  8
PEF-300A
  6
HIDDEN
100
AcDbLine
 10
514.1872767410798
 20
437.1907241935091
 30
0.0
 11
486.2235811344429
 21
437.1907241935089
 31
0.0
  0
LINE
  5
A27
330
1F
100
AcDbEntity
  8
PEF-300A
  6
HIDDEN
100
AcDbLine
 10
514.1872767410798
 20
430.5907241935091
 30
0.0
 11
486.2235811344431
 21
430.5907241935091
 31
0.0
  0
ARC
  5
A28
330
1F
100
AcDbEntity
  8
PEF-300A
  6
PHANTOM2
100
AcDbCircle
 10
360.2235811344431
 20
433.890724193509
 30
0.0
 40
150.0
100
AcDbArc
 50
9.659072825322247
 51
28.91162985533759
  0
ARC
  5
A29
330
1F
100
AcDbEntity
  8
PEF-300A
  6
CONTINUOUS
100
AcDbCircle
 10
466.6002703102206
 20
461.8907241935088
 30
0.0
 40
5.0
100
AcDbArc
 50
270.0
 51
14.74665287524421
  0
ARC
  5
A2A
330
1F
100
AcDbEntity
  8
PEF-300A
  6
CONTINUOUS
100
AcDbCircle
 10
466.6002703102206
 20
405.8907241935092
 30
0.0
 40
4.99999999999999
100
AcDbArc
 50
345.2533471247558
 51
90.0
  0
ARC
  5
A2B
330
1F
100
AcDbEntity
  8
PEF-300A
  6
CONTINUOUS
100
AcDbCircle
 10
360.2235811344431
 20
433.890724193509
 30
0.0
 40
150.0
100
AcDbArc
 50
356.3688370333068
 51
3.631162966693003
  0
LINE
  5
A2C
330
1F
100
AcDbEntity
  8
PEF-300A
  6
CONTINUOUS
100
AcDbLine
 10
508.7235811344428
 20
443.390724193509
 30
0.0
 11
508.7235811344428
 21
424.3907241935088
 31
0.0
  0
LINE
  5
A2D
330
1F
100
AcDbEntity
  8
PEF-300A
  6
CONTINUOUS
100
AcDbLine
 10
511.2235811344429
 20
424.3907241935088
 30
0.0
 11
511.2235811344429
 21
443.3907241935091
 31
0.0
  0
LINE
  5
A2E
330
1F
100
AcDbEntity
  8
PEF-300A
  6
CONTINUOUS
100
AcDbLine
 10
510.2235811344428
 20
424.3907241935088
 30
0.0
 11
510.2235811344428
 21
443.390724193509
 31
0.0
  0
LINE
  5
A2F
330
1F
100
AcDbEntity
  8
PEF-300A
  6
HIDDEN
100
AcDbLine
 10
486.2235811344431
 20
430.5907241935091
 30
0.0
 11
484.3183252461171
 21
433.890724193509
 31
0.0
  0
LINE
  5
A30
330
1F
100
AcDbEntity
  8
PEF-300A
  6
HIDDEN
100
AcDbLine
 10
486.2235811344431
 20
430.5907241935091
 30
0.0
 11
486.2235811344429
 21
437.1907241935089
 31
0.0
  0
LINE
  5
A31
330
1F
100
AcDbEntity
  8
PEF-300A
  6
HIDDEN
100
AcDbLine
 10
489.2235811344431
 20
429.890724193509
 30
0.0
 11
489.2235811344431
 21
437.890724193509
 31
0.0
  0
LINE
  5
A32
330
1F
100
AcDbEntity
  8
PEF-300A
  6
HIDDEN
100
AcDbLine
 10
489.2235811344431
 20
429.890724193509
 30
0.0
 11
488.0111455691448
 21
430.5907241935091
 31
0.0
  0
ARC
  5
A33
330
1F
100
AcDbEntity
  8
PEF-300A
  6
CONTINUOUS
100
AcDbCircle
 10
360.2235811344431
 20
433.890724193509
 30
0.0
 40
150.0
100
AcDbArc
 50
351.1798521707682
 51
356.3688370333068
  0
LINE
  5
A34
330
1F
100
AcDbEntity
  8
PEF-300A
  6
CONTINUOUS
100
AcDbLine
 10
512.4963626812448
 20
410.8907241935097
 30
0.0
 11
507.1112933502712
 21
410.890724193509
 31
0.0
  0
ARC
  5
A35
330
1F
100
AcDbEntity
  8
PEF-300A
  6
CONTINUOUS
100
AcDbCircle
 10
507.1112933502712
 20
408.8907241935094
 30
0.0
 40
1.999999999999629
100
AcDbArc
 50
90.0
 51
170.3409271746873
  0
LINE
  5
A36
330
1F
100
AcDbEntity
  8
PEF-300A
  6
HIDDEN
100
AcDbLine
 10
489.2235811344431
 20
437.890724193509
 30
0.0
 11
488.0111455691449
 21
437.1907241935091
 31
0.0
  0
LINE
  5
A37
330
1F
100
AcDbEntity
  8
PEF-300A
  6
HIDDEN
100
AcDbLine
 10
486.2235811344429
 20
437.1907241935089
 30
0.0
 11
484.3183252461171
 21
433.890724193509
 31
0.0
  0
ARC
  5
A38
330
1F
100
AcDbEntity
  8
PEF-300A
  6
CONTINUOUS
100
AcDbCircle
 10
360.2235811344431
 20
433.890724193509
 30
0.0
 40
150.0
100
AcDbArc
 50
3.631162966693003
 51
8.820147829231805
  0
LINE
  5
A39
330
1F
100
AcDbEntity
  8
PEF-300A
  6
CONTINUOUS
100
AcDbLine
 10
512.4963626812448
 20
456.890724193509
 30
0.0
 11
507.111293350271
 21
456.8907241935091
 31
0.0
  0
ARC
  5
A3A
330
1F
100
AcDbEntity
  8
PEF-300A
  6
CONTINUOUS
100
AcDbCircle
 10
507.1112933502712
 20
458.8907241935092
 30
0.0
 40
2.000000000000011
100
AcDbArc
 50
189.6590728253222
 51
270.0
  0
LINE
  5
A3E
330
1F
100
AcDbEntity
  8
PEF-300A
  6
CONTINUOUS
100
AcDbLine
 10
486.9705566814014
 20
508.3501398142465
 30
0.0
 11
500.0182589376009
 21
508.3501396536934
 31
0.0
  0
ARC
  5
A3F
330
1F
100
AcDbEntity
  8
PEF-300A
  6
CONTINUOUS
100
AcDbCircle
 10
500.0182589376009
 20
505.3501396536934
 30
0.0
 40
2.999999999999995
100
AcDbArc
 50
27.07494062115591
 51
90.0
  0
LINE
  5
A40
330
1F
100
AcDbEntity
  8
PEF-300A
  6
HIDDEN
100
AcDbLine
 10
518.2235811344432
 20
426.890724193509
 30
0.0
 11
518.2235811344432
 21
440.8907241935088
 31
0.0
  0
LINE
  5
A41
330
1F
100
AcDbEntity
  8
PEF-300A
  6
CONTINUOUS
100
AcDbLine
 10
526.7235811344428
 20
443.3907241935092
 30
0.0
 11
526.7235811344429
 21
424.3907241935088
 31
0.0
  0
ARC
  5
A42
330
1F
100
AcDbEntity
  8
PEF-300A
  6
HIDDEN
100
AcDbCircle
 10
360.2235811344426
 20
433.8907241935086
 30
0.0
 40
160.0
100
AcDbArc
 50
356.5960610542849
 51
3.403938945715047
  0
LINE
  5
A43
330
1F
100
AcDbEntity
  8
PEF-300A
  6
HIDDEN
100
AcDbLine
 10
526.7235811344429
 20
426.890724193509
 30
0.0
 11
518.2235811344432
 21
426.890724193509
 31
0.0
  0
LINE
  5
A44
330
1F
100
AcDbEntity
  8
PEF-300A
  6
HIDDEN
100
AcDbLine
 10
518.2235811344432
 20
440.8907241935088
 30
0.0
 11
526.7235811344428
 21
440.8907241935091
 31
0.0
  0
ARC
  5
A4B
330
1F
100
AcDbEntity
  8
PEF-300A
  6
CONTINUOUS
100
AcDbCircle
 10
498.109403465819
 20
571.7765465248862
 30
0.0
 40
11.99999999999995
100
AcDbArc
 50
315.0
 51
135.0
  0
LINE
  5
A4D
330
1F
100
AcDbEntity
  8
PEF-300A
  6
CONTINUOUS
100
AcDbLine
 10
463.1965675983889
 20
556.3511833576654
 30
0.0
 11
489.6241220915808
 21
580.261827899125
 31
0.0
  0
LINE
  5
A4E
330
1F
100
AcDbEntity
  8
PEF-300A
  6
HIDDEN
100
AcDbLine
 10
445.0763948768282
 20
539.9567413714914
 30
0.0
 11
463.1965675983889
 21
556.3511833576654
 31
0.0
  0
CIRCLE
  5
A50
330
1F
100
AcDbEntity
  8
PEF-300A
  6
CONTINUOUS
100
AcDbCircle
 10
455.6829965946266
 20
529.3501396536933
 30
0.0
 40
4.0
  0
CIRCLE
  5
A51
330
1F
100
AcDbEntity
  8
PEF-300A
  6
CONTINUOUS
100
AcDbCircle
 10
455.6829965946266
 20
529.3501396536933
 30
0.0
 40
6.25
  0
LINE
  5
A52
330
1F
100
AcDbEntity
  8
PEF-300A
  6
CONTINUOUS
100
AcDbLine
 10
448.4331920091226
 20
531.2927189376623
 30
0.0
 11
453.7404173106573
 21
536.5999442391973
 31
0.0
  0
LINE
  5
A53
330
1F
100
AcDbEntity
  8
PEF-300A
  6
CONTINUOUS
100
AcDbLine
 10
450.3757712930919
 20
524.0429143521586
 30
0.0
 11
448.4331920091226
 21
531.2927189376623
 31
0.0
  0
LINE
  5
A54
330
1F
100
AcDbEntity
  8
PEF-300A
  6
CONTINUOUS
100
AcDbLine
 10
460.9902218961614
 20
534.6573649552276
 30
0.0
 11
462.9328011801306
 21
527.4075603697241
 31
0.0
  0
CIRCLE
  5
A55
330
1F
100
AcDbEntity
  8
PEF-300A
  6
CONTINUOUS
100
AcDbCircle
 10
455.6829965946266
 20
529.3501396536933
 30
0.0
 40
3.299999999999997
  0
LINE
  5
A56
330
1F
100
AcDbEntity
  8
PEF-300A
  6
CONTINUOUS
100
AcDbLine
 10
453.7404173106573
 20
536.5999442391973
 30
0.0
 11
460.9902218961614
 21
534.6573649552276
 31
0.0
  0
LINE
  5
A57
330
1F
100
AcDbEntity
  8
PEF-300A
  6
CONTINUOUS
100
AcDbLine
 10
434.6829971721237
 20
560.6376993235237
 30
0.0
 11
434.6829965946263
 21
573.6854019966674
 31
0.0
  0
ARC
  5
A58
330
1F
100
AcDbEntity
  8
PEF-300A
  6
CONTINUOUS
100
AcDbCircle
 10
431.6829965946263
 20
573.6854019966678
 30
0.0
 40
3.0
100
AcDbArc
 50
0.0
 51
62.92505937884408
  0
LINE
  5
A5A
330
1F
100
AcDbEntity
  8
PEF-300A
  6
CENTER2
100
AcDbLine
 10
502.2026508551065
 20
546.470095700003
 30
0.0
 11
473.9183796076443
 21
574.7543669474647
 31
0.0
  0
LINE
  5
A5B
330
1F
100
AcDbEntity
  8
PEF-300A
  6
CONTINUOUS
100
AcDbLine
 10
479.3710737643758
 20
548.0884693551367
 30
0.0
 11
500.5842771999723
 21
569.3016727907332
 31
0.0
  0
LINE
  5
A5C
330
1F
100
AcDbEntity
  8
PEF-300A
  6
CONTINUOUS
100
AcDbLine
 10
482.6840402985986
 20
536.8637106574558
 30
0.0
 11
506.594684840058
 21
563.2912651506479
 31
0.0
  0
ARC
  5
A5D
330
1F
100
AcDbEntity
  8
PEF-300A
  6
CONTINUOUS
100
AcDbCircle
 10
476.896200030223
 20
550.5633430892896
 30
0.0
 40
3.499999999999998
100
AcDbArc
 50
135.0
 51
315.0
  0
LINE
  5
A5E
330
1F
100
AcDbEntity
  8
PEF-300A
  6
CONTINUOUS
100
AcDbLine
 10
474.42132629607
 20
553.0382168234426
 30
0.0
 11
495.6345297316663
 21
574.2514202590394
 31
0.0
  0
ARC
  5
A5F
330
1F
100
AcDbEntity
  8
PEF-300A
  6
CONTINUOUS
100
AcDbCircle
 10
498.109403465819
 20
571.7765465248862
 30
0.0
 40
3.499999999999968
100
AcDbArc
 50
315.0
 51
135.0
  0
LINE
  5
A73
330
1F
100
AcDbEntity
  8
PEF-300A
  6
CONTINUOUS
100
AcDbLine
 10
959.2132485280496
 20
406.7413627109527
 30
0.0
 11
966.7640397101976
 21
390.5486387655142
 31
0.0
  0
LINE
  5
A74
330
1F
100
AcDbEntity
  8
PEF-300A
  6
CONTINUOUS
100
AcDbLine
 10
954.6817095928663
 20
404.6282714022492
 30
0.0
 11
962.2325007750143
 21
388.4355474568105
 31
0.0
  0
LINE
  5
A75
330
1F
100
AcDbEntity
  8
PEF-300A
  6
CONTINUOUS
100
AcDbLine
 10
755.1913987956647
 20
414.5573908601766
 30
0.0
 11
755.1913987956647
 21
372.2240575268433
 31
0.0
  0
LINE
  5
A79
330
1F
100
AcDbEntity
  8
PEF-300A
  6
CONTINUOUS
100
AcDbLine
 10
890.2387946451966
 20
275.9412973981778
 30
0.0
 11
890.2387946451959
 21
591.9412973981782
 31
0.0
  0
LINE
  5
A7A
330
1F
100
AcDbEntity
  8
PEF-300A
  6
CONTINUOUS
100
AcDbLine
 10
934.2387946451966
 20
276.941297398178
 30
0.0
 11
934.238794645196
 21
590.9412973981781
 31
0.0
  0
LINE
  5
A7B
330
1F
100
AcDbEntity
  8
PEF-300A
  6
CONTINUOUS
100
AcDbLine
 10
748.6913987956647
 20
293.89072419351
 30
0.0
 11
748.6913987956642
 21
412.8907241935098
 31
0.0
  0
LINE
  5
A7C
330
1F
100
AcDbEntity
  8
PEF-300A
  6
CONTINUOUS
100
AcDbLine
 10
747.1913987956647
 20
290.6912476855671
 30
0.0
 11
747.1913987956638
 21
587.8907241935096
 31
0.0
  0
LINE
  5
A7D
330
1F
100
AcDbEntity
  8
PEF-300A
  6
CONTINUOUS
100
AcDbLine
 10
728.191398795665
 20
289.1123003171458
 30
0.0
 11
728.1913987956637
 21
582.8907241935096
 31
0.0
  0
LINE
  5
A80
330
1F
100
AcDbEntity
  8
PEF-300A
  6
CENTER2
100
AcDbLine
 10
908.1410048678799
 20
338.4818819379951
 30
0.0
 11
956.14100486788
 21
338.481881937995
 31
0.0
  0
LINE
  5
A81
330
1F
100
AcDbEntity
  8
PEF-300A
  6
CONTINUOUS
100
AcDbLine
 10
938.0387946451968
 20
325.9818819379951
 30
0.0
 11
948.5387946451963
 21
325.981881937995
 31
0.0
  0
LINE
  5
A82
330
1F
100
AcDbEntity
  8
PEF-300A
  6
CONTINUOUS
100
AcDbLine
 10
938.0387946451962
 20
350.9818819379951
 30
0.0
 11
948.5387946451963
 21
350.9818819379951
 31
0.0
  0
LINE
  5
A91
330
1F
100
AcDbEntity
  8
PEF-300A
  6
CONTINUOUS
100
AcDbLine
 10
890.1913987956643
 20
288.8907241935056
 30
0.0
 11
755.1913987956642
 21
288.8907241935098
 31
0.0
  0
LINE
  5
A92
330
1F
100
AcDbEntity
  8
PEF-300A
  6
CONTINUOUS
100
AcDbLine
 10
755.1913987956642
 20
287.6907241935096
 30
0.0
 11
890.1913987956643
 21
287.6907241935123
 31
0.0
  0
LINE
  5
A99
330
1F
100
AcDbEntity
  8
PEF-300A
  6
PHANTOM2
100
AcDbLine
 10
732.6913987956645
 20
283.8907241935098
 30
0.0
 11
732.6913987956646
 21
279.8907241935094
 31
0.0
  0
LINE
  5
A9A
330
1F
100
AcDbEntity
  8
PEF-300A
  6
CENTER2
100
AcDbLine
 10
737.6913987956648
 20
276.5562067580158
 30
0.0
 11
737.6913987956645
 21
291.9669744425543
 31
0.0
  0
LINE
  5
A9B
330
1F
100
AcDbEntity
  8
PEF-300A
  6
PHANTOM2
100
AcDbLine
 10
747.1913987956647
 20
290.6912476855671
 30
0.0
 11
747.1913987956647
 21
279.8907241935094
 31
0.0
  0
LINE
  5
A9E
330
1F
100
AcDbEntity
  8
PEF-300A
  6
PHANTOM2
100
AcDbLine
 10
732.6913987956646
 20
279.8907241935094
 30
0.0
 11
747.1913987956647
 21
279.8907241935094
 31
0.0
  0
LINE
  5
AA2
330
1F
100
AcDbEntity
  8
PEF-300A
  6
CONTINUOUS
100
AcDbLine
 10
752.9913987956646
 20
361.4412973981781
 30
0.0
 11
752.9913987956646
 21
296.4412973981781
 31
0.0
  0
LINE
  5
AA4
330
1F
100
AcDbEntity
  8
PEF-300A
  6
CONTINUOUS
100
AcDbLine
 10
752.9913987956648
 20
293.89072419351
 30
0.0
 11
752.9913987956644
 21
372.7881600909459
 31
0.0
  0
LINE
  5
AA6
330
1F
100
AcDbEntity
  8
PEF-300A
  6
CONTINUOUS
100
AcDbLine
 10
730.4007683647009
 20
287.1232894113031
 30
0.0
 11
745.4007683647009
 21
288.7022367797242
 31
0.0
  0
LINE
  5
AA8
330
1F
100
AcDbEntity
  8
PEF-300A
  6
PHANTOM2
100
AcDbLine
 10
729.1913987956648
 20
283.89072419351
 30
0.0
 11
732.6913987956645
 21
283.8907241935098
 31
0.0
  0
LINE
  5
AA9
330
1F
100
AcDbEntity
  8
PEF-300A
  6
PHANTOM2
100
AcDbLine
 10
728.1913987956648
 20
284.8907241935101
 30
0.0
 11
729.1913987956648
 21
283.89072419351
 31
0.0
  0
LINE
  5
AAA
330
1F
100
AcDbEntity
  8
PEF-300A
  6
PHANTOM2
100
AcDbLine
 10
728.191398795665
 20
289.1123003171458
 30
0.0
 11
728.1913987956648
 21
284.8907241935101
 31
0.0
  0
ARC
  5
AAB
330
1F
100
AcDbEntity
  8
PEF-300A
  6
CONTINUOUS
100
AcDbCircle
 10
730.191398795665
 20
289.1123003171458
 30
0.0
 40
2.0
100
AcDbArc
 50
180.0
 51
276.0090059574911
  0
LINE
  5
AB8
330
1F
100
AcDbEntity
  8
PEF-300A
  6
CONTINUOUS
100
AcDbLine
 10
747.1913987956647
 20
293.89072419351
 30
0.0
 11
755.1913987956645
 21
293.8907241935101
 31
0.0
  0
ARC
  5
AB9
330
1F
100
AcDbEntity
  8
PEF-300A
  6
CONTINUOUS
100
AcDbCircle
 10
745.1913987956648
 20
290.691247685567
 30
0.0
 40
1.99999999999998
100
AcDbArc
 50
276.009005957494
 51
0.0
  0
LINE
  5
ACE
330
1F
100
AcDbEntity
  8
PEF-300A
  6
CONTINUOUS
100
AcDbLine
 10
755.1913987956647
 20
372.2240575268433
 30
0.0
 11
748.6913987956645
 21
373.8907241935099
 31
0.0
  0
LINE
  5
AEC
330
1F
100
AcDbEntity
  8
PEF-300A
  6
CONTINUOUS
100
AcDbLine
 10
892.2387946451966
 20
273.9412973981779
 30
0.0
 11
931.2387946451966
 21
273.9412973981779
 31
0.0
  0
LINE
  5
AED
330
1F
100
AcDbEntity
  8
PEF-300A
  6
CONTINUOUS
100
AcDbLine
 10
892.2387946451966
 20
273.9412973981779
 30
0.0
 11
890.2387946451966
 21
275.9412973981778
 31
0.0
  0
LINE
  5
AEE
330
1F
100
AcDbEntity
  8
PEF-300A
  6
CONTINUOUS
100
AcDbLine
 10
931.2387946451966
 20
273.9412973981779
 30
0.0
 11
934.2387946451966
 21
276.941297398178
 31
0.0
  0
ARC
  5
B15
330
1F
100
AcDbEntity
  8
PEF-300A
  6
CONTINUOUS
100
AcDbCircle
 10
921.915325101739
 20
338.481881937993
 30
0.0
 40
10.07653045654292
100
AcDbArc
 50
158.1346069180964
 51
201.8653930819035
  0
LINE
  5
B16
330
1F
100
AcDbEntity
  8
PEF-300A
  6
CONTINUOUS
100
AcDbLine
 10
911.838794645196
 20
332.231881937993
 30
0.0
 11
911.838794645196
 21
344.731881937993
 31
0.0
  0
LINE
  5
B17
330
1F
100
AcDbEntity
  8
PEF-300A
  6
CONTINUOUS
100
AcDbLine
 10
920.2387946451963
 20
327.4818819379928
 30
0.0
 11
920.2387946451963
 21
349.481881937993
 31
0.0
  0
LINE
  5
B18
330
1F
100
AcDbEntity
  8
PEF-300A
  6
CONTINUOUS
100
AcDbLine
 10
918.3387946451961
 20
349.481881937993
 30
0.0
 11
918.3387946451961
 21
327.481881937993
 31
0.0
  0
LINE
  5
B19
330
1F
100
AcDbEntity
  8
PEF-300A
  6
CONTINUOUS
100
AcDbLine
 10
910.5387946451962
 20
342.481881937993
 30
0.0
 11
910.5387946451962
 21
334.4818819379927
 31
0.0
  0
LINE
  5
B1A
330
1F
100
AcDbEntity
  8
PEF-300A
  6
CONTINUOUS
100
AcDbLine
 10
936.5387946451964
 20
323.4818819379951
 30
0.0
 11
936.5387946451962
 21
353.4818819379951
 31
0.0
  0
LINE
  5
B1B
330
1F
100
AcDbEntity
  8
PEF-300A
  6
CONTINUOUS
100
AcDbLine
 10
934.2387946451966
 20
353.4818819379951
 30
0.0
 11
934.2387946451966
 21
323.4818819379951
 31
0.0
  0
LINE
  5
B1C
330
1F
100
AcDbEntity
  8
PEF-300A
  6
CONTINUOUS
100
AcDbLine
 10
920.2387946451962
 20
354.6719068137671
 30
0.0
 11
920.2387946451963
 21
294.8900263070771
 31
0.0
  0
LINE
  5
B1F
330
1F
100
AcDbEntity
  8
PEF-300A
  6
CONTINUOUS
100
AcDbLine
 10
918.4378020832379
 20
292.8999519266572
 30
0.0
 11
890.2387946451966
 21
290.0800511828531
 31
0.0
  0
LINE
  5
B20
330
1F
100
AcDbEntity
  8
PEF-300A
  6
CONTINUOUS
100
AcDbLine
 10
890.2387946451964
 20
288.9412973981778
 30
0.0
 11
867.2387946451966
 21
288.941297398178
 31
0.0
  0
ARC
  5
B23
330
1F
100
AcDbEntity
  8
PEF-300A
  6
CONTINUOUS
100
AcDbCircle
 10
918.2387946451964
 20
294.8900263070771
 30
0.0
 40
2.000000000000015
100
AcDbArc
 50
275.7105931374973
 51
0.0
  0
LINE
  5
B24
330
1F
100
AcDbEntity
  8
PEF-300A
  6
CONTINUOUS
100
AcDbLine
 10
918.3387946451961
 20
334.729106937993
 30
0.0
 11
912.5636864376961
 21
334.7291069379931
 31
0.0
  0
LINE
  5
B25
330
1F
100
AcDbEntity
  8
PEF-300A
  6
CONTINUOUS
100
AcDbLine
 10
918.3387946451961
 20
330.9763319379931
 30
0.0
 11
912.5636864376961
 21
330.9763319379931
 31
0.0
  0
ARC
  5
B26
330
1F
100
AcDbEntity
  8
PEF-300A
  6
CONTINUOUS
100
AcDbCircle
 10
915.8136863077938
 20
332.852719437993
 30
0.0
 40
3.752776145935127
100
AcDbArc
 50
150.000010575929
 51
209.9999894240708
  0
LINE
  5
B27
330
1F
100
AcDbEntity
  8
PEF-300A
  6
CONTINUOUS
100
AcDbLine
 10
912.5636864376961
 20
330.9763319379931
 30
0.0
 11
911.838794645196
 21
332.231881937993
 31
0.0
  0
LINE
  5
B28
330
1F
100
AcDbEntity
  8
PEF-300A
  6
CONTINUOUS
100
AcDbLine
 10
910.5387946451962
 20
335.1818819379931
 30
0.0
 11
911.8387946451962
 21
335.1818819379928
 31
0.0
  0
LINE
  5
B29
330
1F
100
AcDbEntity
  8
PEF-300A
  6
CONTINUOUS
100
AcDbLine
 10
910.5387946451962
 20
334.4818819379927
 30
0.0
 11
911.8387946451964
 21
334.4818819379927
 31
0.0
  0
LINE
  5
B2A
330
1F
100
AcDbEntity
  8
PEF-300A
  6
CONTINUOUS
100
AcDbLine
 10
918.3387946451961
 20
327.481881937993
 30
0.0
 11
920.2387946451963
 21
327.4818819379928
 31
0.0
  0
ARC
  5
B2B
330
1F
100
AcDbEntity
  8
PEF-300A
  6
CONTINUOUS
100
AcDbCircle
 10
938.0387946451964
 20
324.4818819379951
 30
0.0
 40
1.5
100
AcDbArc
 50
90.0
 51
180.0
  0
LINE
  5
B2C
330
1F
100
AcDbEntity
  8
PEF-300A
  6
CONTINUOUS
100
AcDbLine
 10
934.2387946451966
 20
323.4818819379951
 30
0.0
 11
936.5387946451964
 21
323.4818819379951
 31
0.0
  0
LINE
  5
B2E
330
1F
100
AcDbEntity
  8
PEF-300A
  6
HIDDEN
100
AcDbLine
 10
934.2387946451966
 20
323.9412973981781
 30
0.0
 11
933.2387946451966
 21
323.9412973981781
 31
0.0
  0
LINE
  5
B2F
330
1F
100
AcDbEntity
  8
PEF-300A
  6
CONTINUOUS
100
AcDbLine
 10
890.2387946451964
 20
359.4818819379916
 30
0.0
 11
918.4378020832383
 21
356.6619811941873
 31
0.0
  0
ARC
  5
B33
330
1F
100
AcDbEntity
  8
PEF-300A
  6
CONTINUOUS
100
AcDbCircle
 10
918.2387946451964
 20
354.6719068137674
 30
0.0
 40
2.0
100
AcDbArc
 50
0.0
 51
84.28940686250269
  0
LINE
  5
B34
330
1F
100
AcDbEntity
  8
PEF-300A
  6
CONTINUOUS
100
AcDbLine
 10
918.3387946451961
 20
342.2346569379928
 30
0.0
 11
912.5636864376961
 21
342.2346569379931
 31
0.0
  0
LINE
  5
B35
330
1F
100
AcDbEntity
  8
PEF-300A
  6
CONTINUOUS
100
AcDbLine
 10
918.3387946451961
 20
345.9874319379931
 30
0.0
 11
912.5636864376962
 21
345.987431937993
 31
0.0
  0
ARC
  5
B36
330
1F
100
AcDbEntity
  8
PEF-300A
  6
CONTINUOUS
100
AcDbCircle
 10
915.8136863077938
 20
344.111044437993
 30
0.0
 40
3.752776145935121
100
AcDbArc
 50
150.000010575929
 51
209.9999894240708
  0
LINE
  5
B37
330
1F
100
AcDbEntity
  8
PEF-300A
  6
CONTINUOUS
100
AcDbLine
 10
912.5636864376962
 20
345.987431937993
 30
0.0
 11
911.838794645196
 21
344.731881937993
 31
0.0
  0
LINE
  5
B38
330
1F
100
AcDbEntity
  8
PEF-300A
  6
CONTINUOUS
100
AcDbLine
 10
910.5387946451962
 20
341.7818819379931
 30
0.0
 11
911.838794645196
 21
341.781881937993
 31
0.0
  0
LINE
  5
B39
330
1F
100
AcDbEntity
  8
PEF-300A
  6
CONTINUOUS
100
AcDbLine
 10
911.8387946451962
 20
342.481881937993
 30
0.0
 11
910.5387946451962
 21
342.481881937993
 31
0.0
  0
LINE
  5
B3A
330
1F
100
AcDbEntity
  8
PEF-300A
  6
CONTINUOUS
100
AcDbLine
 10
920.2387946451963
 20
349.481881937993
 30
0.0
 11
918.3387946451961
 21
349.481881937993
 31
0.0
  0
ARC
  5
B3B
330
1F
100
AcDbEntity
  8
PEF-300A
  6
CONTINUOUS
100
AcDbCircle
 10
938.0387946451961
 20
352.4818819379951
 30
0.0
 40
1.5
100
AcDbArc
 50
180.0
 51
270.0
  0
LINE
  5
B3C
330
1F
100
AcDbEntity
  8
PEF-300A
  6
CONTINUOUS
100
AcDbLine
 10
936.5387946451962
 20
353.4818819379951
 30
0.0
 11
934.2387946451966
 21
353.4818819379951
 31
0.0
  0
LINE
  5
B3D
330
1F
100
AcDbEntity
  8
PEF-300A
  6
CONTINUOUS
100
AcDbLine
 10
934.2387946451962
 20
381.7156790337067
 30
0.0
 11
934.2387946451962
 21
381.5957347871015
 31
0.0
  0
LINE
  5
B44
330
1F
100
AcDbEntity
  8
PEF-300A
  6
CONTINUOUS
100
AcDbLine
 10
953.2387946451967
 20
284.0554750668021
 30
0.0
 11
953.2387946451963
 21
353.4818819379951
 31
0.0
  0
LINE
  5
B45
330
1F
100
AcDbEntity
  8
PEF-300A
  6
CONTINUOUS
100
AcDbLine
 10
950.0387946451963
 20
353.481881937995
 30
0.0
 11
950.0387946451967
 21
284.0554750668021
 31
0.0
  0
LINE
  5
B46
330
1F
100
AcDbEntity
  8
PEF-300A
  6
HIDDEN
100
AcDbLine
 10
950.0387946451963
 20
292.5554750668021
 30
0.0
 11
953.2387946451967
 21
292.5554750668018
 31
0.0
  0
LINE
  5
B47
330
1F
100
AcDbEntity
  8
PEF-300A
  6
CONTINUOUS
100
AcDbLine
 10
950.0387946451967
 20
284.0554750668021
 30
0.0
 11
953.2387946451967
 21
284.0554750668021
 31
0.0
  0
LINE
  5
B48
330
1F
100
AcDbEntity
  8
PEF-300A
  6
CENTER2
100
AcDbLine
 10
948.1410048678803
 20
306.6620767846
 30
0.0
 11
956.1410048678803
 21
306.6620767846
 31
0.0
  0
LINE
  5
B49
330
1F
100
AcDbEntity
  8
PEF-300A
  6
HIDDEN
100
AcDbLine
 10
950.0387946451963
 20
320.7686785023986
 30
0.0
 11
953.2387946451963
 21
320.7686785023983
 31
0.0
  0
ARC
  5
B4A
330
1F
100
AcDbEntity
  8
PEF-300A
  6
CONTINUOUS
100
AcDbCircle
 10
948.5387946451966
 20
324.4818819379951
 30
0.0
 40
1.5
100
AcDbArc
 50
0.0
 51
90.0
  0
LINE
  5
B4B
330
1F
100
AcDbEntity
  8
PEF-300A
  6
CONTINUOUS
100
AcDbLine
 10
988.6214679380909
 20
368.137137291767
 30
0.0
 11
992.032806370388
 21
364.2114577552231
 31
0.0
  0
LINE
  5
B4C
330
1F
100
AcDbEntity
  8
PEF-300A
  6
CONTINUOUS
100
AcDbLine
 10
987.8473809965923
 20
367.1984653615731
 30
0.0
 11
991.1270174832328
 21
363.4243449984296
 31
0.0
  0
LINE
  5
B4D
330
1F
100
AcDbEntity
  8
PEF-300A
  6
CONTINUOUS
100
AcDbLine
 10
980.1376968494805
 20
368.4477733107052
 30
0.0
 11
984.6666412852524
 21
372.3833370946738
 31
0.0
  0
LINE
  5
B4E
330
1F
100
AcDbEntity
  8
PEF-300A
  6
CONTINUOUS
100
AcDbLine
 10
973.250460227535
 20
376.3734260733066
 30
0.0
 11
980.1376968494805
 21
368.4477733107052
 31
0.0
  0
LINE
  5
B4F
330
1F
100
AcDbEntity
  8
PEF-300A
  6
CONTINUOUS
100
AcDbLine
 10
964.6403587039415
 20
363.0449281626322
 30
0.0
 11
962.9959868126254
 21
373.4153688997972
 31
0.0
  0
LINE
  5
B50
330
1F
100
AcDbEntity
  8
PEF-300A
  6
CONTINUOUS
100
AcDbLine
 10
968.9219529481484
 20
374.3550099805493
 30
0.0
 11
970.5663248394644
 21
363.9845692433845
 31
0.0
  0
ARC
  5
B51
330
1F
100
AcDbEntity
  8
PEF-300A
  6
CONTINUOUS
100
AcDbCircle
 10
968.5429828524544
 20
357.5887825674856
 30
0.0
 40
2.000000000000045
100
AcDbArc
 50
9.009999999999745
 51
189.0099999999995
  0
LINE
  5
B52
330
1F
100
AcDbEntity
  8
PEF-300A
  6
CONTINUOUS
100
AcDbLine
 10
970.5663248394644
 20
363.9845692433845
 30
0.0
 11
964.6403587039415
 21
363.0449281626322
 31
0.0
  0
LINE
  5
B53
330
1F
100
AcDbEntity
  8
PEF-300A
  6
CONTINUOUS
100
AcDbLine
 10
965.3510228964288
 20
357.285950560165
 30
0.0
 11
966.1655018141358
 21
352.1493355448153
 31
0.0
  0
LINE
  5
B54
330
1F
100
AcDbEntity
  8
PEF-300A
  6
CONTINUOUS
100
AcDbLine
 10
966.5676608072807
 20
357.2755688739015
 30
0.0
 11
967.3506950412404
 21
352.3372637609658
 31
0.0
  0
ARC
  5
B55
330
1F
100
AcDbEntity
  8
PEF-300A
  6
CONTINUOUS
100
AcDbCircle
 10
948.5387946451963
 20
352.4818819379951
 30
0.0
 40
1.5
100
AcDbArc
 50
270.0
 51
0.0
  0
LINE
  5
B56
330
1F
100
AcDbEntity
  8
PEF-300A
  6
CONTINUOUS
100
AcDbLine
 10
953.2387946451963
 20
353.4818819379951
 30
0.0
 11
950.0387946451963
 21
353.481881937995
 31
0.0
  0
LINE
  5
B57
330
1F
100
AcDbEntity
  8
PEF-300A
  6
CONTINUOUS
100
AcDbLine
 10
967.3506950412404
 20
352.3372637609656
 30
0.0
 11
966.1655018141358
 21
352.1493355448153
 31
0.0
  0
LINE
  5
B58
330
1F
100
AcDbEntity
  8
PEF-300A
  6
CONTINUOUS
100
AcDbLine
 10
965.2359032456523
 20
360.8905151517773
 30
0.0
 11
965.5420963988195
 21
363.1879107181841
 31
0.0
  0
LINE
  5
B59
330
1F
100
AcDbEntity
  8
PEF-300A
  6
CONTINUOUS
100
AcDbLine
 10
965.3510228964288
 20
357.285950560165
 30
0.0
 11
965.2359032456523
 21
360.8905151517773
 31
0.0
  0
LINE
  5
B5A
330
1F
100
AcDbEntity
  8
PEF-300A
  6
CONTINUOUS
100
AcDbLine
 10
971.6720534409867
 20
358.2882343796323
 30
0.0
 11
972.4865323586938
 21
353.1516193642842
 31
0.0
  0
LINE
  5
B5B
330
1F
100
AcDbEntity
  8
PEF-300A
  6
CONTINUOUS
100
AcDbLine
 10
971.3013391315891
 20
352.9636911481338
 30
0.0
 11
970.5183048976293
 21
357.9019962610696
 31
0.0
  0
LINE
  5
B5C
330
1F
100
AcDbEntity
  8
PEF-300A
  6
CONTINUOUS
100
AcDbLine
 10
972.4865323586938
 20
353.1516193642842
 30
0.0
 11
971.3013391315891
 21
352.9636911481338
 31
0.0
  0
LINE
  5
B5D
330
1F
100
AcDbEntity
  8
PEF-300A
  6
CONTINUOUS
100
AcDbLine
 10
971.6720534409867
 20
358.2882343796323
 30
0.0
 11
970.6664580142287
 21
361.7516021433509
 31
0.0
  0
LINE
  5
B5E
330
1F
100
AcDbEntity
  8
PEF-300A
  6
CONTINUOUS
100
AcDbLine
 10
970.6664580142287
 20
361.7516021433509
 30
0.0
 11
969.6645871445856
 21
363.8415866878327
 31
0.0
  0
LINE
  5
B5F
330
1F
100
AcDbEntity
  8
PEF-300A
  6
CONTINUOUS
100
AcDbLine
 10
985.9342087479731
 20
370.5422935183412
 30
0.0
 11
983.9774844756536
 21
371.7844733594712
 31
0.0
  0
LINE
  5
B60
330
1F
100
AcDbEntity
  8
PEF-300A
  6
CONTINUOUS
100
AcDbLine
 10
988.6214679380909
 20
368.137137291767
 30
0.0
 11
985.9342087479731
 21
370.5422935183412
 31
0.0
  0
LINE
  5
B61
330
1F
100
AcDbEntity
  8
PEF-300A
  6
CONTINUOUS
100
AcDbLine
 10
983.7905938732678
 20
363.9392025888656
 30
0.0
 11
981.7838845240711
 21
366.9357432638656
 31
0.0
  0
LINE
  5
B62
330
1F
100
AcDbEntity
  8
PEF-300A
  6
CONTINUOUS
100
AcDbLine
 10
981.7838845240711
 20
366.9357432638656
 30
0.0
 11
980.8268536590786
 21
369.0466370459079
 31
0.0
  0
LINE
  5
B63
330
1F
100
AcDbEntity
  8
PEF-300A
  6
CONTINUOUS
100
AcDbLine
 10
983.7905938732678
 20
363.9392025888656
 30
0.0
 11
987.2019323055637
 21
360.0135230523231
 31
0.0
  0
LINE
  5
B64
330
1F
100
AcDbEntity
  8
PEF-300A
  6
CONTINUOUS
100
AcDbLine
 10
988.1077211927181
 20
360.8006358091169
 30
0.0
 11
984.8280847060776
 21
364.5747561722608
 31
0.0
  0
ARC
  5
B65
330
1F
100
AcDbEntity
  8
PEF-300A
  6
CONTINUOUS
100
AcDbCircle
 10
986.3377328513346
 20
365.8866107669171
 30
0.0
 40
1.999999999999993
100
AcDbArc
 50
40.98999999999874
 51
220.9899999999985
  0
LINE
  5
B66
330
1F
100
AcDbEntity
  8
PEF-300A
  6
CONTINUOUS
100
AcDbLine
 10
987.2019323055637
 20
360.0135230523231
 30
0.0
 11
988.1077211927181
 21
360.8006358091169
 31
0.0
  0
LINE
  5
B67
330
1F
100
AcDbEntity
  8
PEF-300A
  6
CONTINUOUS
100
AcDbLine
 10
974.7601546136152
 20
377.685227459015
 30
0.0
 11
964.4982702426061
 21
389.4920931111623
 31
0.0
  0
LINE
  5
B68
330
1F
100
AcDbEntity
  8
PEF-300A
  6
CONTINUOUS
100
AcDbLine
 10
976.2697102772277
 20
378.9971884715671
 30
0.0
 11
966.3838811963117
 21
390.371367939176
 31
0.0
  0
LINE
  5
B69
330
1F
100
AcDbEntity
  8
PEF-300A
  6
CONTINUOUS
100
AcDbLine
 10
962.9959868126254
 20
373.4153688997972
 30
0.0
 11
968.9219529481484
 21
374.3550099805493
 31
0.0
  0
LINE
  5
B6A
330
1F
100
AcDbEntity
  8
PEF-300A
  6
CONTINUOUS
100
AcDbLine
 10
964.9712978204089
 20
373.7286522179589
 30
0.0
 11
962.6126592889002
 21
388.6128182831482
 31
0.0
  0
LINE
  5
B6B
330
1F
100
AcDbEntity
  8
PEF-300A
  6
CONTINUOUS
100
AcDbLine
 10
966.9466419403653
 20
374.0417266623877
 30
0.0
 11
964.4982702426061
 21
389.4920931111623
 31
0.0
  0
LINE
  5
B6C
330
1F
100
AcDbEntity
  8
PEF-300A
  6
CONTINUOUS
100
AcDbLine
 10
966.7640397101976
 20
390.5486387655142
 30
0.0
 11
962.2325007750143
 21
388.4355474568105
 31
0.0
  0
LINE
  5
B6D
330
1F
100
AcDbEntity
  8
PEF-300A
  6
CONTINUOUS
100
AcDbLine
 10
984.6666412852524
 20
372.3833370946738
 30
0.0
 11
977.7794046633076
 21
380.3089898572756
 31
0.0
  0
LINE
  5
B6E
330
1F
100
AcDbEntity
  8
PEF-300A
  6
CONTINUOUS
100
AcDbLine
 10
977.7794046633076
 20
380.3089898572756
 30
0.0
 11
973.250460227535
 21
376.3734260733066
 31
0.0
  0
LINE
  5
B6F
330
1F
100
AcDbEntity
  8
PEF-300A
  6
CONTINUOUS
100
AcDbLine
 10
991.1270174832331
 20
363.4243449984294
 30
0.0
 11
992.032806370388
 21
364.2114577552231
 31
0.0
  0
ARC
  5
B76
330
1F
100
AcDbEntity
  8
PEF-300A
  6
CONTINUOUS
100
AcDbCircle
 10
934.238794645196
 20
418.8907241935102
 30
0.0
 40
17.50000000000009
100
AcDbArc
 50
24.99999999999646
 51
90.0
  0
LINE
  5
B77
330
1F
100
AcDbEntity
  8
PEF-300A
  6
CONTINUOUS
100
AcDbLine
 10
945.5676419831537
 20
424.173452465269
 30
0.0
 11
953.3319834384027
 21
407.5227684812888
 31
0.0
  0
LINE
  5
B79
330
1F
100
AcDbEntity
  8
PEF-300A
  6
CONTINUOUS
100
AcDbLine
 10
938.0387946451955
 20
541.9007128583603
 30
0.0
 11
948.5387946451956
 21
541.9007128583603
 31
0.0
  0
LINE
  5
B7A
330
1F
100
AcDbEntity
  8
PEF-300A
  6
CONTINUOUS
100
AcDbLine
 10
938.0387946451953
 20
516.9007128583603
 30
0.0
 11
948.5387946451956
 21
516.9007128583603
 31
0.0
  0
LINE
  5
B8C
330
1F
100
AcDbEntity
  8
PEF-300A
  6
CONTINUOUS
100
AcDbLine
 10
755.1913987956645
 20
583.99072419351
 30
0.0
 11
875.1913987956646
 21
583.9907241935097
 31
0.0
  0
LINE
  5
B8D
330
1F
100
AcDbEntity
  8
PEF-300A
  6
CONTINUOUS
100
AcDbLine
 10
755.1913987956645
 20
578.8907241935097
 30
0.0
 11
890.1913987956648
 21
578.8907241935097
 31
0.0
  0
LINE
  5
B8E
330
1F
100
AcDbEntity
  8
PEF-300A
  6
CONTINUOUS
100
AcDbLine
 10
890.1913987956643
 20
580.0907241935098
 30
0.0
 11
755.1913987956645
 21
580.0907241935098
 31
0.0
  0
LINE
  5
B9B
330
1F
100
AcDbEntity
  8
PEF-300A
  6
CENTER2
100
AcDbLine
 10
724.8675176171311
 20
433.8907241935098
 30
0.0
 11
945.4491683491305
 21
433.8907241935102
 31
0.0
  0
LINE
  5
BA6
330
1F
100
AcDbEntity
  8
PEF-300A
  6
CONTINUOUS
100
AcDbLine
 10
748.6913987956636
 20
573.8907241935101
 30
0.0
 11
748.6913987956641
 21
454.8907241935098
 31
0.0
  0
LINE
  5
BAC
330
1F
100
AcDbEntity
  8
PEF-300A
  6
CONTINUOUS
100
AcDbLine
 10
755.1913987956647
 20
495.5573908601767
 30
0.0
 11
755.1913987956647
 21
459.3108624114136
 31
0.0
  0
LINE
  5
BB3
330
1F
100
AcDbEntity
  8
PEF-300A
  6
CONTINUOUS
100
AcDbLine
 10
731.4826986885202
 20
456.5696217649382
 30
0.0
 11
745.9826986885205
 21
455.154987618597
 31
0.0
  0
LINE
  5
BB4
330
1F
100
AcDbEntity
  8
PEF-300A
  6
CONTINUOUS
100
AcDbLine
 10
731.4826986885208
 20
411.2118266220811
 30
0.0
 11
745.9826986885206
 21
412.6264607684227
 31
0.0
  0
CIRCLE
  5
BB5
330
1F
100
AcDbEntity
  8
PEF-300A
  6
CONTINUOUS
100
AcDbCircle
 10
737.691398795664
 20
433.8907241935098
 30
0.0
 40
4.0
  0
CIRCLE
  5
BB6
330
1F
100
AcDbEntity
  8
PEF-300A
  6
CONTINUOUS
100
AcDbCircle
 10
737.691398795664
 20
433.8907241935098
 30
0.0
 40
3.300000000000011
  0
LINE
  5
BB7
330
1F
100
AcDbEntity
  8
PEF-300A
  6
HIDDEN
100
AcDbLine
 10
728.1913987956642
 20
439.8907241935098
 30
0.0
 11
748.6913987956642
 21
439.8907241935098
 31
0.0
  0
LINE
  5
BB8
330
1F
100
AcDbEntity
  8
PEF-300A
  6
HIDDEN
100
AcDbLine
 10
748.6913987956642
 20
438.9907241935098
 30
0.0
 11
728.1913987956642
 21
438.9907241935095
 31
0.0
  0
LINE
  5
BB9
330
1F
100
AcDbEntity
  8
PEF-300A
  6
HIDDEN
100
AcDbLine
 10
728.1913987956642
 20
428.7907241935096
 30
0.0
 11
748.6913987956642
 21
428.7907241935098
 31
0.0
  0
LINE
  5
BBA
330
1F
100
AcDbEntity
  8
PEF-300A
  6
HIDDEN
100
AcDbLine
 10
748.6913987956642
 20
427.8907241935097
 30
0.0
 11
728.1913987956641
 21
427.8907241935097
 31
0.0
  0
LINE
  5
BBC
330
1F
100
AcDbEntity
  8
PEF-300A
  6
CONTINUOUS
100
AcDbLine
 10
732.6913987956642
 20
456.4516998032658
 30
0.0
 11
732.6913987956642
 21
411.3297485837536
 31
0.0
  0
LINE
  5
BBD
330
1F
100
AcDbEntity
  8
PEF-300A
  6
CENTER2
100
AcDbLine
 10
737.691398795664
 20
424.94063813499
 30
0.0
 11
737.691398795664
 21
444.2177465687249
 31
0.0
  0
ARC
  5
BBE
330
1F
100
AcDbEntity
  8
PEF-300A
  6
CONTINUOUS
100
AcDbCircle
 10
731.1913987956642
 20
414.1976505238578
 30
0.0
 40
3.0
100
AcDbArc
 50
180.0
 51
275.5721978039626
  0
ARC
  5
BC1
330
1F
100
AcDbEntity
  8
PEF-300A
  6
CONTINUOUS
100
AcDbCircle
 10
731.1913987956642
 20
453.5837978631613
 30
0.0
 40
3.000000000000003
100
AcDbArc
 50
84.42780219603401
 51
180.0
  0
LINE
  5
BC4
330
1F
100
AcDbEntity
  8
PEF-300A
  6
HIDDEN
100
AcDbLine
 10
748.6913987956642
 20
412.8907241935098
 30
0.0
 11
748.6913987956641
 21
454.8907241935098
 31
0.0
  0
LINE
  5
BC5
330
1F
100
AcDbEntity
  8
PEF-300A
  6
CONTINUOUS
100
AcDbLine
 10
755.1913987956647
 20
414.5573908601766
 30
0.0
 11
748.6913987956642
 21
412.8907241935098
 31
0.0
  0
ARC
  5
BC6
330
1F
100
AcDbEntity
  8
PEF-300A
  6
HIDDEN
100
AcDbCircle
 10
745.6913987956641
 20
415.6122846701995
 30
0.0
 40
2.999999999999977
100
AcDbArc
 50
300.0000000000003
 51
0.0
  0
ARC
  5
BC7
330
1F
100
AcDbEntity
  8
PEF-300A
  6
CONTINUOUS
100
AcDbCircle
 10
745.6913987956641
 20
415.6122846701995
 30
0.0
 40
3.000000000000003
100
AcDbArc
 50
275.5721978039659
 51
300.0000000000003
  0
LINE
  5
BD3
330
1F
100
AcDbEntity
  8
PEF-300A
  6
CONTINUOUS
100
AcDbLine
 10
748.6913987956642
 20
454.8907241935098
 30
0.0
 11
753.665295171502
 21
453.6153661484233
 31
0.0
  0
ARC
  5
BD4
330
1F
100
AcDbEntity
  8
PEF-300A
  6
HIDDEN
100
AcDbCircle
 10
745.6913987956641
 20
452.1691637168201
 30
0.0
 40
3.0
100
AcDbArc
 50
0.0
 51
59.99999999999943
  0
ARC
  5
BD5
330
1F
100
AcDbEntity
  8
PEF-300A
  6
CONTINUOUS
100
AcDbCircle
 10
745.6913987956641
 20
452.1691637168201
 30
0.0
 40
3.000000000000011
100
AcDbArc
 50
59.99999999999943
 51
84.4278021960376
  0
LINE
  5
BE8
330
1F
100
AcDbEntity
  8
PEF-300A
  6
CONTINUOUS
100
AcDbLine
 10
748.6913987956637
 20
493.8907241935097
 30
0.0
 11
755.1913987956647
 21
495.5573908601766
 31
0.0
  0
LINE
  5
BEC
330
1F
100
AcDbEntity
  8
PEF-300A
  6
CONTINUOUS
100
AcDbLine
 10
775.1913987956645
 20
583.9907241935097
 30
0.0
 11
775.1913987956645
 21
580.0907241935098
 31
0.0
  0
LINE
  5
BED
330
1F
100
AcDbEntity
  8
PEF-300A
  6
CONTINUOUS
100
AcDbLine
 10
755.1913987956645
 20
580.0907241935098
 30
0.0
 11
755.1913987956645
 21
583.99072419351
 31
0.0
  0
LINE
  5
BEE
330
1F
100
AcDbEntity
  8
PEF-300A
  6
CENTER2
100
AcDbLine
 10
737.6913987956636
 20
573.7253452806217
 30
0.0
 11
737.6913987956633
 21
592.084496169893
 31
0.0
  0
LINE
  5
BEF
330
1F
100
AcDbEntity
  8
PEF-300A
  6
CONTINUOUS
100
AcDbLine
 10
728.1913987956637
 20
582.8907241935096
 30
0.0
 11
729.1913987956633
 21
583.8907241935096
 31
0.0
  0
LINE
  5
BF1
330
1F
100
AcDbEntity
  8
PEF-300A
  6
CONTINUOUS
100
AcDbLine
 10
730.4007683646997
 20
580.6581589757164
 30
0.0
 11
745.4007683646997
 21
579.0792116072955
 31
0.0
  0
ARC
  5
BF3
330
1F
100
AcDbEntity
  8
PEF-300A
  6
CONTINUOUS
100
AcDbCircle
 10
730.1913987956638
 20
578.6691480698737
 30
0.0
 40
2.000000000000023
100
AcDbArc
 50
83.99099404250561
 51
180.0
  0
LINE
  5
BFA
330
1F
100
AcDbEntity
  8
PEF-300A
  6
CONTINUOUS
100
AcDbLine
 10
747.1913987956636
 20
573.8907241935097
 30
0.0
 11
755.1913987956645
 21
573.8907241935097
 31
0.0
  0
ARC
  5
BFB
330
1F
100
AcDbEntity
  8
PEF-300A
  6
CONTINUOUS
100
AcDbCircle
 10
745.1913987956637
 20
577.0902007014526
 30
0.0
 40
2.0
100
AcDbArc
 50
0.0
 51
83.99099404250561
  0
LINE
  5
BFC
330
1F
100
AcDbEntity
  8
PEF-300A
  6
CONTINUOUS
100
AcDbLine
 10
755.1913987956645
 20
580.0907241935098
 30
0.0
 11
755.1913987956647
 21
287.6907241935096
 31
0.0
  0
LINE
  5
BFE
330
1F
100
AcDbEntity
  8
PEF-300A
  6
HIDDEN
100
AcDbLine
 10
730.6913987956636
 20
595.8907241935096
 30
0.0
 11
744.6913987956636
 21
595.8907241935096
 31
0.0
  0
LINE
  5
BFF
330
1F
100
AcDbEntity
  8
PEF-300A
  6
CONTINUOUS
100
AcDbLine
 10
743.1913987956636
 20
588.8907241935096
 30
0.0
 11
732.6913987956636
 21
588.8907241935096
 31
0.0
  0
LINE
  5
C00
330
1F
100
AcDbEntity
  8
PEF-300A
  6
CONTINUOUS
100
AcDbLine
 10
728.1913987956633
 20
604.3907241935096
 30
0.0
 11
747.1913987956636
 21
604.3907241935096
 31
0.0
  0
LINE
  5
C01
330
1F
100
AcDbEntity
  8
PEF-300A
  6
CONTINUOUS
100
AcDbLine
 10
747.1913987956638
 20
587.8907241935096
 30
0.0
 11
732.6913987956641
 21
587.8907241935096
 31
0.0
  0
LINE
  5
C03
330
1F
100
AcDbEntity
  8
PEF-300A
  6
HIDDEN
100
AcDbLine
 10
730.6913987956633
 20
604.3907241935096
 30
0.0
 11
730.6913987956636
 21
595.8907241935096
 31
0.0
  0
LINE
  5
C04
330
1F
100
AcDbEntity
  8
PEF-300A
  6
CENTER2
100
AcDbLine
 10
737.6913987956633
 20
607.9903974191968
 30
0.0
 11
737.6913987956633
 21
584.036405570528
 31
0.0
  0
LINE
  5
C05
330
1F
100
AcDbEntity
  8
PEF-300A
  6
CONTINUOUS
100
AcDbLine
 10
728.1913987956633
 20
604.3907241935096
 30
0.0
 11
728.1913987956633
 21
586.3907241935096
 31
0.0
  0
LINE
  5
C06
330
1F
100
AcDbEntity
  8
PEF-300A
  6
CONTINUOUS
100
AcDbLine
 10
728.1913987956633
 20
586.3907241935096
 30
0.0
 11
732.6913987956636
 21
586.3907241935096
 31
0.0
  0
LINE
  5
C07
330
1F
100
AcDbEntity
  8
PEF-300A
  6
CONTINUOUS
100
AcDbLine
 10
732.6913987956641
 20
583.8907241935096
 30
0.0
 11
729.1913987956633
 21
583.8907241935096
 31
0.0
  0
LINE
  5
C08
330
1F
100
AcDbEntity
  8
PEF-300A
  6
HIDDEN
100
AcDbLine
 10
733.1913987956636
 20
595.8907241935096
 30
0.0
 11
733.1913987956633
 21
588.8907241935096
 31
0.0
  0
LINE
  5
C09
330
1F
100
AcDbEntity
  8
PEF-300A
  6
CONTINUOUS
100
AcDbLine
 10
732.6913987956636
 20
588.8907241935096
 30
0.0
 11
732.6913987956636
 21
586.3907241935096
 31
0.0
  0
LINE
  5
C0A
330
1F
100
AcDbEntity
  8
PEF-300A
  6
CONTINUOUS
100
AcDbLine
 10
732.6913987956641
 20
587.8907241935096
 30
0.0
 11
732.6913987956641
 21
583.8907241935096
 31
0.0
  0
LINE
  5
C0B
330
1F
100
AcDbEntity
  8
PEF-300A
  6
HIDDEN
100
AcDbLine
 10
744.6913987956633
 20
604.3907241935096
 30
0.0
 11
744.6913987956636
 21
595.8907241935096
 31
0.0
  0
LINE
  5
C0C
330
1F
100
AcDbEntity
  8
PEF-300A
  6
CONTINUOUS
100
AcDbLine
 10
747.1913987956636
 20
604.3907241935096
 30
0.0
 11
747.1913987956632
 21
587.8907241935096
 31
0.0
  0
LINE
  5
C0D
330
1F
100
AcDbEntity
  8
PEF-300A
  6
HIDDEN
100
AcDbLine
 10
742.1913987956636
 20
595.8907241935095
 30
0.0
 11
742.1913987956636
 21
588.8907241935096
 31
0.0
  0
LINE
  5
C0E
330
1F
100
AcDbEntity
  8
PEF-300A
  6
CONTINUOUS
100
AcDbLine
 10
743.1913987956636
 20
588.8907241935096
 30
0.0
 11
743.1913987956636
 21
587.8907241935096
 31
0.0
  0
LINE
  5
C0F
330
1F
100
AcDbEntity
  8
PEF-300A
  6
CONTINUOUS
100
AcDbLine
 10
747.1913987956632
 20
587.8907241935096
 30
0.0
 11
743.1913987956636
 21
587.8907241935096
 31
0.0
  0
LINE
  5
C14
330
1F
100
AcDbEntity
  8
PEF-300A
  6
CONTINUOUS
100
AcDbLine
 10
936.5387946451958
 20
544.4007128583603
 30
0.0
 11
936.5387946451956
 21
514.4007128583601
 31
0.0
  0
LINE
  5
C15
330
1F
100
AcDbEntity
  8
PEF-300A
  6
CONTINUOUS
100
AcDbLine
 10
934.2387946451953
 20
514.4007128583601
 30
0.0
 11
934.2387946451953
 21
544.4007128583603
 31
0.0
  0
ARC
  5
C99
330
1F
100
AcDbEntity
  8
PEF-300A
  6
CONTINUOUS
100
AcDbCircle
 10
934.238794645196
 20
418.8907241935102
 30
0.0
 40
12.5
100
AcDbArc
 50
24.99999999999646
 51
90.0
  0
LINE
  5
CAA
330
1F
100
AcDbEntity
  8
PEF-300A
  6
CONTINUOUS
100
AcDbLine
 10
934.238794645196
 20
486.1669157626494
 30
0.0
 11
934.238794645196
 21
486.2868600092546
 31
0.0
  0
ARC
  5
CAE
330
1F
100
AcDbEntity
  8
PEF-300A
  6
CONTINUOUS
100
AcDbCircle
 10
938.0387946451953
 20
515.4007128583603
 30
0.0
 40
1.5
100
AcDbArc
 50
90.0
 51
179.9999999999966
  0
LINE
  5
CAF
330
1F
100
AcDbEntity
  8
PEF-300A
  6
CONTINUOUS
100
AcDbLine
 10
936.5387946451956
 20
514.4007128583601
 30
0.0
 11
934.2387946451953
 21
514.4007128583601
 31
0.0
  0
LINE
  5
CB9
330
1F
100
AcDbEntity
  8
PEF-300A
  6
CONTINUOUS
100
AcDbLine
 10
855.1913987956645
 20
583.9907241935097
 30
0.0
 11
855.1913987956645
 21
580.0907241935095
 31
0.0
  0
LINE
  5
CBA
330
1F
100
AcDbEntity
  8
PEF-300A
  6
CONTINUOUS
100
AcDbLine
 10
835.1913987956647
 20
583.9907241935097
 30
0.0
 11
835.1913987956645
 21
580.0907241935098
 31
0.0
  0
LINE
  5
CBB
330
1F
100
AcDbEntity
  8
PEF-300A
  6
CONTINUOUS
100
AcDbLine
 10
815.1913987956643
 20
583.9907241935097
 30
0.0
 11
815.1913987956643
 21
580.0907241935098
 31
0.0
  0
LINE
  5
CBC
330
1F
100
AcDbEntity
  8
PEF-300A
  6
CONTINUOUS
100
AcDbLine
 10
795.1913987956645
 20
583.9907241935097
 30
0.0
 11
795.1913987956645
 21
580.0907241935098
 31
0.0
  0
LINE
  5
CDB
330
1F
100
AcDbEntity
  8
PEF-300A
  6
CONTINUOUS
100
AcDbLine
 10
875.1913987956646
 20
583.9907241935097
 30
0.0
 11
875.1913987956639
 21
580.0907241935095
 31
0.0
  0
LINE
  5
CE0
330
1F
100
AcDbEntity
  8
PEF-300A
  6
CONTINUOUS
100
AcDbLine
 10
890.2387946451957
 20
578.9412973981781
 30
0.0
 11
867.2387946451957
 21
578.941297398178
 31
0.0
  0
ARC
  5
CFF
330
1F
100
AcDbEntity
  8
PEF-300A
  6
CONTINUOUS
100
AcDbCircle
 10
938.0387946451955
 20
543.4007128583601
 30
0.0
 40
1.5
100
AcDbArc
 50
180.0
 51
270.0
  0
LINE
  5
D00
330
1F
100
AcDbEntity
  8
PEF-300A
  6
CONTINUOUS
100
AcDbLine
 10
934.2387946451953
 20
544.4007128583603
 30
0.0
 11
936.5387946451958
 21
544.4007128583603
 31
0.0
  0
LINE
  5
D04
330
1F
100
AcDbEntity
  8
PEF-300A
  6
CONTINUOUS
100
AcDbLine
 10
892.2387946451957
 20
593.941297398178
 30
0.0
 11
931.2387946451961
 21
593.9412973981781
 31
0.0
  0
LINE
  5
D05
330
1F
100
AcDbEntity
  8
PEF-300A
  6
CONTINUOUS
100
AcDbLine
 10
892.2387946451957
 20
593.941297398178
 30
0.0
 11
890.2387946451959
 21
591.9412973981782
 31
0.0
  0
LINE
  5
D06
330
1F
100
AcDbEntity
  8
PEF-300A
  6
CONTINUOUS
100
AcDbLine
 10
931.2387946451961
 20
593.9412973981781
 30
0.0
 11
934.238794645196
 21
590.9412973981781
 31
0.0
  0
LINE
  5
D0F
330
1F
100
AcDbEntity
  8
PEF-300A
  6
CONTINUOUS
100
AcDbLine
 10
953.2387946451958
 20
583.8271197295532
 30
0.0
 11
953.2387946451953
 21
514.4007128583601
 31
0.0
  0
LINE
  5
D10
330
1F
100
AcDbEntity
  8
PEF-300A
  6
CONTINUOUS
100
AcDbLine
 10
950.0387946451953
 20
514.4007128583601
 30
0.0
 11
950.0387946451958
 21
583.8271197295535
 31
0.0
  0
LINE
  5
D14
330
1F
100
AcDbEntity
  8
PEF-300A
  6
CONTINUOUS
100
AcDbLine
 10
950.0991809183371
 20
426.2865437739726
 30
0.0
 11
957.8635223735863
 21
409.6358597899921
 31
0.0
  0
LINE
  5
D15
330
1F
100
AcDbEntity
  8
PEF-300A
  6
CONTINUOUS
100
AcDbLine
 10
958.4137106425403
 20
405.917540002825
 30
0.0
 11
957.1079352851338
 21
406.0008132795185
 31
0.0
  0
LINE
  5
D16
330
1F
100
AcDbEntity
  8
PEF-300A
  6
CONTINUOUS
100
AcDbLine
 10
955.1909459306433
 20
405.3346270659696
 30
0.0
 11
954.6817095928663
 21
404.6282714022493
 31
0.0
  0
LINE
  5
D17
330
1F
100
AcDbEntity
  8
PEF-300A
  6
CONTINUOUS
100
AcDbLine
 10
956.3578090159854
 20
404.8905029236037
 30
0.0
 11
955.1909459306433
 21
405.3346270659696
 31
0.0
  0
LINE
  5
D18
330
1F
100
AcDbEntity
  8
PEF-300A
  6
CONTINUOUS
100
AcDbLine
 10
957.1079352851338
 20
406.0008132795185
 30
0.0
 11
956.3578090159854
 21
404.8905029236037
 31
0.0
  0
LINE
  5
D19
330
1F
100
AcDbEntity
  8
PEF-300A
  6
CONTINUOUS
100
AcDbLine
 10
953.8412197761802
 20
408.2291241450091
 30
0.0
 11
953.3319834384027
 21
407.5227684812888
 31
0.0
  0
LINE
  5
D1A
330
1F
100
AcDbEntity
  8
PEF-300A
  6
CONTINUOUS
100
AcDbLine
 10
955.008082861522
 20
407.7850000026431
 30
0.0
 11
953.8412197761802
 21
408.2291241450091
 31
0.0
  0
LINE
  5
D1B
330
1F
100
AcDbEntity
  8
PEF-300A
  6
CONTINUOUS
100
AcDbLine
 10
955.7582091306704
 20
408.8953103585581
 30
0.0
 11
955.008082861522
 21
407.7850000026431
 31
0.0
  0
LINE
  5
D1C
330
1F
100
AcDbEntity
  8
PEF-300A
  6
CONTINUOUS
100
AcDbLine
 10
957.0639844880773
 20
408.8120370818644
 30
0.0
 11
955.7582091306704
 21
408.8953103585581
 31
0.0
  0
LINE
  5
D1D
330
1F
100
AcDbEntity
  8
PEF-300A
  6
CONTINUOUS
100
AcDbLine
 10
957.8635223735863
 20
409.6358597899921
 30
0.0
 11
957.0639844880773
 21
408.8120370818644
 31
0.0
  0
LINE
  5
D1E
330
1F
100
AcDbEntity
  8
PEF-300A
  6
CONTINUOUS
100
AcDbLine
 10
959.2132485280496
 20
406.7413627109527
 30
0.0
 11
958.4137106425403
 21
405.917540002825
 31
0.0
  0
ARC
  5
D20
330
1F
100
AcDbEntity
  8
PEF-300A
  6
CONTINUOUS
100
AcDbCircle
 10
948.5387946451954
 20
515.4007128583603
 30
0.0
 40
1.5
100
AcDbArc
 50
0.0
 51
90.0
  0
LINE
  5
D21
330
1F
100
AcDbEntity
  8
PEF-300A
  6
CONTINUOUS
100
AcDbLine
 10
953.2387946451953
 20
514.4007128583601
 30
0.0
 11
950.0387946451953
 21
514.4007128583601
 31
0.0
  0
LINE
  5
D23
330
1F
100
AcDbEntity
  8
PEF-300A
  6
HIDDEN
100
AcDbLine
 10
950.0387946451958
 20
547.1139162939569
 30
0.0
 11
953.2387946451958
 21
547.1139162939569
 31
0.0
  0
ARC
  5
D24
330
1F
100
AcDbEntity
  8
PEF-300A
  6
CONTINUOUS
100
AcDbCircle
 10
948.5387946451956
 20
543.4007128583601
 30
0.0
 40
1.5
100
AcDbArc
 50
270.0
 51
0.0
  0
LINE
  5
D25
330
1F
100
AcDbEntity
  8
PEF-300A
  6
CENTER2
100
AcDbLine
 10
948.1410048678794
 20
561.2205180117553
 30
0.0
 11
956.1410048678791
 21
561.2205180117553
 31
0.0
  0
LINE
  5
D26
330
1F
100
AcDbEntity
  8
PEF-300A
  6
HIDDEN
100
AcDbLine
 10
950.0387946451956
 20
575.3271197295532
 30
0.0
 11
953.2387946451958
 21
575.3271197295532
 31
0.0
  0
LINE
  5
D29
330
1F
100
AcDbEntity
  8
PEF-300A
  6
CONTINUOUS
100
AcDbLine
 10
950.0387946451958
 20
583.8271197295535
 30
0.0
 11
953.2387946451958
 21
583.8271197295532
 31
0.0
  0
TEXT
  5
10F4
330
1F
100
AcDbEntity
  8
PEF-300A
100
AcDbText
 10
595.0
 20
267.0
 30
0.0
 40
7.5
  1
PEF-300AR
100
AcDbText
  0
ENDSEC
  0
SECTION
  2
OBJECTS
  0
DICTIONARY
  5
C
330
0
100
AcDbDictionary
  3
ACAD_GROUP
350
D
  3
ACAD_LAYOUT
350
1A
  3
ACAD_MLINESTYLE
350
17
  3
ACAD_PLOTSETTINGS
350
19
  3
ACAD_PLOTSTYLENAME
350
E
  3
ACADDIM
350
453
  3
DWGPROPS
350
11C2
  3
ACDBHEADERROUNDTRIPXREC
350
121E
  0
DICTIONARY
  5
11E7
330
1F
100
AcDbDictionary
280
     1
  3
ACAD_LAYOUTSELFREF
360
123F
  0
DICTIONARY
  5
11E5
330
1B
100
AcDbDictionary
280
     1
  3
ACAD_LAYOUTSELFREF
360
123E
  0
DICTIONARY
  5
D
102
{ACAD_REACTORS
330
C
102
}
330
C
100
AcDbDictionary
  0
DICTIONARY
  5
1A
102
{ACAD_REACTORS
330
C
102
}
330
C
100
AcDbDictionary
  0
DICTIONARY
  5
17
102
{ACAD_REACTORS
330
C
102
}
330
C
100
AcDbDictionary
  3
STANDARD
350
18
  0
DICTIONARY
  5
19
102
{ACAD_REACTORS
330
C
102
}
330
C
100
AcDbDictionary
  0
ACDBDICTIONARYWDFLT
  5
E
102
{ACAD_REACTORS
330
C
102
}
330
C
100
AcDbDictionary
281
     1
  3
Normal
350
F
100
AcDbDictionaryWithDefault
340
F
  0
XRECORD
  5
453
102
{ACAD_REACTORS
330
C
102
}
330
C
100
AcDbXrecord
 90
   990106
  3

 60
     0
 61
     0
 62
     4
 63
     4
 64
     1
 65
     0
 66
     0
 67
     3
 68
     1
 69
     0
 70
     0
 71
     0
 72
     0
 40
0.0
170
     1
340
0
  0
XRECORD
  5
11C2
102
{ACAD_REACTORS
330
C
102
}
330
C
100
AcDbXrecord
  1
DWGPROPS COOKIE
  2

  3

  4

  6

  7

  8
한신
  9

300
=
301
=
302
=
303
=
304
=
305
=
306
=
307
=
308
=
309
=
 40
0.0221706018518519
 41
2451745.474417592
 42
2451814.602441086
  1

 90
        0
  0
DICTIONARY
  5
121E
102
{ACAD_REACTORS
330
C
102
}
330
C
100
AcDbDictionary
  3
TSTACKALIGN
350
121F
  3
TSTACKSIZE
350
1220
  3
HYPERLINKBASE
350
1221
  3
STYLESHEET
350
1222
  3
LAYOUTDICT
350
1223
  3
PLOTSETDICT
350
1224
  3
PLOTSTYLNAMDICT
350
1225
  3
LWETCUNION
350
1226
  3
INSUNITS
350
1227
  3
CEPSNTYPE
350
1228
  3
FINGERPRINTGUID
350
1229
  3
VERSIONGUID
350
122A
  3
PSVPSCALE
350
122B
  3
PUCSORTHOREF
350
122C
  3
PUCSORTHOVIEW
350
122D
  3
PUCSBASE
350
122E
  3
PUCSORGTOP
350
122F
  3
PUCSORGBOTTOM
350
1230
  3
PUCSORGLEFT
350
1231
  3
PUCSORGRIGHT
350
1232
  3
PUCSORGFRONT
350
1233
  3
PUCSORGBACK
350
1234
  3
UCSORTHOREF
350
1235
  3
UCSORTHOVIEW
350
1236
  3
UCSBASE
350
1237
  3
UCSORGTOP
350
1238
  3
UCSORGBOTTOM
350
1239
  3
UCSORGLEFT
350
123A
  3
UCSORGRIGHT
350
123B
  3
UCSORGFRONT
350
123C
  3
UCSORGBACK
350
123D
  0
XRECORD
  5
123F
102
{ACAD_REACTORS
330
11E7
102
}
330
11E7
100
AcDbXrecord
340
1F
  0
XRECORD
  5
123E
102
{ACAD_REACTORS
330
11E5
102
}
330
11E5
100
AcDbXrecord
340
1B
  0
MLINESTYLE
  5
18
102
{ACAD_REACTORS
330
17
102
}
330
17
100
AcDbMlineStyle
  2
STANDARD
 70
     0
  3

 62
   256
 51
90.0
 52
90.0
 71
     2
 49
0.5
 62
   256
  6
BYLAYER
 49
-0.5
 62
   256
  6
BYLAYER
  0
ACDBPLACEHOLDER
  5
F
102
{ACAD_REACTORS
330
E
102
}
330
E
100
AcDbPlaceHolder
280
     0
  0
XRECORD
  5
121F
102
{ACAD_REACTORS
330
121E
102
}
330
121E
100
AcDbXrecord
 90
        1
  0
XRECORD
  5
1220
102
{ACAD_REACTORS
330
121E
102
}
330
121E
100
AcDbXrecord
 90
       70
  0
XRECORD
  5
1221
102
{ACAD_REACTORS
330
121E
102
}
330
121E
100
AcDbXrecord
  1

  0
XRECORD
  5
1222
102
{ACAD_REACTORS
330
121E
102
}
330
121E
100
AcDbXrecord
  1

  0
XRECORD
  5
1223
102
{ACAD_REACTORS
330
121E
102
}
330
121E
100
AcDbXrecord
340
1A
  0
XRECORD
  5
1224
102
{ACAD_REACTORS
330
121E
102
}
330
121E
100
AcDbXrecord
340
19
  0
XRECORD
  5
1225
102
{ACAD_REACTORS
330
121E
102
}
330
121E
100
AcDbXrecord
340
E
  0
XRECORD
  5
1226
102
{ACAD_REACTORS
330
121E
102
}
330
121E
100
AcDbXrecord
 90
    10781
  0
XRECORD
  5
1227
102
{ACAD_REACTORS
330
121E
102
}
330
121E
100
AcDbXrecord
 90
        1
  0
XRECORD
  5
1228
102
{ACAD_REACTORS
330
121E
102
}
330
121E
100
AcDbXrecord
 90
        0
  0
XRECORD
  5
1229
102
{ACAD_REACTORS
330
121E
102
}
330
121E
100
AcDbXrecord
  1
{FDEAD576-A652-11D2-9A35-0060089B3A3F}
  0
XRECORD
  5
122A
102
{ACAD_REACTORS
330
121E
102
}
330
121E
100
AcDbXrecord
  1
{C40F2BCD-0E4E-41A0-9FD9-9CF1C6E52609}
  0
XRECORD
  5
122B
102
{ACAD_REACTORS
330
121E
102
}
330
121E
100
AcDbXrecord
 40
0.0
  0
XRECORD
  5
122C
102
{ACAD_REACTORS
330
121E
102
}
330
121E
100
AcDbXrecord
340
0
  0
XRECORD
  5
122D
102
{ACAD_REACTORS
330
121E
102
}
330
121E
100
AcDbXrecord
 70
     0
  0
XRECORD
  5
122E
102
{ACAD_REACTORS
330
121E
102
}
330
121E
100
AcDbXrecord
340
0
  0
XRECORD
  5
122F
102
{ACAD_REACTORS
330
121E
102
}
330
121E
100
AcDbXrecord
 10
0.0
 20
0.0
 30
0.0
  0
XRECORD
  5
1230
102
{ACAD_REACTORS
330
121E
102
}
330
121E
100
AcDbXrecord
 10
0.0
 20
0.0
 30
0.0
  0
XRECORD
  5
1231
102
{ACAD_REACTORS
330
121E
102
}
330
121E
100
AcDbXrecord
 10
0.0
 20
0.0
 30
0.0
  0
XRECORD
  5
1232
102
{ACAD_REACTORS
330
121E
102
}
330
121E
100
AcDbXrecord
 10
0.0
 20
0.0
 30
0.0
  0
XRECORD
  5
1233
102
{ACAD_REACTORS
330
121E
102
}
330
121E
100
AcDbXrecord
 10
0.0
 20
0.0
 30
0.0
  0
XRECORD
  5
1234
102
{ACAD_REACTORS
330
121E
102
}
330
121E
100
AcDbXrecord
 10
0.0
 20
0.0
 30
0.0
  0
XRECORD
  5
1235
102
{ACAD_REACTORS
330
121E
102
}
330
121E
100
AcDbXrecord
340
0
  0
XRECORD
  5
1236
102
{ACAD_REACTORS
330
121E
102
}
330
121E
100
AcDbXrecord
 70
     0
  0
XRECORD
  5
1237
102
{ACAD_REACTORS
330
121E
102
}
330
121E
100
AcDbXrecord
340
0
  0
XRECORD
  5
1238
102
{ACAD_REACTORS
330
121E
102
}
330
121E
100
AcDbXrecord
 10
0.0
 20
0.0
 30
0.0
  0
XRECORD
  5
1239
102
{ACAD_REACTORS
330
121E
102
}
330
121E
100
AcDbXrecord
 10
0.0
 20
0.0
 30
0.0
  0
XRECORD
  5
123A
102
{ACAD_REACTORS
330
121E
102
}
330
121E
100
AcDbXrecord
 10
0.0
 20
0.0
 30
0.0
  0
XRECORD
  5
123B
102
{ACAD_REACTORS
330
121E
102
}
330
121E
100
AcDbXrecord
 10
0.0
 20
0.0
 30
0.0
  0
XRECORD
  5
123C
102
{ACAD_REACTORS
330
121E
102
}
330
121E
100
AcDbXrecord
 10
0.0
 20
0.0
 30
0.0
  0
XRECORD
  5
123D
102
{ACAD_REACTORS
330
121E
102
}
330
121E
100
AcDbXrecord
 10
0.0
 20
0.0
 30
0.0
  0
ENDSEC
  0
EOF
