  0
SECTION
  2
HEADER
  9
$ACADVER
  1
AC1014
  9
$ACADMAINTVER
 70
     9
  9
$DWGCODEPAGE
  3
ANSI_949
  9
$INSBASE
 10
0.0
 20
0.0
 30
0.0
  9
$EXTMIN
 10
128.2946209232486
 20
197.3438647767698
 30
-0.000000000000013
  9
$EXTMAX
 10
984.794181961619
 20
723.4322695161133
 30
0.0000000000000023
  9
$LIMMIN
 10
0.0
 20
0.0
  9
$LIMMAX
 10
420.0
 20
297.0
  9
$ORTHOMODE
 70
     1
  9
$REGENMODE
 70
     1
  9
$FILLMODE
 70
     1
  9
$QTEXTMODE
 70
     0
  9
$MIRRTEXT
 70
     1
  9
$DRAGMODE
 70
     2
  9
$LTSCALE
 40
12.0
  9
$OSMODE
 70
    37
  9
$ATTMODE
 70
     1
  9
$TEXTSIZE
 40
4.0
  9
$TRACEWID
 40
0.05
  9
$TEXTSTYLE
  7
STANDARD
  9
$CLAYER
  8
0
  9
$CELTYPE
  6
BYLAYER
  9
$CECOLOR
 62
   256
  9
$CELTSCALE
 40
1.0
  9
$DELOBJ
 70
     1
  9
$DISPSILH
 70
     0
  9
$DIMSCALE
 40
2.0
  9
$DIMASZ
 40
2.299999999999998
  9
$DIMEXO
 40
0.5
  9
$DIMDLI
 40
8.0
  9
$DIMRND
 40
0.0
  9
$DIMDLE
 40
0.0
  9
$DIMEXE
 40
1.0
  9
$DIMTP
 40
0.0
  9
$DIMTM
 40
0.000000001
  9
$DIMTXT
 40
2.299999999999998
  9
$DIMCEN
 40
0.09
  9
$DIMTSZ
 40
0.0
  9
$DIMTOL
 70
     0
  9
$DIMLIM
 70
     0
  9
$DIMTIH
 70
     0
  9
$DIMTOH
 70
     0
  9
$DIMSE1
 70
     0
  9
$DIMSE2
 70
     0
  9
$DIMTAD
 70
     1
  9
$DIMZIN
 70
     8
  9
$DIMBLK
  1

  9
$DIMASO
 70
     1
  9
$DIMSHO
 70
     1
  9
$DIMPOST
  1

  9
$DIMAPOST
  1

  9
$DIMALT
 70
     0
  9
$DIMALTD
 70
     1
  9
$DIMALTF
 40
25.4
  9
$DIMLFAC
 40
1.0
  9
$DIMTOFL
 70
     1
  9
$DIMTVP
 40
0.0
  9
$DIMTIX
 70
     0
  9
$DIMSOXD
 70
     0
  9
$DIMSAH
 70
     0
  9
$DIMBLK1
  1

  9
$DIMBLK2
  1

  9
$DIMSTYLE
  2
STANDARD
  9
$DIMCLRD
 70
     5
  9
$DIMCLRE
 70
     5
  9
$DIMCLRT
 70
     3
  9
$DIMTFAC
 40
0.7
  9
$DIMGAP
 40
0.5
  9
$DIMJUST
 70
     0
  9
$DIMSD1
 70
     0
  9
$DIMSD2
 70
     0
  9
$DIMTOLJ
 70
     1
  9
$DIMTZIN
 70
     0
  9
$DIMALTZ
 70
     0
  9
$DIMALTTZ
 70
     0
  9
$DIMFIT
 70
     3
  9
$DIMUPT
 70
     1
  9
$DIMUNIT
 70
     2
  9
$DIMDEC
 70
     1
  9
$DIMTDEC
 70
     1
  9
$DIMALTU
 70
     2
  9
$DIMALTTD
 70
     1
  9
$DIMTXSTY
  7
STANDARD
  9
$DIMAUNIT
 70
     0
  9
$LUNITS
 70
     2
  9
$LUPREC
 70
     4
  9
$SKETCHINC
 40
0.1
  9
$FILLETRAD
 40
0.5
  9
$AUNITS
 70
     0
  9
$AUPREC
 70
     0
  9
$MENU
  1
.
  9
$ELEVATION
 40
0.0
  9
$PELEVATION
 40
0.0
  9
$THICKNESS
 40
0.0
  9
$LIMCHECK
 70
     0
  9
$BLIPMODE
 70
     0
  9
$CHAMFERA
 40
0.5
  9
$CHAMFERB
 40
0.5
  9
$CHAMFERC
 40
1.0
  9
$CHAMFERD
 40
0.0
  9
$SKPOLY
 70
     0
  9
$TDCREATE
 40
2451746.460894792
  9
$TDUPDATE
 40
2452761.347691504
  9
$TDINDWG
 40
0.0081368171
  9
$TDUSRTIMER
 40
0.0081364468
  9
$USRTIMER
 70
     1
  9
$ANGBASE
 50
0.0
  9
$ANGDIR
 70
     0
  9
$PDMODE
 70
     0
  9
$PDSIZE
 40
0.0
  9
$PLINEWID
 40
0.0
  9
$COORDS
 70
     2
  9
$SPLFRAME
 70
     0
  9
$SPLINETYPE
 70
     6
  9
$SPLINESEGS
 70
     8
  9
$ATTDIA
 70
     0
  9
$ATTREQ
 70
     1
  9
$HANDLING
 70
 12289
  9
$HANDSEED
  5
EFE
  9
$SURFTAB1
 70
     6
  9
$SURFTAB2
 70
     6
  9
$SURFTYPE
 70
     6
  9
$SURFU
 70
     6
  9
$SURFV
 70
     6
  9
$UCSNAME
  2

  9
$UCSORG
 10
0.0
 20
0.0
 30
0.0
  9
$UCSXDIR
 10
1.0
 20
0.0
 30
0.0
  9
$UCSYDIR
 10
0.0
 20
1.0
 30
0.0
  9
$PUCSNAME
  2

  9
$PUCSORG
 10
0.0
 20
0.0
 30
0.0
  9
$PUCSXDIR
 10
1.0
 20
0.0
 30
0.0
  9
$PUCSYDIR
 10
0.0
 20
1.0
 30
0.0
  9
$USERI1
 70
     0
  9
$USERI2
 70
     0
  9
$USERI3
 70
     0
  9
$USERI4
 70
     0
  9
$USERI5
 70
     0
  9
$USERR1
 40
0.0
  9
$USERR2
 40
0.0
  9
$USERR3
 40
0.0
  9
$USERR4
 40
0.0
  9
$USERR5
 40
0.0
  9
$WORLDVIEW
 70
     1
  9
$SHADEDGE
 70
     3
  9
$SHADEDIF
 70
    70
  9
$TILEMODE
 70
     1
  9
$MAXACTVP
 70
    64
  9
$PINSBASE
 10
0.0
 20
0.0
 30
0.0
  9
$PLIMCHECK
 70
     0
  9
$PEXTMIN
 10
1.000000000000000E+20
 20
1.000000000000000E+20
 30
1.000000000000000E+20
  9
$PEXTMAX
 10
-1.000000000000000E+20
 20
-1.000000000000000E+20
 30
-1.000000000000000E+20
  9
$PLIMMIN
 10
0.0
 20
0.0
  9
$PLIMMAX
 10
12.0
 20
9.0
  9
$UNITMODE
 70
     0
  9
$VISRETAIN
 70
     1
  9
$PLINEGEN
 70
     0
  9
$PSLTSCALE
 70
     1
  9
$TREEDEPTH
 70
  3020
  9
$PICKSTYLE
 70
     1
  9
$CMLSTYLE
  2
STANDARD
  9
$CMLJUST
 70
     0
  9
$CMLSCALE
 40
1.0
  9
$PROXYGRAPHICS
 70
     1
  9
$MEASUREMENT
 70
     0
  0
ENDSEC
  0
SECTION
  2
CLASSES
  0
CLASS
  1
ACDBDICTIONARYWDFLT
  2
AcDbDictionaryWithDefault
  3
AutoCAD 2000
 90
        0
280
     0
281
     0
  0
CLASS
  1
ACDBPLACEHOLDER
  2
AcDbPlaceHolder
  3
AutoCAD 2000
 90
        0
280
     0
281
     0
  0
CLASS
  1
LAYOUT
  2
AcDbLayout
  3
AutoCAD 2000
 90
        0
280
     0
281
     0
  0
CLASS
  1
LONG_TRANSACTION
  2
AcDbLongTransaction
  3
AutoCAD 2000
 90
        0
280
     0
281
     0
  0
CLASS
  1
LWPOLYLINE
  2
AcDbPolyline
  3
AutoCAD 2000
 90
        0
280
     0
281
     1
  0
CLASS
  1
HATCH
  2
AcDbHatch
  3
AutoCAD 2000
 90
        0
280
     0
281
     1
  0
CLASS
  1
XRECORD
  2
AcDbXrecord
  3
AutoCAD 2000
 90
        0
280
     0
281
     0
  0
CLASS
  1
LONG_TRANSACTION
  2
AcDbLongTransaction
  3
AutoCAD 2000
 90
        0
280
     0
281
     0
  0
CLASS
  1
LWPOLYLINE
  2
AcDbPolyline
  3
AutoCAD 2000
 90
        0
280
     0
281
     1
  0
CLASS
  1
HATCH
  2
AcDbHatch
  3
AutoCAD 2000
 90
        0
280
     0
281
     1
  0
CLASS
  1
XRECORD
  2
AcDbXrecord
  3
AutoCAD 2000
 90
        0
280
     0
281
     0
  0
CLASS
  1
LONG_TRANSACTION
  2
AcDbLongTransaction
  3
AutoCAD 2000
 90
        0
280
     0
281
     0
  0
CLASS
  1
LWPOLYLINE
  2
AcDbPolyline
  3
AutoCAD 2000
 90
        0
280
     0
281
     1
  0
CLASS
  1
HATCH
  2
AcDbHatch
  3
AutoCAD 2000
 90
        0
280
     0
281
     1
  0
CLASS
  1
XRECORD
  2
AcDbXrecord
  3
AutoCAD 2000
 90
        0
280
     0
281
     0
  0
ENDSEC
  0
SECTION
  2
TABLES
  0
TABLE
  2
VPORT
  5
8
330
0
100
AcDbSymbolTable
 70
     2
  0
VPORT
  5
EDB
330
8
100
AcDbSymbolTableRecord
100
AcDbViewportTableRecord
  2
*ACTIVE
 70
     0
 10
0.0
 20
0.0
 11
1.0
 21
1.0
 12
556.5444014424338
 22
460.3880671464416
 13
0.0
 23
0.0
 14
1.0
 24
1.0
 15
5.0
 25
5.0
 16
0.0
 26
0.0
 36
1.0
 17
0.0
 27
0.0
 37
0.0
 40
580.788757979447
 41
1.481743227326266
 42
50.0
 43
0.0
 44
0.0
 50
0.0
 51
0.0
 71
     0
 72
  2000
 73
     1
 74
     3
 75
     0
 76
     0
 77
     0
 78
     0
  0
ENDTAB
  0
TABLE
  2
LTYPE
  5
5
330
0
100
AcDbSymbolTable
 70
     4
  0
LTYPE
  5
14
330
5
100
AcDbSymbolTableRecord
100
AcDbLinetypeTableRecord
  2
BYBLOCK
 70
     0
  3

 72
    65
 73
     0
 40
0.0
  0
LTYPE
  5
15
330
5
100
AcDbSymbolTableRecord
100
AcDbLinetypeTableRecord
  2
BYLAYER
 70
     0
  3

 72
    65
 73
     0
 40
0.0
  0
LTYPE
  5
16
330
5
100
AcDbSymbolTableRecord
100
AcDbLinetypeTableRecord
  2
CONTINUOUS
 70
     0
  3
Solid line
 72
    65
 73
     0
 40
0.0
  0
LTYPE
  5
45E
330
5
100
AcDbSymbolTableRecord
100
AcDbLinetypeTableRecord
  2
CENTER2
 70
     0
  3
Center (.5x) ___ _ ___ _ ___ _ ___ _ ___ _ ___
 72
    65
 73
     4
 40
1.125
 49
0.75
 74
     0
 49
-0.125
 74
     0
 49
0.125
 74
     0
 49
-0.125
 74
     0
  0
LTYPE
  5
45F
330
5
100
AcDbSymbolTableRecord
100
AcDbLinetypeTableRecord
  2
HIDDEN
 70
     0
  3
Hidden __ __ __ __ __ __ __ __ __ __ __ __ __ _
 72
    65
 73
     2
 40
0.375
 49
0.25
 74
     0
 49
-0.125
 74
     0
  0
LTYPE
  5
460
330
5
100
AcDbSymbolTableRecord
100
AcDbLinetypeTableRecord
  2
PHANTOM2
 70
     0
  3
Phantom (.5x) ___ _ _ ___ _ _ ___ _ _ ___ _ _
 72
    65
 73
     6
 40
1.25
 49
0.625
 74
     0
 49
-0.125
 74
     0
 49
0.125
 74
     0
 49
-0.125
 74
     0
 49
0.125
 74
     0
 49
-0.125
 74
     0
  0
ENDTAB
  0
TABLE
  2
LAYER
  5
2
330
0
100
AcDbSymbolTable
 70
     2
  0
LAYER
  5
10
330
2
100
AcDbSymbolTableRecord
100
AcDbLayerTableRecord
  2
0
 70
     0
 62
     7
  6
CONTINUOUS
  0
LAYER
  5
EDA
330
2
100
AcDbSymbolTableRecord
100
AcDbLayerTableRecord
  2
PEF-390A
 70
     0
 62
     7
  6
CONTINUOUS
  0
ENDTAB
  0
TABLE
  2
STYLE
  5
3
330
0
100
AcDbSymbolTable
 70
     1
  0
STYLE
  5
11
330
3
100
AcDbSymbolTableRecord
100
AcDbTextStyleTableRecord
  2
STANDARD
 70
     0
 40
0.0
 41
1.0
 50
0.0
 71
     0
 42
4.0
  3
txt.shx
  4
whgtxt.shx
  0
ENDTAB
  0
TABLE
  2
VIEW
  5
6
330
0
100
AcDbSymbolTable
 70
     0
  0
ENDTAB
  0
TABLE
  2
UCS
  5
7
330
0
100
AcDbSymbolTable
 70
     0
  0
ENDTAB
  0
TABLE
  2
APPID
  5
9
330
0
100
AcDbSymbolTable
 70
     1
  0
APPID
  5
12
330
9
100
AcDbSymbolTableRecord
100
AcDbRegAppTableRecord
  2
ACAD
 70
     0
  0
ENDTAB
  0
TABLE
  2
DIMSTYLE
  5
A
330
0
100
AcDbSymbolTable
 70
     1
  0
DIMSTYLE
105
27
330
A
100
AcDbSymbolTableRecord
100
AcDbDimStyleTableRecord
  2
STANDARD
 70
     0
  3

  4

  5

  6

  7

 40
2.0
 41
2.299999999999998
 42
0.5
 43
8.0
 44
1.0
 45
0.0
 46
0.0
 47
0.0
 48
0.000000001
140
2.299999999999998
141
0.09
142
0.0
143
25.4
144
1.0
145
0.0
146
0.7
147
0.5
 71
     0
 72
     0
 73
     0
 74
     0
 75
     0
 76
     0
 77
     1
 78
     8
170
     0
171
     1
172
     1
173
     0
174
     0
175
     0
176
     5
177
     5
178
     3
270
     2
271
     1
272
     1
273
     2
274
     1
340
11
275
     0
280
     0
281
     0
282
     0
283
     1
284
     0
285
     0
286
     0
287
     3
288
     1
  0
ENDTAB
  0
TABLE
  2
BLOCK_RECORD
  5
1
330
0
100
AcDbSymbolTable
 70
     0
  0
BLOCK_RECORD
  5
1F
102
{ACAD_XDICTIONARY
360
EA5
102
}
330
1
100
AcDbSymbolTableRecord
100
AcDbBlockTableRecord
  2
*MODEL_SPACE
  0
BLOCK_RECORD
  5
1B
102
{ACAD_XDICTIONARY
360
EA3
102
}
330
1
100
AcDbSymbolTableRecord
100
AcDbBlockTableRecord
  2
*PAPER_SPACE
  0
ENDTAB
  0
ENDSEC
  0
SECTION
  2
BLOCKS
  0
BLOCK
  5
20
330
1F
100
AcDbEntity
  8
0
100
AcDbBlockBegin
  2
*MODEL_SPACE
 70
     0
 10
0.0
 20
0.0
 30
0.0
  3
*MODEL_SPACE
  1

  0
ENDBLK
  5
21
330
1F
100
AcDbEntity
  8
0
100
AcDbBlockEnd
  0
BLOCK
  5
1C
330
1B
100
AcDbEntity
 67
     1
  8
0
100
AcDbBlockBegin
  2
*PAPER_SPACE
 70
     0
 10
0.0
 20
0.0
 30
0.0
  3
*PAPER_SPACE
  1

  0
ENDBLK
  5
1D
330
1B
100
AcDbEntity
 67
     1
  8
0
100
AcDbBlockEnd
  0
ENDSEC
  0
SECTION
  2
ENTITIES
  0
LINE
  5
904
330
1F
100
AcDbEntity
  8
PEF-390A
100
AcDbLine
 10
128.3616106146579
 20
460.3931335417724
 30
0.0
 11
578.2284587902783
 21
460.3931335417755
 31
0.0
  0
ARC
  5
906
330
1F
100
AcDbEntity
  8
PEF-390A
100
AcDbCircle
 10
347.3616106146575
 20
460.3931335417739
 30
0.0
 40
205.0
100
AcDbArc
 50
3.495813632390448
 51
116.5041863676105
  0
ARC
  5
907
330
1F
100
AcDbEntity
  8
PEF-390A
100
AcDbCircle
 10
347.3616106146575
 20
460.3931335417739
 30
0.0
 40
205.0
100
AcDbArc
 50
243.4958136323903
 51
356.5041863676107
  0
LINE
  5
908
330
1F
100
AcDbEntity
  8
PEF-390A
100
AcDbLine
 10
347.3616106146591
 20
222.0798805297257
 30
0.0
 11
347.3616106146562
 21
704.0075913730992
 31
0.0
  0
ARC
  5
909
330
1F
100
AcDbEntity
  8
PEF-390A
100
AcDbCircle
 10
347.3616106146575
 20
460.3931335417739
 30
0.0
 40
204.9999999999999
100
AcDbArc
 50
123.4958136323904
 51
236.5041863676105
  0
LINE
  5
90A
330
1F
100
AcDbEntity
  8
PEF-390A
100
AcDbLine
 10
322.3616106146576
 20
425.3931335417739
 30
0.0
 11
322.3616106146578
 21
319.6806607470708
 31
0.0
  0
ARC
  5
90B
330
1F
100
AcDbEntity
  8
PEF-390A
100
AcDbCircle
 10
347.3616106146575
 20
460.3931335417739
 30
0.0
 40
154.9999999999999
100
AcDbArc
 50
193.967962674651
 51
256.0320373253488
  0
LINE
  5
90C
330
1F
100
AcDbEntity
  8
PEF-390A
100
AcDbLine
 10
372.3616106146578
 20
319.6806607470708
 30
0.0
 11
372.3616106146575
 21
425.3931335417739
 31
0.0
  0
ARC
  5
90D
330
1F
100
AcDbEntity
  8
PEF-390A
100
AcDbCircle
 10
347.3616106146575
 20
460.3931335417739
 30
0.0
 40
192.0
100
AcDbArc
 50
248.0001247883776
 51
351.9998752116224
  0
ARC
  5
90E
330
1F
100
AcDbEntity
  8
PEF-390A
100
AcDbCircle
 10
347.3616106146575
 20
460.3931335417739
 30
0.0
 40
192.0
100
AcDbArc
 50
128.0001247883778
 51
231.9998752116223
  0
ARC
  5
90F
330
1F
100
AcDbEntity
  8
PEF-390A
100
AcDbCircle
 10
347.3616106146575
 20
460.3931335417739
 30
0.0
 40
155.0
100
AcDbArc
 50
283.9679626746511
 51
346.032037325349
  0
LINE
  5
910
330
1F
100
AcDbEntity
  8
PEF-390A
100
AcDbLine
 10
235.911968226308
 20
320.8742614382213
 30
0.0
 11
214.553948453208
 21
304.2293577446631
 31
0.0
  0
ARC
  5
911
330
1F
100
AcDbEntity
  8
PEF-390A
100
AcDbCircle
 10
223.6179239070128
 20
336.6494468341274
 30
0.0
 40
20.00000000000001
100
AcDbArc
 50
307.9302859576968
 51
142.0697140423038
  0
CIRCLE
  5
912
330
1F
100
AcDbEntity
  8
PEF-390A
100
AcDbCircle
 10
223.6179239070124
 20
336.6494468341274
 30
0.0
 40
11.0
  0
ARC
  5
913
330
1F
100
AcDbEntity
  8
PEF-390A
100
AcDbCircle
 10
347.3616106146575
 20
460.3931335417739
 30
0.0
 40
174.9999999999999
100
AcDbArc
 50
217.8624667875481
 51
239.2163909558258
  0
LINE
  5
914
330
1F
100
AcDbEntity
  8
PEF-390A
100
AcDbLine
 10
166.9719366095195
 20
280.003459536633
 30
0.0
 11
241.5589136308546
 21
354.5904365579691
 31
0.0
  0
LINE
  5
916
330
1F
100
AcDbEntity
  8
PEF-390A
100
AcDbLine
 10
214.553948453208
 20
304.2293577446631
 30
0.0
 11
185.0324097214646
 21
281.2223948194579
 31
0.0
  0
ARC
  5
917
330
1F
100
AcDbEntity
  8
PEF-390A
100
AcDbCircle
 10
177.6559831298875
 20
290.6875060570013
 30
0.0
 40
11.99999999999996
100
AcDbArc
 50
142.0697140423035
 51
307.9302859576968
  0
LINE
  5
918
330
1F
100
AcDbEntity
  8
PEF-390A
100
AcDbLine
 10
191.1978348175488
 20
327.5854713803221
 30
0.0
 11
168.1908718923438
 21
298.0639326485783
 31
0.0
  0
LINE
  5
919
330
1F
100
AcDbEntity
  8
PEF-390A
100
AcDbLine
 10
175.3084264801651
 20
314.2482661423201
 30
0.0
 11
201.4412966850612
 21
288.1153959374244
 31
0.0
  0
LINE
  5
91A
330
1F
100
AcDbEntity
  8
PEF-390A
100
AcDbLine
 10
180.1308568640406
 20
288.2126323228483
 30
0.0
 11
201.3440602996368
 21
309.4258357584451
 31
0.0
  0
LINE
  5
91B
330
1F
100
AcDbEntity
  8
PEF-390A
100
AcDbLine
 10
196.3943128313309
 20
314.3755832267506
 30
0.0
 11
175.1811093957349
 21
293.1623797911543
 31
0.0
  0
POINT
  5
91C
330
1F
100
AcDbEntity
  8
PEF-390A
100
AcDbPoint
 10
188.2625848476855
 20
301.2941077747996
 30
0.0
  0
ARC
  5
91D
330
1F
100
AcDbEntity
  8
PEF-390A
100
AcDbCircle
 10
177.6559831298875
 20
290.6875060570013
 30
0.0
 40
3.499999999999948
100
AcDbArc
 50
135.0
 51
315.0000000000003
  0
ARC
  5
91E
330
1F
100
AcDbEntity
  8
PEF-390A
100
AcDbCircle
 10
198.8691865654838
 20
311.900709492598
 30
0.0
 40
3.500000000000006
100
AcDbArc
 50
315.0000000000003
 51
134.9999999999992
  0
LINE
  5
91F
330
1F
100
AcDbEntity
  8
PEF-390A
100
AcDbLine
 10
207.8427385111067
 20
348.9434911534223
 30
0.0
 11
191.1978348175488
 21
327.5854713803221
 31
0.0
  0
ARC
  5
920
330
1F
100
AcDbEntity
  8
PEF-390A
100
AcDbCircle
 10
171.7051363190403
 20
360.6494468341268
 30
0.0
 40
3.000000000000122
100
AcDbArc
 50
209.5893756183765
 51
270.0
  0
LINE
  5
921
330
1F
100
AcDbEntity
  8
PEF-390A
100
AcDbLine
 10
171.7051363190404
 20
357.6494468341266
 30
0.0
 11
185.1650163763771
 21
357.6494506804422
 31
0.0
  0
LINE
  5
922
330
1F
100
AcDbEntity
  8
PEF-390A
100
AcDbLine
 10
245.0984708938436
 20
294.268179803808
 30
0.0
 11
239.0984708938439
 21
283.8758749583947
 31
0.0
  0
LINE
  5
923
330
1F
100
AcDbEntity
  8
PEF-390A
100
AcDbLine
 10
248.6247503354725
 20
278.3758749583947
 30
0.0
 11
254.6247503354726
 21
288.7681798038078
 31
0.0
  0
ARC
  5
924
330
1F
100
AcDbEntity
  8
PEF-390A
100
AcDbCircle
 10
347.3616106146575
 20
460.3931335417739
 30
0.0
 40
205.0
100
AcDbArc
 50
236.5041863676105
 51
243.4958136323903
  0
LINE
  5
925
330
1F
100
AcDbEntity
  8
PEF-390A
100
AcDbLine
 10
254.6247503354738
 20
288.7681798038073
 30
0.0
 11
248.8747503354738
 21
278.8088876602864
 31
0.0
  0
LINE
  5
926
330
1F
100
AcDbEntity
  8
PEF-390A
100
AcDbLine
 10
239.348470893845
 20
284.3088876602863
 30
0.0
 11
245.0984708938448
 21
294.2681798038072
 31
0.0
  0
LINE
  5
927
330
1F
100
AcDbEntity
  8
PEF-390A
100
AcDbLine
 10
251.722992517919
 20
284.742187832546
 30
0.0
 11
264.1917376335801
 21
306.3386878794971
 31
0.0
  0
LINE
  5
928
330
1F
100
AcDbEntity
  8
PEF-390A
100
AcDbLine
 10
251.020969742101
 20
285.1262487167588
 30
0.0
 11
265.9989173105524
 21
311.0688148984193
 31
0.0
  0
LINE
  5
929
330
1F
100
AcDbEntity
  8
PEF-390A
100
AcDbLine
 10
234.5700797326793
 20
265.032471390713
 30
0.0
 11
269.8616106146578
 21
326.1591959551858
 31
0.0
  0
ARC
  5
92A
330
1F
100
AcDbEntity
  8
PEF-390A
100
AcDbCircle
 10
347.3616106146578
 20
460.3931335417739
 30
0.0
 40
195.0
100
AcDbArc
 50
236.3246736132388
 51
243.6753263867614
  0
LINE
  5
92B
330
1F
100
AcDbEntity
  8
PEF-390A
100
AcDbLine
 10
239.7862930673527
 20
299.0672179094845
 30
0.0
 11
261.4369281619638
 21
286.5672179094847
 31
0.0
  0
ARC
  5
92C
330
1F
100
AcDbEntity
  8
PEF-390A
100
AcDbCircle
 10
347.3616106146578
 20
460.3931335417739
 30
0.0
 40
200.0
100
AcDbArc
 50
236.4166783015281
 51
243.583321698472
  0
LINE
  5
92D
330
1F
100
AcDbEntity
  8
PEF-390A
100
AcDbLine
 10
238.5362930673526
 20
296.9021544000235
 30
0.0
 11
260.1869281619638
 21
284.4021544000236
 31
0.0
  0
LINE
  5
92E
330
1F
100
AcDbEntity
  8
PEF-390A
100
AcDbLine
 10
239.0362930673525
 20
297.768179803808
 30
0.0
 11
260.6869281619637
 21
285.268179803808
 31
0.0
  0
LINE
  5
92F
330
1F
100
AcDbEntity
  8
PEF-390A
100
AcDbLine
 10
227.7862930673526
 20
278.2826082186579
 30
0.0
 11
239.7862930673527
 21
299.0672179094845
 31
0.0
  0
ARC
  5
930
330
1F
100
AcDbEntity
  8
PEF-390A
100
AcDbCircle
 10
347.3616106146575
 20
460.3931335417739
 30
0.0
 40
199.9999999999999
100
AcDbArc
 50
236.4166783015285
 51
243.5833216984725
  0
ARC
  5
932
330
1F
100
AcDbEntity
  8
PEF-390A
100
AcDbCircle
 10
347.3616106146575
 20
460.3931335417739
 30
0.0
 40
195.0
100
AcDbArc
 50
232.6341141710352
 51
247.3658858289645
  0
LINE
  5
933
330
1F
100
AcDbEntity
  8
PEF-390A
100
AcDbLine
 10
261.4369281619639
 20
286.5672179094848
 30
0.0
 11
249.4369281619638
 21
265.7826082186579
 31
0.0
  0
ARC
  5
934
330
1F
100
AcDbEntity
  8
PEF-390A
100
AcDbCircle
 10
347.3616106146575
 20
460.3931335417739
 30
0.0
 40
200.0
100
AcDbArc
 50
243.5833216984725
 51
247.1807557814582
  0
LINE
  5
935
330
1F
100
AcDbEntity
  8
PEF-390A
100
AcDbLine
 10
236.2838883315444
 20
285.5008749583948
 30
0.0
 11
251.4393328977721
 21
276.7508749583947
 31
0.0
  0
LINE
  5
936
330
1F
100
AcDbEntity
  8
PEF-390A
100
AcDbLine
 10
249.4369281619638
 20
265.7826082186579
 30
0.0
 11
227.7862930673526
 21
278.2826082186579
 31
0.0
  0
LINE
  5
937
330
1F
100
AcDbEntity
  8
PEF-390A
100
AcDbLine
 10
231.0338883315444
 20
276.4076082186579
 30
0.0
 11
236.2838883315444
 21
285.5008749583948
 31
0.0
  0
LINE
  5
938
330
1F
100
AcDbEntity
  8
PEF-390A
100
AcDbLine
 10
251.4393328977721
 20
276.7508749583947
 30
0.0
 11
246.189332897772
 21
267.6576082186579
 31
0.0
  0
ARC
  5
939
330
1F
100
AcDbEntity
  8
PEF-390A
100
AcDbCircle
 10
247.617923907013
 20
284.7366592461553
 30
0.0
 40
3.0
100
AcDbArc
 50
180.0000000000014
 51
240.4106243816243
  0
LINE
  5
93A
330
1F
100
AcDbEntity
  8
PEF-390A
100
AcDbLine
 10
269.7965715443463
 20
276.0465449809299
 30
0.0
 11
272.9562724436775
 21
281.5193074752918
 31
0.0
  0
ARC
  5
93B
330
1F
100
AcDbEntity
  8
PEF-390A
100
AcDbCircle
 10
274.6883232512465
 20
280.5193074752916
 30
0.0
 40
2.000000000000013
100
AcDbArc
 50
68.00012478837878
 51
150.0000000000009
  0
LINE
  5
93D
330
1F
100
AcDbEntity
  8
PEF-390A
100
AcDbLine
 10
258.7243039187633
 20
315.2688148984192
 30
0.0
 11
263.5740461799561
 21
315.2688148984192
 31
0.0
  0
LINE
  5
93E
330
1F
100
AcDbEntity
  8
PEF-390A
100
AcDbLine
 10
258.7243039187633
 20
315.2688148984192
 30
0.0
 11
265.9989173105524
 21
311.0688148984193
 31
0.0
  0
LINE
  5
93F
330
1F
100
AcDbEntity
  8
PEF-390A
100
AcDbLine
 10
255.5314835957357
 20
311.3386878794969
 30
0.0
 11
264.1917376335801
 21
306.3386878794971
 31
0.0
  0
LINE
  5
940
330
1F
100
AcDbEntity
  8
PEF-390A
100
AcDbLine
 10
226.4953013551247
 20
301.0465449809298
 30
0.0
 11
229.6550022544556
 21
306.5193074752918
 31
0.0
  0
ARC
  5
941
330
1F
100
AcDbEntity
  8
PEF-390A
100
AcDbCircle
 10
347.3616106146575
 20
460.3931335417739
 30
0.0
 40
200.0
100
AcDbArc
 50
232.8192442185418
 51
236.4166783015285
  0
ARC
  5
942
330
1F
100
AcDbEntity
  8
PEF-390A
100
AcDbCircle
 10
227.9229514468867
 20
307.5193074752918
 30
0.0
 40
1.999999999999965
100
AcDbArc
 50
330.0000000000026
 51
51.99987521162245
  0
LINE
  5
943
330
1F
100
AcDbEntity
  8
PEF-390A
100
AcDbLine
 10
243.0627384800747
 20
289.7421878325459
 30
0.0
 11
255.5314835957357
 21
311.3386878794969
 31
0.0
  0
LINE
  5
944
330
1F
100
AcDbEntity
  8
PEF-390A
100
AcDbLine
 10
243.7463563503118
 20
289.3262487167588
 30
0.0
 11
258.7243039187633
 21
315.2688148984192
 31
0.0
  0
LINE
  5
945
330
1F
100
AcDbEntity
  8
PEF-390A
100
AcDbLine
 10
255.5314835957357
 20
311.3386878794969
 30
0.0
 11
256.9171242417908
 21
312.1386878794971
 31
0.0
  0
CIRCLE
  5
946
330
1F
100
AcDbEntity
  8
PEF-390A
100
AcDbCircle
 10
223.6179239070124
 20
336.6494468341274
 30
0.0
 40
3.300000000000011
  0
CIRCLE
  5
947
330
1F
100
AcDbEntity
  8
PEF-390A
100
AcDbCircle
 10
223.6179239070124
 20
336.6494468341274
 30
0.0
 40
4.0
  0
CIRCLE
  5
948
330
1F
100
AcDbEntity
  8
PEF-390A
100
AcDbCircle
 10
223.6179239070124
 20
336.6494468341274
 30
0.0
 40
6.25
  0
LINE
  5
949
330
1F
100
AcDbEntity
  8
PEF-390A
100
AcDbLine
 10
228.9251492085473
 20
341.9566721356622
 30
0.0
 11
230.8677284925168
 21
334.7068675501583
 31
0.0
  0
LINE
  5
94A
330
1F
100
AcDbEntity
  8
PEF-390A
100
AcDbLine
 10
218.310698605478
 20
331.3422215325926
 30
0.0
 11
216.3681193215091
 21
338.5920261180964
 31
0.0
  0
LINE
  5
94B
330
1F
100
AcDbEntity
  8
PEF-390A
100
AcDbLine
 10
230.8677284925168
 20
334.7068675501583
 30
0.0
 11
225.560503190982
 21
329.3996422486236
 31
0.0
  0
LINE
  5
94C
330
1F
100
AcDbEntity
  8
PEF-390A
100
AcDbLine
 10
225.560503190982
 20
329.3996422486236
 30
0.0
 11
218.310698605478
 21
331.3422215325926
 31
0.0
  0
LINE
  5
94D
330
1F
100
AcDbEntity
  8
PEF-390A
100
AcDbLine
 10
221.6753446230435
 20
343.8992514196313
 30
0.0
 11
228.9251492085473
 21
341.9566721356622
 31
0.0
  0
LINE
  5
94E
330
1F
100
AcDbEntity
  8
PEF-390A
100
AcDbLine
 10
216.3681193215091
 20
338.5920261180964
 30
0.0
 11
221.6753446230435
 21
343.8992514196313
 31
0.0
  0
LINE
  5
950
330
1F
100
AcDbEntity
  8
PEF-390A
100
AcDbLine
 10
264.1917376335801
 20
306.3386878794971
 30
0.0
 11
264.1917376335801
 21
307.938687879497
 31
0.0
  0
LINE
  5
951
330
1F
100
AcDbEntity
  8
PEF-390A
100
AcDbLine
 10
265.9989173105524
 20
311.0688148984193
 30
0.0
 11
263.5740461799561
 21
315.2688148984192
 31
0.0
  0
ARC
  5
953
330
1F
100
AcDbEntity
  8
PEF-390A
100
AcDbCircle
 10
312.3616106146576
 20
319.6806607470708
 30
0.0
 40
9.999999999999984
100
AcDbArc
 50
256.0320373253488
 51
0.0
  0
ARC
  5
954
330
1F
100
AcDbEntity
  8
PEF-390A
100
AcDbCircle
 10
382.3616106146578
 20
319.6806607470708
 30
0.0
 40
10.0
100
AcDbArc
 50
179.9999999999992
 51
283.9679626746506
  0
LINE
  5
955
330
1F
100
AcDbEntity
  8
PEF-390A
100
AcDbLine
 10
527.7512846197986
 20
280.0034595366359
 30
0.0
 11
453.1643075984625
 21
354.5904365579708
 31
0.0
  0
LINE
  5
956
330
1F
100
AcDbEntity
  8
PEF-390A
100
AcDbLine
 10
480.1692727761095
 20
304.2293577446648
 30
0.0
 11
509.6908115078533
 21
281.2223948194604
 31
0.0
  0
ARC
  5
957
330
1F
100
AcDbEntity
  8
PEF-390A
100
AcDbCircle
 10
517.0672380994301
 20
290.6875060570042
 30
0.0
 40
11.99999999999998
100
AcDbArc
 50
232.0697140423035
 51
37.930285957697
  0
ARC
  5
958
330
1F
100
AcDbEntity
  8
PEF-390A
100
AcDbCircle
 10
517.0672380994301
 20
290.6875060570042
 30
0.0
 40
3.500000000000038
100
AcDbArc
 50
225.000000000001
 51
45.00000000000015
  0
LINE
  5
959
330
1F
100
AcDbEntity
  8
PEF-390A
100
AcDbLine
 10
450.1052973223046
 20
284.7366592461566
 30
0.0
 11
450.105293475987
 21
298.1965393034918
 31
0.0
  0
ARC
  5
95B
330
1F
100
AcDbEntity
  8
PEF-390A
100
AcDbCircle
 10
447.1052973223045
 20
284.7366592461566
 30
0.0
 40
3.0
100
AcDbArc
 50
299.5893756183778
 51
0.0000000000016284
  0
ARC
  5
95C
330
1F
100
AcDbEntity
  8
PEF-390A
100
AcDbCircle
 10
471.1052973223043
 20
336.6494468341294
 30
0.0
 40
20.0
100
AcDbArc
 50
37.93028595769708
 51
232.0697140423035
  0
LINE
  5
95F
330
1F
100
AcDbEntity
  8
PEF-390A
100
AcDbLine
 10
458.8112530030092
 20
320.8742614382233
 30
0.0
 11
480.1692727761095
 21
304.2293577446648
 31
0.0
  0
CIRCLE
  5
961
330
1F
100
AcDbEntity
  8
PEF-390A
100
AcDbCircle
 10
471.1052973223043
 20
336.649446834129
 30
0.0
 40
10.99999999999999
  0
CIRCLE
  5
963
330
1F
100
AcDbEntity
  8
PEF-390A
100
AcDbCircle
 10
471.1052973223043
 20
336.649446834129
 30
0.0
 40
3.299999999999982
  0
CIRCLE
  5
964
330
1F
100
AcDbEntity
  8
PEF-390A
100
AcDbCircle
 10
471.1052973223043
 20
336.649446834129
 30
0.0
 40
3.999999999999984
  0
CIRCLE
  5
965
330
1F
100
AcDbEntity
  8
PEF-390A
100
AcDbCircle
 10
471.1052973223043
 20
336.649446834129
 30
0.0
 40
6.249999999999985
  0
LINE
  5
966
330
1F
100
AcDbEntity
  8
PEF-390A
100
AcDbLine
 10
478.3551019078081
 20
338.5920261180982
 30
0.0
 11
476.4125226238386
 21
331.3422215325942
 31
0.0
  0
LINE
  5
967
330
1F
100
AcDbEntity
  8
PEF-390A
100
AcDbLine
 10
463.8554927368003
 20
334.7068675501597
 30
0.0
 11
465.7980720207693
 21
341.9566721356636
 31
0.0
  0
POINT
  5
968
330
1F
100
AcDbEntity
  8
PEF-390A
100
AcDbPoint
 10
471.1052973223043
 20
336.649446834129
 30
0.0
  0
LINE
  5
969
330
1F
100
AcDbEntity
  8
PEF-390A
100
AcDbLine
 10
476.4125226238386
 20
331.3422215325942
 30
0.0
 11
469.1627180383351
 21
329.3996422486252
 31
0.0
  0
LINE
  5
96A
330
1F
100
AcDbEntity
  8
PEF-390A
100
AcDbLine
 10
469.1627180383351
 20
329.3996422486252
 30
0.0
 11
463.8554927368003
 21
334.7068675501597
 31
0.0
  0
LINE
  5
96B
330
1F
100
AcDbEntity
  8
PEF-390A
100
AcDbLine
 10
473.0478766062732
 20
343.8992514196331
 30
0.0
 11
478.3551019078081
 21
338.5920261180982
 31
0.0
  0
LINE
  5
96C
330
1F
100
AcDbEntity
  8
PEF-390A
100
AcDbLine
 10
465.7980720207693
 20
341.9566721356636
 30
0.0
 11
473.0478766062732
 21
343.8992514196331
 31
0.0
  0
LINE
  5
96E
330
1F
100
AcDbEntity
  8
PEF-390A
100
AcDbLine
 10
503.5253864117686
 20
327.5854713803246
 30
0.0
 11
526.532349336974
 21
298.0639326485808
 31
0.0
  0
LINE
  5
96F
330
1F
100
AcDbEntity
  8
PEF-390A
100
AcDbLine
 10
493.5064780141114
 20
288.3399494072815
 30
0.0
 11
519.6393482190074
 21
314.4728196121775
 31
0.0
  0
LINE
  5
970
330
1F
100
AcDbEntity
  8
PEF-390A
100
AcDbLine
 10
519.5421118335831
 20
293.1623797911568
 30
0.0
 11
498.3289083979865
 21
314.3755832267534
 31
0.0
  0
LINE
  5
971
330
1F
100
AcDbEntity
  8
PEF-390A
100
AcDbLine
 10
493.3791609296807
 20
309.4258357584473
 30
0.0
 11
514.5923643652776
 21
288.2126323228511
 31
0.0
  0
POINT
  5
972
330
1F
100
AcDbEntity
  8
PEF-390A
100
AcDbPoint
 10
506.460636381632
 20
301.2941077748021
 30
0.0
  0
ARC
  5
973
330
1F
100
AcDbEntity
  8
PEF-390A
100
AcDbCircle
 10
495.8540346638335
 20
311.9007094926002
 30
0.0
 40
3.499999999999976
100
AcDbArc
 50
45.00000000000015
 51
225.000000000001
  0
LINE
  5
974
330
1F
100
AcDbEntity
  8
PEF-390A
100
AcDbLine
 10
486.8804827182101
 20
348.9434911534246
 30
0.0
 11
503.5253864117686
 21
327.5854713803246
 31
0.0
  0
LINE
  5
975
330
1F
100
AcDbEntity
  8
PEF-390A
100
AcDbLine
 10
509.5582048529398
 20
357.6494506804456
 30
0.0
 11
523.0180849102761
 21
357.6494468341293
 31
0.0
  0
ARC
  5
976
330
1F
100
AcDbEntity
  8
PEF-390A
100
AcDbCircle
 10
523.018084910276
 20
360.6494468341293
 30
0.0
 40
3.0
100
AcDbArc
 50
270.0000000000005
 51
330.4106243816235
  0
LINE
  5
977
330
1F
100
AcDbEntity
  8
PEF-390A
100
AcDbLine
 10
235.9119682263058
 20
599.9120056453248
 30
0.0
 11
214.5539484532054
 21
616.5569093388827
 31
0.0
  0
ARC
  5
978
330
1F
100
AcDbEntity
  8
PEF-390A
100
AcDbCircle
 10
223.6179239070108
 20
584.1368202494186
 30
0.0
 40
20.00000000000006
100
AcDbArc
 50
217.9302859576967
 51
52.06971404230414
  0
CIRCLE
  5
979
330
1F
100
AcDbEntity
  8
PEF-390A
100
AcDbCircle
 10
223.6179239070111
 20
584.1368202494187
 30
0.0
 40
11.0
  0
LINE
  5
97B
330
1F
100
AcDbEntity
  8
PEF-390A
100
AcDbLine
 10
166.9719366095167
 20
640.7828075469121
 30
0.0
 11
241.5589136308529
 21
566.1958305255771
 31
0.0
  0
LINE
  5
97D
330
1F
100
AcDbEntity
  8
PEF-390A
100
AcDbLine
 10
206.6491378199545
 20
435.3931335417739
 30
0.0
 11
312.3616106146578
 21
435.393133541774
 31
0.0
  0
LINE
  5
97E
330
1F
100
AcDbEntity
  8
PEF-390A
100
AcDbLine
 10
312.361610614658
 20
485.3931335417739
 30
0.0
 11
206.6491378199551
 21
485.3931335417739
 31
0.0
  0
ARC
  5
97F
330
1F
100
AcDbEntity
  8
PEF-390A
100
AcDbCircle
 10
347.3616106146575
 20
460.3931335417739
 30
0.0
 40
155.0
100
AcDbArc
 50
103.9679626746512
 51
166.0320373253489
  0
LINE
  5
980
330
1F
100
AcDbEntity
  8
PEF-390A
100
AcDbLine
 10
149.8616106146578
 20
448.1614384114205
 30
0.0
 11
149.8616106146575
 21
472.6263924260325
 31
0.0
  0
CIRCLE
  5
981
330
1F
100
AcDbEntity
  8
PEF-390A
100
AcDbCircle
 10
149.8616106146575
 20
460.3931335417723
 30
0.0
 40
2.0
  0
CIRCLE
  5
982
330
1F
100
AcDbEntity
  8
PEF-390A
100
AcDbCircle
 10
149.8616106146575
 20
460.3931335417723
 30
0.0
 40
1.650000000000034
  0
ARC
  5
983
330
1F
100
AcDbEntity
  8
PEF-390A
100
AcDbCircle
 10
206.6491378199549
 20
425.3931335417739
 30
0.0
 40
10.0
100
AcDbArc
 50
90.0
 51
193.967962674651
  0
ARC
  5
984
330
1F
100
AcDbEntity
  8
PEF-390A
100
AcDbCircle
 10
206.6491378199549
 20
495.3931335417737
 30
0.0
 40
9.99999999999998
100
AcDbArc
 50
166.0320373253485
 51
270.0
  0
LINE
  5
985
330
1F
100
AcDbEntity
  8
PEF-390A
100
AcDbLine
 10
201.2167432152037
 20
632.4463176762666
 30
0.0
 11
175.083873010308
 21
606.3134474713705
 31
0.0
  0
LINE
  5
986
330
1F
100
AcDbEntity
  8
PEF-390A
100
AcDbLine
 10
175.1811093957318
 20
627.6238872923912
 30
0.0
 11
196.3943128313285
 21
606.4106838567949
 31
0.0
  0
LINE
  5
987
330
1F
100
AcDbEntity
  8
PEF-390A
100
AcDbLine
 10
201.3440602996345
 20
611.3604313251007
 30
0.0
 11
180.1308568640378
 21
632.5736347606969
 31
0.0
  0
LINE
  5
988
330
1F
100
AcDbEntity
  8
PEF-390A
100
AcDbLine
 10
191.1978348175469
 20
593.2007957032237
 30
0.0
 11
168.1908718923413
 21
622.7223344349669
 31
0.0
  0
ARC
  5
989
330
1F
100
AcDbEntity
  8
PEF-390A
100
AcDbCircle
 10
171.7051363190388
 20
560.1368202494183
 30
0.0
 40
2.999999999999984
100
AcDbArc
 50
90.0
 51
150.4106243816216
  0
LINE
  5
98A
330
1F
100
AcDbEntity
  8
PEF-390A
100
AcDbLine
 10
207.842738511105
 20
571.8427759301232
 30
0.0
 11
191.1978348175469
 21
593.2007957032237
 31
0.0
  0
LINE
  5
98B
330
1F
100
AcDbEntity
  8
PEF-390A
100
AcDbLine
 10
185.165016376375
 20
563.1368202177957
 30
0.0
 11
171.7051363190388
 21
563.1368202494184
 31
0.0
  0
ARC
  5
98C
330
1F
100
AcDbEntity
  8
PEF-390A
100
AcDbCircle
 10
198.8691865654814
 20
608.8855575909478
 30
0.0
 40
3.500000000000087
100
AcDbArc
 50
225.000000000001
 51
45.00000000000036
  0
ARC
  5
98D
330
1F
100
AcDbEntity
  8
PEF-390A
100
AcDbCircle
 10
177.6559831298849
 20
630.098761026544
 30
0.0
 40
12.00000000000001
100
AcDbArc
 50
52.06971404230343
 51
217.9302859576969
  0
LINE
  5
98E
330
1F
100
AcDbEntity
  8
PEF-390A
100
AcDbLine
 10
214.5539484532054
 20
616.5569093388827
 30
0.0
 11
185.0324097214621
 21
639.5638722640877
 31
0.0
  0
ARC
  5
98F
330
1F
100
AcDbEntity
  8
PEF-390A
100
AcDbCircle
 10
177.6559831298849
 20
630.098761026544
 30
0.0
 40
3.500000000000006
100
AcDbArc
 50
44.99999999999963
 51
225.0
  0
POINT
  5
990
330
1F
100
AcDbEntity
  8
PEF-390A
100
AcDbPoint
 10
188.2625848476831
 20
619.492159308746
 30
0.0
  0
ARC
  5
991
330
1F
100
AcDbEntity
  8
PEF-390A
100
AcDbCircle
 10
347.3616106146575
 20
460.3931335417739
 30
0.0
 40
192.0
100
AcDbArc
 50
8.000124788377558
 51
111.9998752116225
  0
LINE
  5
992
330
1F
100
AcDbEntity
  8
PEF-390A
100
AcDbLine
 10
488.0740834093606
 20
485.393133541774
 30
0.0
 11
382.3616106146578
 21
485.393133541774
 31
0.0
  0
ARC
  5
993
330
1F
100
AcDbEntity
  8
PEF-390A
100
AcDbCircle
 10
347.3616106146575
 20
460.3931335417739
 30
0.0
 40
155.0
100
AcDbArc
 50
13.96796267465099
 51
76.0320373253489
  0
LINE
  5
994
330
1F
100
AcDbEntity
  8
PEF-390A
100
AcDbLine
 10
382.3616106146578
 20
435.393133541774
 30
0.0
 11
488.0740834093606
 21
435.393133541774
 31
0.0
  0
LINE
  5
995
330
1F
100
AcDbEntity
  8
PEF-390A
100
AcDbLine
 10
322.3616106146576
 20
601.1056063364767
 30
0.0
 11
322.3616106146578
 21
495.3931335417739
 31
0.0
  0
LINE
  5
996
330
1F
100
AcDbEntity
  8
PEF-390A
100
AcDbLine
 10
372.3616106146575
 20
495.3931335417739
 30
0.0
 11
372.3616106146575
 21
601.1056063364767
 31
0.0
  0
CIRCLE
  5
997
330
1F
100
AcDbEntity
  8
PEF-390A
100
AcDbCircle
 10
347.3616106146575
 20
460.3931335417739
 30
0.0
 40
8.0
  0
CIRCLE
  5
998
330
1F
100
AcDbEntity
  8
PEF-390A
100
AcDbCircle
 10
347.3616106146575
 20
460.3931335417739
 30
0.0
 40
7.0
  0
ARC
  5
999
330
1F
100
AcDbEntity
  8
PEF-390A
100
AcDbCircle
 10
312.3616106146578
 20
425.3931335417739
 30
0.0
 40
10.0
100
AcDbArc
 50
0.0
 51
90.0
  0
ARC
  5
99A
330
1F
100
AcDbEntity
  8
PEF-390A
100
AcDbCircle
 10
382.3616106146575
 20
425.3931335417741
 30
0.0
 40
10.0
100
AcDbArc
 50
90.0
 51
179.9999999999998
  0
ARC
  5
99B
330
1F
100
AcDbEntity
  8
PEF-390A
100
AcDbCircle
 10
312.3616106146578
 20
495.3931335417737
 30
0.0
 40
10.0
100
AcDbArc
 50
269.9999999999993
 51
0.0
  0
ARC
  5
99C
330
1F
100
AcDbEntity
  8
PEF-390A
100
AcDbCircle
 10
382.3616106146575
 20
495.3931335417737
 30
0.0
 40
10.0
100
AcDbArc
 50
180.0
 51
270.0
  0
LINE
  5
99D
330
1F
100
AcDbEntity
  8
PEF-390A
100
AcDbLine
 10
264.1917376335799
 20
614.4475792040505
 30
0.0
 11
264.1917376335797
 21
612.8475792040505
 31
0.0
  0
LINE
  5
99E
330
1F
100
AcDbEntity
  8
PEF-390A
100
AcDbLine
 10
264.1917376335799
 20
614.4475792040505
 30
0.0
 11
255.5314835957353
 21
609.4475792040507
 31
0.0
  0
LINE
  5
99F
330
1F
100
AcDbEntity
  8
PEF-390A
100
AcDbLine
 10
243.0627384800744
 20
631.0440792510019
 30
0.0
 11
255.5314835957353
 21
609.4475792040507
 31
0.0
  0
LINE
  5
9A0
330
1F
100
AcDbEntity
  8
PEF-390A
100
AcDbLine
 10
243.7463563503115
 20
631.4600183667887
 30
0.0
 11
258.7243039187628
 21
605.5174521851284
 31
0.0
  0
LINE
  5
9A1
330
1F
100
AcDbEntity
  8
PEF-390A
100
AcDbLine
 10
251.0209697421009
 20
635.6600183667889
 30
0.0
 11
265.9989173105523
 21
609.7174521851284
 31
0.0
  0
LINE
  5
9A2
330
1F
100
AcDbEntity
  8
PEF-390A
100
AcDbLine
 10
233.4561645854754
 20
657.6831533231127
 30
0.0
 11
269.8616106146575
 21
594.6270711283617
 31
0.0
  0
ARC
  5
9A4
330
1F
100
AcDbEntity
  8
PEF-390A
100
AcDbCircle
 10
227.9229514468863
 20
613.266959608256
 30
0.0
 40
2.000000000000041
100
AcDbArc
 50
308.0001247883757
 51
29.99999999999692
  0
LINE
  5
9A5
330
1F
100
AcDbEntity
  8
PEF-390A
100
AcDbLine
 10
258.7243039187628
 20
605.5174521851284
 30
0.0
 11
263.5740461799558
 21
605.5174521851284
 31
0.0
  0
LINE
  5
9A6
330
1F
100
AcDbEntity
  8
PEF-390A
100
AcDbLine
 10
265.9989173105523
 20
609.7174521851284
 30
0.0
 11
258.7243039187628
 21
605.5174521851284
 31
0.0
  0
CIRCLE
  5
9A7
330
1F
100
AcDbEntity
  8
PEF-390A
100
AcDbCircle
 10
223.6179239070111
 20
584.1368202494187
 30
0.0
 40
4.0
  0
CIRCLE
  5
9A8
330
1F
100
AcDbEntity
  8
PEF-390A
100
AcDbCircle
 10
223.6179239070111
 20
584.1368202494187
 30
0.0
 40
6.25
  0
LINE
  5
9A9
330
1F
100
AcDbEntity
  8
PEF-390A
100
AcDbLine
 10
221.6753446230419
 20
576.887015663915
 30
0.0
 11
216.3681193215071
 21
582.1942409654496
 31
0.0
  0
LINE
  5
9AA
330
1F
100
AcDbEntity
  8
PEF-390A
100
AcDbLine
 10
230.867728492515
 20
586.0793995333881
 30
0.0
 11
228.9251492085456
 21
578.8295949478841
 31
0.0
  0
LINE
  5
9AE
330
1F
100
AcDbEntity
  8
PEF-390A
100
AcDbLine
 10
228.9251492085456
 20
578.8295949478841
 30
0.0
 11
221.6753446230419
 21
576.887015663915
 31
0.0
  0
LINE
  5
9AF
330
1F
100
AcDbEntity
  8
PEF-390A
100
AcDbLine
 10
225.5605031909801
 20
591.3866248349227
 30
0.0
 11
230.867728492515
 21
586.0793995333881
 31
0.0
  0
CIRCLE
  5
9B0
330
1F
100
AcDbEntity
  8
PEF-390A
100
AcDbCircle
 10
223.6179239070111
 20
584.1368202494187
 30
0.0
 40
3.300000000000011
  0
LINE
  5
9B1
330
1F
100
AcDbEntity
  8
PEF-390A
100
AcDbLine
 10
216.3681193215071
 20
582.1942409654496
 30
0.0
 11
218.3106986054763
 21
589.4440455509535
 31
0.0
  0
LINE
  5
9B2
330
1F
100
AcDbEntity
  8
PEF-390A
100
AcDbLine
 10
218.3106986054763
 20
589.4440455509535
 30
0.0
 11
225.5605031909801
 21
591.3866248349227
 31
0.0
  0
LINE
  5
9B3
330
1F
100
AcDbEntity
  8
PEF-390A
100
AcDbLine
 10
255.5314835957353
 20
609.4475792040507
 30
0.0
 11
256.9171242417906
 21
608.6475792040507
 31
0.0
  0
LINE
  5
9B4
330
1F
100
AcDbEntity
  8
PEF-390A
100
AcDbLine
 10
265.9989173105523
 20
609.7174521851284
 30
0.0
 11
263.5740461799558
 21
605.5174521851284
 31
0.0
  0
LINE
  5
9B5
330
1F
100
AcDbEntity
  8
PEF-390A
100
AcDbLine
 10
251.7229925179189
 20
636.0440792510019
 30
0.0
 11
264.1917376335799
 21
614.4475792040505
 31
0.0
  0
LINE
  5
9B6
330
1F
100
AcDbEntity
  8
PEF-390A
100
AcDbLine
 10
239.7862930673503
 20
621.7190491740617
 30
0.0
 11
261.4369281619616
 21
634.219049174062
 31
0.0
  0
LINE
  5
9B7
330
1F
100
AcDbEntity
  8
PEF-390A
100
AcDbLine
 10
261.4369281619616
 20
634.2190491740617
 30
0.0
 11
249.4369281619611
 21
655.0036588648885
 31
0.0
  0
ARC
  5
9B8
330
1F
100
AcDbEntity
  8
PEF-390A
100
AcDbCircle
 10
347.3616106146575
 20
460.3931335417739
 30
0.0
 40
199.9999999999999
100
AcDbArc
 50
112.8192442185419
 51
116.4166783015284
  0
ARC
  5
9B9
330
1F
100
AcDbEntity
  8
PEF-390A
100
AcDbCircle
 10
347.3616106146575
 20
460.3931335417739
 30
0.0
 40
195.0
100
AcDbArc
 50
112.6341141710354
 51
116.3246736132392
  0
LINE
  5
9BA
330
1F
100
AcDbEntity
  8
PEF-390A
100
AcDbLine
 10
251.4393328977697
 20
644.0353921251515
 30
0.0
 11
246.1893328977696
 21
653.1286588648884
 31
0.0
  0
LINE
  5
9BB
330
1F
100
AcDbEntity
  8
PEF-390A
100
AcDbLine
 10
249.4369281619611
 20
655.0036588648885
 30
0.0
 11
227.7862930673502
 21
642.5036588648882
 31
0.0
  0
ARC
  5
9BC
330
1F
100
AcDbEntity
  8
PEF-390A
100
AcDbCircle
 10
347.3616106146575
 20
460.3931335417739
 30
0.0
 40
205.0
100
AcDbArc
 50
116.5041863676105
 51
123.4958136323904
  0
LINE
  5
9BD
330
1F
100
AcDbEntity
  8
PEF-390A
100
AcDbLine
 10
236.2838883315419
 20
635.2853921251512
 30
0.0
 11
251.4393328977697
 21
644.0353921251515
 31
0.0
  0
ARC
  5
9BE
330
1F
100
AcDbEntity
  8
PEF-390A
100
AcDbCircle
 10
347.3616106146575
 20
460.3931335417739
 30
0.0
 40
194.9999999999999
100
AcDbArc
 50
123.6753263867617
 51
127.3658858289644
  0
ARC
  5
9BF
330
1F
100
AcDbEntity
  8
PEF-390A
100
AcDbCircle
 10
347.3616106146575
 20
460.3931335417739
 30
0.0
 40
199.9999999999999
100
AcDbArc
 50
116.4166783015284
 51
123.5833216984725
  0
LINE
  5
9C0
330
1F
100
AcDbEntity
  8
PEF-390A
100
AcDbLine
 10
227.7862930673502
 20
642.5036588648882
 30
0.0
 11
239.7862930673503
 21
621.7190491740617
 31
0.0
  0
ARC
  5
9C1
330
1F
100
AcDbEntity
  8
PEF-390A
100
AcDbCircle
 10
347.3616106146575
 20
460.3931335417739
 30
0.0
 40
199.9999999999999
100
AcDbArc
 50
123.5833216984725
 51
127.1807557814583
  0
LINE
  5
9C2
330
1F
100
AcDbEntity
  8
PEF-390A
100
AcDbLine
 10
226.4953013551243
 20
619.7397221026179
 30
0.0
 11
229.6550022544554
 21
614.2669596082558
 31
0.0
  0
LINE
  5
9C3
330
1F
100
AcDbEntity
  8
PEF-390A
100
AcDbLine
 10
229.0155774909762
 20
615.3744757862153
 30
0.0
 11
229.6550022544538
 21
614.2669596082547
 31
0.0
  0
LINE
  5
9C4
330
1F
100
AcDbEntity
  8
PEF-390A
100
AcDbLine
 10
231.033888331542
 20
644.3786588648881
 30
0.0
 11
236.2838883315419
 21
635.2853921251512
 31
0.0
  0
LINE
  5
9C5
330
1F
100
AcDbEntity
  8
PEF-390A
100
AcDbLine
 10
245.0984708938412
 20
626.5180872797384
 30
0.0
 11
239.0984708938415
 21
636.9103921251515
 31
0.0
  0
ARC
  5
9C6
330
1F
100
AcDbEntity
  8
PEF-390A
100
AcDbCircle
 10
347.3616106146575
 20
460.3931335417739
 30
0.0
 40
194.9999999999999
100
AcDbArc
 50
116.3246736132392
 51
123.6753263867617
  0
LINE
  5
9C7
330
1F
100
AcDbEntity
  8
PEF-390A
100
AcDbLine
 10
238.5362930673502
 20
623.8841126835227
 30
0.0
 11
260.1869281619614
 21
636.384112683523
 31
0.0
  0
LINE
  5
9C8
330
1F
100
AcDbEntity
  8
PEF-390A
100
AcDbLine
 10
239.0362930673503
 20
623.0180872797382
 30
0.0
 11
260.6869281619614
 21
635.5180872797387
 31
0.0
  0
LINE
  5
9C9
330
1F
100
AcDbEntity
  8
PEF-390A
100
AcDbLine
 10
248.6247503354702
 20
642.4103921251517
 30
0.0
 11
254.6247503354702
 21
632.0180872797386
 31
0.0
  0
ARC
  5
9CA
330
1F
100
AcDbEntity
  8
PEF-390A
100
AcDbCircle
 10
247.6179239070102
 20
636.0496078373909
 30
0.0
 40
3.000000000000109
100
AcDbArc
 50
119.5893756183782
 51
180.0
  0
LINE
  5
9CB
330
1F
100
AcDbEntity
  8
PEF-390A
100
AcDbLine
 10
269.7965715443455
 20
644.7397221026179
 30
0.0
 11
272.9562724436771
 21
639.2669596082559
 31
0.0
  0
ARC
  5
9CC
330
1F
100
AcDbEntity
  8
PEF-390A
100
AcDbCircle
 10
274.6883232512463
 20
640.266959608256
 30
0.0
 40
1.999999999999974
100
AcDbArc
 50
210.000000000004
 51
291.9998752116208
  0
ARC
  5
9CD
330
1F
100
AcDbEntity
  8
PEF-390A
100
AcDbCircle
 10
312.3616106146576
 20
601.1056063364767
 30
0.0
 40
10.0
100
AcDbArc
 50
0.0
 51
103.9679626746508
  0
ARC
  5
9CE
330
1F
100
AcDbEntity
  8
PEF-390A
100
AcDbCircle
 10
382.3616106146575
 20
601.1056063364767
 30
0.0
 40
9.999999999999984
100
AcDbArc
 50
76.03203732534869
 51
180.0
  0
ARC
  5
9CF
330
1F
100
AcDbEntity
  8
PEF-390A
100
AcDbCircle
 10
347.3616106146575
 20
460.3931335417739
 30
0.0
 40
195.0
100
AcDbArc
 50
3.675326386761764
 51
7.365885828964643
  0
ARC
  5
9D0
330
1F
100
AcDbEntity
  8
PEF-390A
100
AcDbCircle
 10
347.3616106146575
 20
460.3931335417739
 30
0.0
 40
200.0
100
AcDbArc
 50
3.58332169847248
 51
7.180755781458278
  0
LINE
  5
9D1
330
1F
100
AcDbEntity
  8
PEF-390A
100
AcDbLine
 10
547.2991008459798
 20
465.3931335417738
 30
0.0
 11
522.3616106146579
 21
465.3931335417738
 31
0.0
  0
LINE
  5
9D2
330
1F
100
AcDbEntity
  8
PEF-390A
100
AcDbLine
 10
547.2991008459798
 20
455.393133541774
 30
0.0
 11
522.3616106146578
 21
455.393133541774
 31
0.0
  0
LINE
  5
9D3
330
1F
100
AcDbEntity
  8
PEF-390A
100
AcDbLine
 10
547.3175057515605
 20
464.5931335417738
 30
0.0
 11
517.3616106146579
 21
464.5931335417738
 31
0.0
  0
LINE
  5
9D4
330
1F
100
AcDbEntity
  8
PEF-390A
100
AcDbLine
 10
547.3175057515605
 20
456.193133541774
 30
0.0
 11
517.3616106146578
 21
456.193133541774
 31
0.0
  0
ARC
  5
9D5
330
1F
100
AcDbEntity
  8
PEF-390A
100
AcDbCircle
 10
488.0740834093606
 20
425.3931335417741
 30
0.0
 40
10.0
100
AcDbArc
 50
346.032037325349
 51
90.0000000000001
  0
LINE
  5
9D6
330
1F
100
AcDbEntity
  8
PEF-390A
100
AcDbLine
 10
517.3616106146579
 20
464.5931335417738
 30
0.0
 11
514.9367394840615
 21
460.393133541774
 31
0.0
  0
LINE
  5
9D7
330
1F
100
AcDbEntity
  8
PEF-390A
100
AcDbLine
 10
517.3616106146578
 20
456.193133541774
 30
0.0
 11
514.9367394840615
 21
460.393133541774
 31
0.0
  0
LINE
  5
9D8
330
1F
100
AcDbEntity
  8
PEF-390A
100
AcDbLine
 10
517.3616106146578
 20
456.193133541774
 30
0.0
 11
517.3616106146579
 21
464.5931335417738
 31
0.0
  0
LINE
  5
9D9
330
1F
100
AcDbEntity
  8
PEF-390A
100
AcDbLine
 10
522.3616106146578
 20
455.393133541774
 30
0.0
 11
520.9759699686027
 21
456.193133541774
 31
0.0
  0
LINE
  5
9DA
330
1F
100
AcDbEntity
  8
PEF-390A
100
AcDbLine
 10
522.3616106146579
 20
465.3931335417738
 30
0.0
 11
520.9759699686028
 21
464.5931335417738
 31
0.0
  0
LINE
  5
9DB
330
1F
100
AcDbEntity
  8
PEF-390A
100
AcDbLine
 10
522.3616106146578
 20
455.393133541774
 30
0.0
 11
522.3616106146579
 21
465.3931335417738
 31
0.0
  0
ARC
  5
9DC
330
1F
100
AcDbEntity
  8
PEF-390A
100
AcDbCircle
 10
347.3616106146575
 20
460.3931335417739
 30
0.0
 40
205.0
100
AcDbArc
 50
356.5041863676107
 51
3.495813632390448
  0
ARC
  5
9DD
330
1F
100
AcDbEntity
  8
PEF-390A
100
AcDbCircle
 10
347.3616106146575
 20
460.3931335417739
 30
0.0
 40
195.0
100
AcDbArc
 50
356.3246736132392
 51
3.675326386761764
  0
LINE
  5
9DE
330
1F
100
AcDbEntity
  8
PEF-390A
100
AcDbLine
 10
540.8616106146584
 20
472.8931335417759
 30
0.0
 11
540.8616106146588
 21
447.8931335417759
 31
0.0
  0
ARC
  5
9DF
330
1F
100
AcDbEntity
  8
PEF-390A
100
AcDbCircle
 10
347.3616106146575
 20
460.3931335417739
 30
0.0
 40
200.0
100
AcDbArc
 50
356.4166783015286
 51
3.58332169847248
  0
LINE
  5
9E0
330
1F
100
AcDbEntity
  8
PEF-390A
100
AcDbLine
 10
543.3616106146573
 20
472.8931335417759
 30
0.0
 11
543.3616106146579
 21
447.8931335417761
 31
0.0
  0
LINE
  5
9E1
330
1F
100
AcDbEntity
  8
PEF-390A
100
AcDbLine
 10
564.8616106146586
 20
447.8931335417762
 30
0.0
 11
564.8616106146582
 21
472.8931335417762
 31
0.0
  0
LINE
  5
9E2
330
1F
100
AcDbEntity
  8
PEF-390A
100
AcDbLine
 10
542.3616106146575
 20
472.8931335417759
 30
0.0
 11
542.3616106146579
 21
447.8931335417759
 31
0.0
  0
LINE
  5
9E3
330
1F
100
AcDbEntity
  8
PEF-390A
100
AcDbLine
 10
540.8616106146584
 20
447.8931335417759
 30
0.0
 11
564.8616106146586
 21
447.8931335417762
 31
0.0
  0
ARC
  5
9E4
330
1F
100
AcDbEntity
  8
PEF-390A
100
AcDbCircle
 10
539.4735571458405
 20
433.3931335417739
 30
0.0
 40
2.0
100
AcDbArc
 50
90.00000000000175
 51
171.9998752116223
  0
LINE
  5
9E5
330
1F
100
AcDbEntity
  8
PEF-390A
100
AcDbLine
 10
545.792958944502
 20
435.3931335417748
 30
0.0
 11
539.4735571458405
 21
435.393133541774
 31
0.0
  0
ARC
  5
9E6
330
1F
100
AcDbEntity
  8
PEF-390A
100
AcDbCircle
 10
347.3616106146575
 20
460.3931335417739
 30
0.0
 40
195.0
100
AcDbArc
 50
352.6341141710355
 51
356.3246736132392
  0
ARC
  5
9E7
330
1F
100
AcDbEntity
  8
PEF-390A
100
AcDbCircle
 10
347.3616106146575
 20
460.3931335417739
 30
0.0
 40
200.0
100
AcDbArc
 50
352.8192442185421
 51
356.4166783015286
  0
LINE
  5
9E8
330
1F
100
AcDbEntity
  8
PEF-390A
100
AcDbLine
 10
542.3616106146575
 20
465.893133541776
 30
0.0
 11
554.3616106146583
 21
465.8931335417761
 31
0.0
  0
LINE
  5
9E9
330
1F
100
AcDbEntity
  8
PEF-390A
100
AcDbLine
 10
554.3616106146584
 20
454.8931335417758
 30
0.0
 11
542.3616106146579
 21
454.8931335417758
 31
0.0
  0
LINE
  5
9EA
330
1F
100
AcDbEntity
  8
PEF-390A
100
AcDbLine
 10
564.8616106146582
 20
472.8931335417762
 30
0.0
 11
540.8616106146584
 21
472.8931335417759
 31
0.0
  0
LINE
  5
9EB
330
1F
100
AcDbEntity
  8
PEF-390A
100
AcDbLine
 10
554.3616106146584
 20
469.1431335417759
 30
0.0
 11
554.3616106146584
 21
451.643133541776
 31
0.0
  0
LINE
  5
9EC
330
1F
100
AcDbEntity
  8
PEF-390A
100
AcDbLine
 10
554.3616106146584
 20
451.643133541776
 30
0.0
 11
564.8616106146586
 21
451.6431335417761
 31
0.0
  0
LINE
  5
9ED
330
1F
100
AcDbEntity
  8
PEF-390A
100
AcDbLine
 10
564.8616106146582
 20
469.1431335417761
 30
0.0
 11
554.3616106146584
 21
469.1431335417759
 31
0.0
  0
ARC
  5
9EE
330
1F
100
AcDbEntity
  8
PEF-390A
100
AcDbCircle
 10
488.0740834093606
 20
495.3931335417739
 30
0.0
 40
10.0
100
AcDbArc
 50
270.0
 51
13.96796267465099
  0
LINE
  5
9EF
330
1F
100
AcDbEntity
  8
PEF-390A
100
AcDbLine
 10
545.792958944502
 20
485.3931335417739
 30
0.0
 11
539.4735571458405
 21
485.3931335417741
 31
0.0
  0
ARC
  5
9F0
330
1F
100
AcDbEntity
  8
PEF-390A
100
AcDbCircle
 10
539.4735571458405
 20
487.3931335417741
 30
0.0
 40
1.999999999999999
100
AcDbArc
 50
188.0001247883771
 51
270.0000000000016
  0
ARC
  5
9F1
330
1F
100
AcDbEntity
  8
PEF-390A
100
AcDbCircle
 10
471.1052973223023
 20
584.1368202494208
 30
0.0
 40
19.99999999999996
100
AcDbArc
 50
127.9302859576969
 51
322.0697140423038
  0
ARC
  5
9F2
330
1F
100
AcDbEntity
  8
PEF-390A
100
AcDbCircle
 10
347.3616106146575
 20
460.3931335417739
 30
0.0
 40
174.9999999999999
100
AcDbArc
 50
37.86246678754828
 51
59.2568197417229
  0
LINE
  5
9F3
330
1F
100
AcDbEntity
  8
PEF-390A
100
AcDbLine
 10
527.7512846197955
 20
640.7828075469149
 30
0.0
 11
453.1643075984606
 21
566.1958305255788
 31
0.0
  0
LINE
  5
9F4
330
1F
100
AcDbEntity
  8
PEF-390A
100
AcDbLine
 10
480.1692727761071
 20
616.5569093388849
 30
0.0
 11
509.6908115078504
 21
639.5638722640902
 31
0.0
  0
LINE
  5
9F6
330
1F
100
AcDbEntity
  8
PEF-390A
100
AcDbLine
 10
458.8112530030068
 20
599.9120056453267
 30
0.0
 11
480.1692727761071
 21
616.5569093388849
 31
0.0
  0
CIRCLE
  5
9F8
330
1F
100
AcDbEntity
  8
PEF-390A
100
AcDbCircle
 10
471.1052973223026
 20
584.1368202494208
 30
0.0
 40
4.0
  0
CIRCLE
  5
9F9
330
1F
100
AcDbEntity
  8
PEF-390A
100
AcDbCircle
 10
471.1052973223026
 20
584.1368202494208
 30
0.0
 40
6.25
  0
LINE
  5
9FA
330
1F
100
AcDbEntity
  8
PEF-390A
100
AcDbLine
 10
465.7980720207678
 20
578.8295949478857
 30
0.0
 11
463.8554927367984
 21
586.0793995333897
 31
0.0
  0
LINE
  5
9FB
330
1F
100
AcDbEntity
  8
PEF-390A
100
AcDbLine
 10
478.3551019078065
 20
582.1942409654516
 30
0.0
 11
473.0478766062717
 21
576.8870156639168
 31
0.0
  0
CIRCLE
  5
9FC
330
1F
100
AcDbEntity
  8
PEF-390A
100
AcDbCircle
 10
471.1052973223026
 20
584.1368202494208
 30
0.0
 40
11.0
  0
ARC
  5
9FF
330
1F
100
AcDbEntity
  8
PEF-390A
100
AcDbCircle
 10
471.1052973223025
 20
584.1368202494209
 30
0.0
 40
21.0
100
AcDbArc
 50
208.3272755341068
 51
241.672724465894
  0
LINE
  5
A00
330
1F
100
AcDbEntity
  8
PEF-390A
100
AcDbLine
 10
473.0478766062717
 20
576.8870156639168
 30
0.0
 11
465.7980720207678
 21
578.8295949478857
 31
0.0
  0
LINE
  5
A01
330
1F
100
AcDbEntity
  8
PEF-390A
100
AcDbLine
 10
469.1627180383333
 20
591.3866248349246
 30
0.0
 11
476.4125226238371
 21
589.4440455509552
 31
0.0
  0
CIRCLE
  5
A02
330
1F
100
AcDbEntity
  8
PEF-390A
100
AcDbCircle
 10
471.1052973223026
 20
584.1368202494208
 30
0.0
 40
3.300000000000011
  0
LINE
  5
A03
330
1F
100
AcDbEntity
  8
PEF-390A
100
AcDbLine
 10
463.8554927367984
 20
586.0793995333897
 30
0.0
 11
469.1627180383333
 21
591.3866248349246
 31
0.0
  0
LINE
  5
A04
330
1F
100
AcDbEntity
  8
PEF-390A
100
AcDbLine
 10
476.4125226238371
 20
589.4440455509552
 30
0.0
 11
478.3551019078065
 21
582.1942409654516
 31
0.0
  0
LINE
  5
A05
330
1F
100
AcDbEntity
  8
PEF-390A
100
AcDbLine
 10
450.1052934759838
 20
622.5897277800546
 30
0.0
 11
450.105297322302
 21
636.0496078373926
 31
0.0
  0
ARC
  5
A06
330
1F
100
AcDbEntity
  8
PEF-390A
100
AcDbCircle
 10
447.105297322302
 20
636.0496078373926
 30
0.0
 40
3.0
100
AcDbArc
 50
0.0
 51
60.41062438162303
  0
LINE
  5
A07
330
1F
100
AcDbEntity
  8
PEF-390A
100
AcDbLine
 10
519.41479474915
 20
606.538000941228
 30
0.0
 11
493.2819245442538
 21
632.6708711461236
 31
0.0
  0
LINE
  5
A08
330
1F
100
AcDbEntity
  8
PEF-390A
100
AcDbLine
 10
514.5923643652746
 20
632.5736347606996
 30
0.0
 11
493.3791609296783
 21
611.360431325103
 31
0.0
  0
LINE
  5
A09
330
1F
100
AcDbEntity
  8
PEF-390A
100
AcDbLine
 10
498.3289083979841
 20
606.4106838567973
 30
0.0
 11
519.5421118335805
 21
627.6238872923937
 31
0.0
  0
LINE
  5
A0A
330
1F
100
AcDbEntity
  8
PEF-390A
100
AcDbLine
 10
503.5253864117661
 20
593.2007957032261
 30
0.0
 11
526.5323493369711
 21
622.7223344349697
 31
0.0
  0
LINE
  5
A0B
330
1F
100
AcDbEntity
  8
PEF-390A
100
AcDbLine
 10
486.8804827182083
 20
571.8427759301256
 30
0.0
 11
503.5253864117661
 21
593.2007957032261
 31
0.0
  0
LINE
  5
A0C
330
1F
100
AcDbEntity
  8
PEF-390A
100
AcDbLine
 10
523.0180849102745
 20
563.1368202494209
 30
0.0
 11
509.5582048529376
 21
563.1368202177992
 31
0.0
  0
ARC
  5
A0D
330
1F
100
AcDbEntity
  8
PEF-390A
100
AcDbCircle
 10
523.0180849102745
 20
560.136820249421
 30
0.0
 40
2.999999999999986
100
AcDbArc
 50
29.58937561837707
 51
90.0000000000003
  0
ARC
  5
A0E
330
1F
100
AcDbEntity
  8
PEF-390A
100
AcDbCircle
 10
495.8540346638312
 20
608.88555759095
 30
0.0
 40
3.500000000000006
100
AcDbArc
 50
135.0000000000003
 51
315.0000000000001
  0
ARC
  5
A0F
330
1F
100
AcDbEntity
  8
PEF-390A
100
AcDbCircle
 10
517.0672380994273
 20
630.0987610265467
 30
0.0
 40
11.99999999999996
100
AcDbArc
 50
322.0697140423041
 51
127.9302859576969
  0
POINT
  5
A10
330
1F
100
AcDbEntity
  8
PEF-390A
100
AcDbPoint
 10
506.4606363816293
 20
619.4921593087482
 30
0.0
  0
ARC
  5
A11
330
1F
100
AcDbEntity
  8
PEF-390A
100
AcDbCircle
 10
517.0672380994273
 20
630.0987610265467
 30
0.0
 40
3.500000000000008
100
AcDbArc
 50
315.0000000000003
 51
135.0000000000003
  0
LINE
  5
A16
330
1F
100
AcDbEntity
  8
PEF-390A
100
AcDbLine
 10
951.9085144022549
 20
433.2437720592172
 30
0.0
 11
959.4593055844022
 21
417.0510481137783
 31
0.0
  0
LINE
  5
A17
330
1F
100
AcDbEntity
  8
PEF-390A
100
AcDbLine
 10
947.3769754670717
 20
431.1306807505135
 30
0.0
 11
954.9277666492194
 21
414.9379568050751
 31
0.0
  0
LINE
  5
A18
330
1F
100
AcDbEntity
  8
PEF-390A
100
AcDbLine
 10
731.4340605193989
 20
438.6967003890039
 30
0.0
 11
731.4340605193993
 21
354.0895666945448
 31
0.0
  0
LINE
  5
A19
330
1F
100
AcDbEntity
  8
PEF-390A
100
AcDbLine
 10
881.4340605194017
 20
257.3931335417745
 30
0.0
 11
881.4340605194002
 21
663.3931335417748
 31
0.0
  0
LINE
  5
A1B
330
1F
100
AcDbEntity
  8
PEF-390A
100
AcDbLine
 10
926.934060519402
 20
258.3931335417746
 30
0.0
 11
926.9340605194003
 21
662.393133541775
 31
0.0
  0
LINE
  5
A1C
330
1F
100
AcDbEntity
  8
PEF-390A
100
AcDbLine
 10
726.3501498152057
 20
275.3931335417743
 30
0.0
 11
726.3501498152052
 21
437.3931335417744
 31
0.0
  0
LINE
  5
A1D
330
1F
100
AcDbEntity
  8
PEF-390A
100
AcDbLine
 10
724.8501498152056
 20
270.3931335417743
 30
0.0
 11
724.8501498152047
 21
660.3931335417741
 31
0.0
  0
LINE
  5
A1E
330
1F
100
AcDbEntity
  8
PEF-390A
100
AcDbLine
 10
700.8501498152049
 20
654.3931335417742
 30
0.0
 11
700.8501498152057
 21
270.5667326382394
 31
0.0
  0
LINE
  5
A1F
330
1F
100
AcDbEntity
  8
PEF-390A
100
AcDbLine
 10
887.9364499748517
 20
336.6494468341273
 30
0.0
 11
960.7770654317462
 21
336.649446834128
 31
0.0
  0
LINE
  5
A20
330
1F
100
AcDbEntity
  8
PEF-390A
100
AcDbLine
 10
930.7340605194022
 20
353.6494468341276
 30
0.0
 11
948.2340605194023
 21
353.6494468341278
 31
0.0
  0
LINE
  5
A21
330
1F
100
AcDbEntity
  8
PEF-390A
100
AcDbLine
 10
930.7340605194026
 20
319.6494468341275
 30
0.0
 11
948.2340605194023
 21
319.6494468341278
 31
0.0
  0
LINE
  5
A23
330
1F
100
AcDbEntity
  8
PEF-390A
100
AcDbLine
 10
881.4340605194031
 20
270.3931335417705
 30
0.0
 11
731.434060519403
 21
270.3931335417731
 31
0.0
  0
LINE
  5
A24
330
1F
100
AcDbEntity
  8
PEF-390A
100
AcDbLine
 10
731.4340605194027
 20
269.193133541773
 30
0.0
 11
881.4340605194029
 21
269.1931335417779
 31
0.0
  0
LINE
  5
A25
330
1F
100
AcDbEntity
  8
PEF-390A
100
AcDbLine
 10
730.6501498152057
 20
276.4202401150074
 30
0.0
 11
731.4340605193988
 21
276.4202401150074
 31
0.0
  0
LINE
  5
A27
330
1F
100
AcDbEntity
  8
PEF-390A
100
AcDbLine
 10
730.6501498152057
 20
275.3931335417743
 30
0.0
 11
730.6501498152057
 21
354.2905694392103
 31
0.0
  0
LINE
  5
A28
330
1F
100
AcDbEntity
  8
PEF-390A
100
AcDbLine
 10
712.3501498152061
 20
251.1855863719627
 30
0.0
 11
712.3501498152059
 21
288.5440769380006
 31
0.0
  0
LINE
  5
A2F
330
1F
100
AcDbEntity
  8
PEF-390A
100
AcDbLine
 10
731.528609862752
 20
276.4202401150074
 30
0.0
 11
731.5286098627519
 21
344.4202401150074
 31
0.0
  0
LINE
  5
A32
330
1F
100
AcDbEntity
  8
PEF-390A
100
AcDbLine
 10
730.6501498152057
 20
344.4202401150074
 30
0.0
 11
730.6501498152057
 21
276.4202401150074
 31
0.0
  0
LINE
  5
A33
330
1F
100
AcDbEntity
  8
PEF-390A
100
AcDbLine
 10
724.8501498152052
 20
260.3931335417743
 30
0.0
 11
706.850149815206
 21
260.3931335417742
 31
0.0
  0
LINE
  5
A34
330
1F
100
AcDbEntity
  8
PEF-390A
100
AcDbLine
 10
703.0162407749132
 20
268.5736411217496
 30
0.0
 11
724.8501498152056
 21
270.3931335417743
 31
0.0
  0
LINE
  5
A35
330
1F
100
AcDbEntity
  8
PEF-390A
100
AcDbLine
 10
706.850149815206
 20
260.3931335417742
 30
0.0
 11
706.850149815206
 21
265.3931335417742
 31
0.0
  0
LINE
  5
A36
330
1F
100
AcDbEntity
  8
PEF-390A
100
AcDbLine
 10
701.8501498152057
 20
265.3931335417742
 30
0.0
 11
706.850149815206
 21
265.3931335417742
 31
0.0
  0
LINE
  5
A37
330
1F
100
AcDbEntity
  8
PEF-390A
100
AcDbLine
 10
700.8501498152057
 20
266.3931335417739
 30
0.0
 11
701.8501498152057
 21
265.3931335417742
 31
0.0
  0
LINE
  5
A38
330
1F
100
AcDbEntity
  8
PEF-390A
100
AcDbLine
 10
700.8501498152057
 20
270.5667326382394
 30
0.0
 11
700.8501498152057
 21
266.3931335417739
 31
0.0
  0
ARC
  5
A39
330
1F
100
AcDbEntity
  8
PEF-390A
100
AcDbCircle
 10
702.8501498152059
 20
270.5667326382394
 30
0.0
 40
2.0
100
AcDbArc
 50
180.0
 51
274.763641690727
  0
LINE
  5
A3A
330
1F
100
AcDbEntity
  8
PEF-390A
100
AcDbLine
 10
724.8501498152059
 20
275.3931335417742
 30
0.0
 11
731.4340605193988
 21
275.3931335417742
 31
0.0
  0
LINE
  5
A3C
330
1F
100
AcDbEntity
  8
PEF-390A
100
AcDbLine
 10
724.8501498152056
 20
270.3931335417743
 30
0.0
 11
724.8501498152052
 21
260.3931335417743
 31
0.0
  0
LINE
  5
A42
330
1F
100
AcDbEntity
  8
PEF-390A
100
AcDbLine
 10
731.4340605193988
 20
354.0895666945452
 30
0.0
 11
726.3501498152057
 21
355.3931335417743
 31
0.0
  0
LINE
  5
A56
330
1F
100
AcDbEntity
  8
PEF-390A
100
AcDbLine
 10
731.4340605193988
 20
344.4202401150074
 30
0.0
 11
730.6501498152057
 21
344.4202401150074
 31
0.0
  0
LINE
  5
A70
330
1F
100
AcDbEntity
  8
PEF-390A
100
AcDbLine
 10
912.9340605194013
 20
352.8308732046285
 30
0.0
 11
912.934060519402
 21
285.7825845156816
 31
0.0
  0
LINE
  5
A7D
330
1F
100
AcDbEntity
  8
PEF-390A
100
AcDbLine
 10
911.0458551480647
 20
283.7857114698916
 30
0.0
 11
881.4340605194029
 21
282.1278997269124
 31
0.0
  0
LINE
  5
A7E
330
1F
100
AcDbEntity
  8
PEF-390A
100
AcDbLine
 10
923.9340605194016
 20
255.3931335417748
 30
0.0
 11
883.4340605194014
 21
255.3931335417745
 31
0.0
  0
LINE
  5
A7F
330
1F
100
AcDbEntity
  8
PEF-390A
100
AcDbLine
 10
881.4340605194017
 20
270.3931335417745
 30
0.0
 11
858.4340605194014
 21
270.3931335417745
 31
0.0
  0
LINE
  5
A82
330
1F
100
AcDbEntity
  8
PEF-390A
100
AcDbLine
 10
883.4340605194014
 20
255.3931335417745
 30
0.0
 11
881.4340605194017
 21
257.3931335417745
 31
0.0
  0
ARC
  5
A83
330
1F
100
AcDbEntity
  8
PEF-390A
100
AcDbCircle
 10
910.9340605194024
 20
285.7825845156813
 30
0.0
 40
1.999999999999986
100
AcDbArc
 50
273.204350347569
 51
0.0
  0
LINE
  5
A84
330
1F
100
AcDbEntity
  8
PEF-390A
100
AcDbLine
 10
926.9340605194015
 20
258.3931335417746
 30
0.0
 11
923.9340605194016
 21
255.3931335417748
 31
0.0
  0
LINE
  5
AA6
330
1F
100
AcDbEntity
  8
PEF-390A
100
AcDbLine
 10
929.2340605194024
 20
356.6494468341276
 30
0.0
 11
929.2340605194024
 21
316.6494468341275
 31
0.0
  0
LINE
  5
AA7
330
1F
100
AcDbEntity
  8
PEF-390A
100
AcDbLine
 10
926.9340605194027
 20
316.6494468341276
 30
0.0
 11
926.9340605194024
 21
356.6494468341276
 31
0.0
  0
ARC
  5
AAD
330
1F
100
AcDbEntity
  8
PEF-390A
100
AcDbCircle
 10
930.7340605194026
 20
318.1494468341276
 30
0.0
 40
1.5
100
AcDbArc
 50
90.0
 51
180.0
  0
LINE
  5
AB0
330
1F
100
AcDbEntity
  8
PEF-390A
100
AcDbLine
 10
929.2340605194024
 20
316.6494468341275
 30
0.0
 11
926.9340605194027
 21
316.6494468341276
 31
0.0
  0
LINE
  5
AB1
330
1F
100
AcDbEntity
  8
PEF-390A
100
AcDbLine
 10
898.4340605194027
 20
340.6494468341274
 30
0.0
 11
898.4340605194027
 21
332.6494468341273
 31
0.0
  0
LINE
  5
AB2
330
1F
100
AcDbEntity
  8
PEF-390A
100
AcDbLine
 10
897.2340605194027
 20
339.4494468341271
 30
0.0
 11
897.2340605194023
 21
333.8494468341273
 31
0.0
  0
ARC
  5
AB3
330
1F
100
AcDbEntity
  8
PEF-390A
100
AcDbCircle
 10
914.6105909759452
 20
336.6494468341296
 30
0.0
 40
10.07653045654289
100
AcDbArc
 50
158.134606918097
 51
201.865393081904
  0
LINE
  5
AB4
330
1F
100
AcDbEntity
  8
PEF-390A
100
AcDbLine
 10
904.5340605194022
 20
330.3994468341296
 30
0.0
 11
904.5340605194022
 21
342.8994468341296
 31
0.0
  0
LINE
  5
AB5
330
1F
100
AcDbEntity
  8
PEF-390A
100
AcDbLine
 10
912.9340605194023
 20
325.6494468341296
 30
0.0
 11
912.934060519402
 21
347.6494468341297
 31
0.0
  0
LINE
  5
AB6
330
1F
100
AcDbEntity
  8
PEF-390A
100
AcDbLine
 10
911.0340605194016
 20
347.6494468341297
 30
0.0
 11
911.034060519402
 21
325.6494468341295
 31
0.0
  0
LINE
  5
AB7
330
1F
100
AcDbEntity
  8
PEF-390A
100
AcDbLine
 10
904.5340605194022
 20
333.3994468341273
 30
0.0
 11
897.6840605194027
 21
333.3994468341273
 31
0.0
  0
LINE
  5
AB8
330
1F
100
AcDbEntity
  8
PEF-390A
100
AcDbLine
 10
904.5340605194022
 20
332.6494468341274
 30
0.0
 11
898.4340605194027
 21
332.6494468341273
 31
0.0
  0
LINE
  5
AB9
330
1F
100
AcDbEntity
  8
PEF-390A
100
AcDbLine
 10
898.4340605194027
 20
332.6494468341273
 30
0.0
 11
897.2340605194023
 21
333.8494468341273
 31
0.0
  0
LINE
  5
ABA
330
1F
100
AcDbEntity
  8
PEF-390A
100
AcDbLine
 10
911.0340605194023
 20
332.8966718341295
 30
0.0
 11
905.2589523119022
 21
332.8966718341295
 31
0.0
  0
ARC
  5
ABB
330
1F
100
AcDbEntity
  8
PEF-390A
100
AcDbCircle
 10
908.5089521819998
 20
331.0202843341296
 30
0.0
 40
3.7527761459351
100
AcDbArc
 50
150.0000105759282
 51
209.9999894240728
  0
LINE
  5
ABC
330
1F
100
AcDbEntity
  8
PEF-390A
100
AcDbLine
 10
905.2589523119022
 20
329.1438968341293
 30
0.0
 11
904.5340605194022
 21
330.3994468341296
 31
0.0
  0
LINE
  5
ABD
330
1F
100
AcDbEntity
  8
PEF-390A
100
AcDbLine
 10
911.034060519402
 20
329.1438968341296
 30
0.0
 11
905.2589523119022
 21
329.1438968341293
 31
0.0
  0
LINE
  5
ABE
330
1F
100
AcDbEntity
  8
PEF-390A
100
AcDbLine
 10
911.034060519402
 20
325.6494468341295
 30
0.0
 11
912.9340605194023
 21
325.6494468341296
 31
0.0
  0
LINE
  5
ABF
330
1F
100
AcDbEntity
  8
PEF-390A
100
AcDbLine
 10
904.5340605194022
 20
339.8994468341275
 30
0.0
 11
897.6840605194025
 21
339.8994468341273
 31
0.0
  0
LINE
  5
AC0
330
1F
100
AcDbEntity
  8
PEF-390A
100
AcDbLine
 10
904.5340605194022
 20
340.6494468341275
 30
0.0
 11
898.4340605194027
 21
340.6494468341274
 31
0.0
  0
LINE
  5
AC1
330
1F
100
AcDbEntity
  8
PEF-390A
100
AcDbLine
 10
898.4340605194027
 20
340.6494468341274
 30
0.0
 11
897.2340605194027
 21
339.4494468341271
 31
0.0
  0
LINE
  5
AC2
330
1F
100
AcDbEntity
  8
PEF-390A
100
AcDbLine
 10
911.034060519402
 20
340.4022218341296
 30
0.0
 11
905.2589523119021
 21
340.4022218341298
 31
0.0
  0
ARC
  5
AC3
330
1F
100
AcDbEntity
  8
PEF-390A
100
AcDbCircle
 10
908.5089521819998
 20
342.2786093341296
 30
0.0
 40
3.752776145935121
100
AcDbArc
 50
150.0000105759276
 51
209.9999894240732
  0
LINE
  5
AC4
330
1F
100
AcDbEntity
  8
PEF-390A
100
AcDbLine
 10
905.2589523119015
 20
344.1549968341297
 30
0.0
 11
904.5340605194022
 21
342.8994468341296
 31
0.0
  0
LINE
  5
AC5
330
1F
100
AcDbEntity
  8
PEF-390A
100
AcDbLine
 10
911.0340605194016
 20
344.1549968341298
 30
0.0
 11
905.2589523119015
 21
344.1549968341297
 31
0.0
  0
LINE
  5
AC6
330
1F
100
AcDbEntity
  8
PEF-390A
100
AcDbLine
 10
912.934060519402
 20
347.6494468341297
 30
0.0
 11
911.0340605194016
 21
347.6494468341297
 31
0.0
  0
LINE
  5
AC7
330
1F
100
AcDbEntity
  8
PEF-390A
100
AcDbLine
 10
881.4340605194024
 20
357.6494468341262
 30
0.0
 11
911.1236787046573
 21
354.8218641498162
 31
0.0
  0
ARC
  5
AC8
330
1F
100
AcDbEntity
  8
PEF-390A
100
AcDbCircle
 10
910.9340605194011
 20
352.8308732046285
 30
0.0
 40
2.0
100
AcDbArc
 50
0.0
 51
84.55966796899437
  0
ARC
  5
AC9
330
1F
100
AcDbEntity
  8
PEF-390A
100
AcDbCircle
 10
930.7340605194022
 20
355.1494468341276
 30
0.0
 40
1.5
100
AcDbArc
 50
180.0
 51
270.0
  0
LINE
  5
ACA
330
1F
100
AcDbEntity
  8
PEF-390A
100
AcDbLine
 10
926.9340605194024
 20
356.6494468341276
 30
0.0
 11
929.2340605194024
 21
356.6494468341276
 31
0.0
  0
LINE
  5
ACB
330
1F
100
AcDbEntity
  8
PEF-390A
100
AcDbLine
 10
952.9340605194034
 20
259.6494468341278
 30
0.0
 11
952.9340605194024
 21
356.6494468341276
 31
0.0
  0
LINE
  5
ACC
330
1F
100
AcDbEntity
  8
PEF-390A
100
AcDbLine
 10
949.7340605194024
 20
356.6494468341279
 30
0.0
 11
949.7340605194033
 21
259.6494468341278
 31
0.0
  0
LINE
  5
ACD
330
1F
100
AcDbEntity
  8
PEF-390A
100
AcDbLine
 10
952.9340605194033
 20
268.1494468341278
 30
0.0
 11
949.7340605194033
 21
268.1494468341278
 31
0.0
  0
LINE
  5
ACE
330
1F
100
AcDbEntity
  8
PEF-390A
100
AcDbLine
 10
949.7340605194033
 20
259.6494468341278
 30
0.0
 11
952.9340605194034
 21
259.6494468341278
 31
0.0
  0
ARC
  5
ACF
330
1F
100
AcDbEntity
  8
PEF-390A
100
AcDbCircle
 10
948.2340605194023
 20
318.1494468341278
 30
0.0
 40
1.5
100
AcDbArc
 50
0.0
 51
90.0
  0
LINE
  5
AD0
330
1F
100
AcDbEntity
  8
PEF-390A
100
AcDbLine
 10
952.9340605194027
 20
305.1494468341279
 30
0.0
 11
949.7340605194024
 21
305.149446834128
 31
0.0
  0
LINE
  5
AD1
330
1F
100
AcDbEntity
  8
PEF-390A
100
AcDbLine
 10
981.3167338122957
 20
394.6395466400311
 30
0.0
 11
978.6294746221781
 21
397.0447028666054
 31
0.0
  0
LINE
  5
AD2
330
1F
100
AcDbEntity
  8
PEF-390A
100
AcDbLine
 10
980.5426468707974
 20
393.7008747098373
 30
0.0
 11
983.8222833574375
 21
389.9267543466937
 31
0.0
  0
LINE
  5
AD3
330
1F
100
AcDbEntity
  8
PEF-390A
100
AcDbLine
 10
980.8029870669226
 20
387.3030451573812
 30
0.0
 11
977.5233505802825
 21
391.0771655205249
 31
0.0
  0
LINE
  5
AD4
330
1F
100
AcDbEntity
  8
PEF-390A
100
AcDbLine
 10
979.8971981797683
 20
386.5159324005873
 30
0.0
 11
980.8029870669226
 21
387.3030451573812
 31
0.0
  0
LINE
  5
AD5
330
1F
100
AcDbEntity
  8
PEF-390A
100
AcDbLine
 10
958.0462887706334
 20
383.7883599084292
 30
0.0
 11
957.931169119857
 21
387.3929245000415
 31
0.0
  0
LINE
  5
AD6
330
1F
100
AcDbEntity
  8
PEF-390A
100
AcDbLine
 10
964.3673193151915
 20
384.7906437278966
 30
0.0
 11
963.3617238884331
 21
388.2540114916151
 31
0.0
  0
ARC
  5
AD7
330
1F
100
AcDbEntity
  8
PEF-390A
100
AcDbCircle
 10
961.2382487266597
 20
384.0911919157499
 30
0.0
 40
1.99999999999993
100
AcDbArc
 50
9.009999999999642
 51
189.0099999999995
  0
LINE
  5
AD8
330
1F
100
AcDbEntity
  8
PEF-390A
100
AcDbLine
 10
958.0462887706334
 20
383.7883599084292
 30
0.0
 11
958.8607676883402
 21
378.6517448930795
 31
0.0
  0
LINE
  5
AD9
330
1F
100
AcDbEntity
  8
PEF-390A
100
AcDbLine
 10
952.9340605194024
 20
356.6494468341276
 30
0.0
 11
949.7340605194024
 21
356.6494468341279
 31
0.0
  0
ARC
  5
ADA
330
1F
100
AcDbEntity
  8
PEF-390A
100
AcDbCircle
 10
948.2340605194023
 20
355.1494468341279
 30
0.0
 40
1.5
100
AcDbArc
 50
270.0
 51
0.0000000000005089
  0
LINE
  5
ADB
330
1F
100
AcDbEntity
  8
PEF-390A
100
AcDbLine
 10
964.3673193151915
 20
384.7906437278966
 30
0.0
 11
965.1817982328982
 21
379.6540287125486
 31
0.0
  0
LINE
  5
ADC
330
1F
100
AcDbEntity
  8
PEF-390A
100
AcDbLine
 10
959.2629266814853
 20
383.7779782221658
 30
0.0
 11
960.0459609154452
 21
378.8396731092301
 31
0.0
  0
LINE
  5
ADD
330
1F
100
AcDbEntity
  8
PEF-390A
100
AcDbLine
 10
963.9966050057935
 20
379.4661004963981
 30
0.0
 11
963.2135707718337
 21
384.4044056093338
 31
0.0
  0
LINE
  5
ADE
330
1F
100
AcDbEntity
  8
PEF-390A
100
AcDbLine
 10
960.0459609154452
 20
378.8396731092298
 30
0.0
 11
958.8607676883402
 21
378.6517448930795
 31
0.0
  0
LINE
  5
ADF
330
1F
100
AcDbEntity
  8
PEF-390A
100
AcDbLine
 10
965.1817982328982
 20
379.6540287125486
 30
0.0
 11
963.9966050057935
 21
379.4661004963981
 31
0.0
  0
LINE
  5
AE0
330
1F
100
AcDbEntity
  8
PEF-390A
100
AcDbLine
 10
959.6419078145697
 20
400.5441360106519
 30
0.0
 11
957.1935361168106
 21
415.9945024594266
 31
0.0
  0
LINE
  5
AE1
330
1F
100
AcDbEntity
  8
PEF-390A
100
AcDbLine
 10
967.4554204878203
 20
404.1876368072792
 30
0.0
 11
957.1935361168106
 21
415.9945024594266
 31
0.0
  0
LINE
  5
AE2
330
1F
100
AcDbEntity
  8
PEF-390A
100
AcDbLine
 10
957.931169119857
 20
387.3929245000415
 30
0.0
 11
958.2373622730242
 21
389.6903200664482
 31
0.0
  0
LINE
  5
AE3
330
1F
100
AcDbEntity
  8
PEF-390A
100
AcDbLine
 10
963.261590713669
 20
390.4869785916486
 30
0.0
 11
957.3356245781464
 21
389.5473375108966
 31
0.0
  0
LINE
  5
AE4
330
1F
100
AcDbEntity
  8
PEF-390A
100
AcDbLine
 10
955.6912526868304
 20
399.9177782480618
 30
0.0
 11
961.6172188223533
 21
400.8574193288136
 31
0.0
  0
LINE
  5
AE5
330
1F
100
AcDbEntity
  8
PEF-390A
100
AcDbLine
 10
959.4593055844022
 20
417.0510481137783
 30
0.0
 11
954.9277666492191
 21
414.937956805075
 31
0.0
  0
LINE
  5
AE6
330
1F
100
AcDbEntity
  8
PEF-390A
100
AcDbLine
 10
957.6665636946136
 20
400.2310615662231
 30
0.0
 11
955.3079251631054
 21
415.1152276314126
 31
0.0
  0
LINE
  5
AE7
330
1F
100
AcDbEntity
  8
PEF-390A
100
AcDbLine
 10
957.3356245781464
 20
389.5473375108966
 30
0.0
 11
955.6912526868304
 21
399.9177782480618
 31
0.0
  0
LINE
  5
AE8
330
1F
100
AcDbEntity
  8
PEF-390A
100
AcDbLine
 10
977.361907159458
 20
398.8857464429377
 30
0.0
 11
970.4746705375123
 21
406.8113992055398
 31
0.0
  0
LINE
  5
AE9
330
1F
100
AcDbEntity
  8
PEF-390A
100
AcDbLine
 10
965.9457261017399
 20
402.8758354215709
 30
0.0
 11
972.8329627236853
 21
394.9501826589693
 31
0.0
  0
LINE
  5
AEA
330
1F
100
AcDbEntity
  8
PEF-390A
100
AcDbLine
 10
963.3617238884331
 20
388.2540114916151
 30
0.0
 11
962.3598530187903
 21
390.3439960360973
 31
0.0
  0
LINE
  5
AEB
330
1F
100
AcDbEntity
  8
PEF-390A
100
AcDbLine
 10
961.6172188223533
 20
400.8574193288136
 30
0.0
 11
963.261590713669
 21
390.4869785916486
 31
0.0
  0
LINE
  5
AEC
330
1F
100
AcDbEntity
  8
PEF-390A
100
AcDbLine
 10
978.6294746221781
 20
397.0447028666054
 30
0.0
 11
976.6727503498593
 21
398.2868827077355
 31
0.0
  0
LINE
  5
AED
330
1F
100
AcDbEntity
  8
PEF-390A
100
AcDbLine
 10
976.4858597474724
 20
390.4416119371298
 30
0.0
 11
974.4791503982758
 21
393.4381526121299
 31
0.0
  0
LINE
  5
AEE
330
1F
100
AcDbEntity
  8
PEF-390A
100
AcDbLine
 10
974.4791503982758
 20
393.4381526121299
 30
0.0
 11
973.5221195332837
 21
395.5490463941722
 31
0.0
  0
LINE
  5
AEF
330
1F
100
AcDbEntity
  8
PEF-390A
100
AcDbLine
 10
976.4858597474724
 20
390.4416119371298
 30
0.0
 11
979.8971981797683
 21
386.5159324005873
 31
0.0
  0
ARC
  5
AF0
330
1F
100
AcDbEntity
  8
PEF-390A
100
AcDbCircle
 10
979.0329987255402
 20
392.3890201151812
 30
0.0
 40
1.999999999999986
100
AcDbArc
 50
40.98999999999996
 51
220.9899999999985
  0
LINE
  5
AF1
330
1F
100
AcDbEntity
  8
PEF-390A
100
AcDbLine
 10
972.8329627236853
 20
394.9501826589693
 30
0.0
 11
977.361907159458
 21
398.8857464429377
 31
0.0
  0
LINE
  5
AF2
330
1F
100
AcDbEntity
  8
PEF-390A
100
AcDbLine
 10
970.4746705375123
 20
406.8113992055398
 30
0.0
 11
965.9457261017399
 21
402.8758354215709
 31
0.0
  0
LINE
  5
AF3
330
1F
100
AcDbEntity
  8
PEF-390A
100
AcDbLine
 10
968.9649761514322
 20
405.4995978198313
 30
0.0
 11
959.0791470705166
 21
416.8737772874401
 31
0.0
  0
LINE
  5
AF4
330
1F
100
AcDbEntity
  8
PEF-390A
100
AcDbLine
 10
981.3167338122957
 20
394.6395466400311
 30
0.0
 11
984.7280722445926
 21
390.7138671034873
 31
0.0
  0
LINE
  5
AF5
330
1F
100
AcDbEntity
  8
PEF-390A
100
AcDbLine
 10
983.8222833574381
 20
389.9267543466935
 30
0.0
 11
984.7280722445926
 21
390.7138671034873
 31
0.0
  0
LINE
  5
AF7
330
1F
100
AcDbEntity
  8
PEF-390A
100
AcDbLine
 10
686.5350331068301
 20
460.3931335417741
 30
0.0
 11
946.2758047204046
 21
460.3931335417748
 31
0.0
  0
LINE
  5
AF8
330
1F
100
AcDbEntity
  8
PEF-390A
100
AcDbLine
 10
930.7340605193996
 20
567.136820249422
 30
0.0
 11
948.2340605193995
 21
567.1368202494224
 31
0.0
  0
LINE
  5
AF9
330
1F
100
AcDbEntity
  8
PEF-390A
100
AcDbLine
 10
930.7340605193996
 20
601.1368202494221
 30
0.0
 11
948.2340605193995
 21
601.1368202494224
 31
0.0
  0
ARC
  5
AFA
330
1F
100
AcDbEntity
  8
PEF-390A
100
AcDbCircle
 10
926.9340605194011
 20
445.3931335417745
 30
0.0
 40
17.50000000000006
100
AcDbArc
 50
24.99999999999669
 51
89.99999999999927
  0
ARC
  5
AFB
330
1F
100
AcDbEntity
  8
PEF-390A
100
AcDbCircle
 10
926.9340605194011
 20
445.3931335417745
 30
0.0
 40
12.49999999999998
100
AcDbArc
 50
24.99999999999678
 51
89.99999999999948
  0
LINE
  5
AFC
330
1F
100
AcDbEntity
  8
PEF-390A
100
AcDbLine
 10
721.1001498152048
 20
682.8931335417745
 30
0.0
 11
721.1001498152048
 21
672.3931335417745
 31
0.0
  0
LINE
  5
AFD
330
1F
100
AcDbEntity
  8
PEF-390A
100
AcDbLine
 10
703.6001498152049
 20
682.8931335417745
 30
0.0
 11
703.6001498152049
 21
672.3931335417745
 31
0.0
  0
LINE
  5
AFE
330
1F
100
AcDbEntity
  8
PEF-390A
100
AcDbLine
 10
712.3501498152047
 20
686.4928067674617
 30
0.0
 11
712.3501498152047
 21
656.5388149187927
 31
0.0
  0
LINE
  5
AFF
330
1F
100
AcDbEntity
  8
PEF-390A
100
AcDbLine
 10
724.8501498152047
 20
682.8931335417745
 30
0.0
 11
724.8501498152047
 21
660.3931335417741
 31
0.0
  0
LINE
  5
B00
330
1F
100
AcDbEntity
  8
PEF-390A
100
AcDbLine
 10
699.8501498152047
 20
682.8931335417745
 30
0.0
 11
699.8501498152047
 21
658.8931335417745
 31
0.0
  0
LINE
  5
B02
330
1F
100
AcDbEntity
  8
PEF-390A
100
AcDbLine
 10
731.4340605193988
 20
655.4931335417728
 30
0.0
 11
871.4340605193989
 21
655.4931335417745
 31
0.0
  0
LINE
  5
B03
330
1F
100
AcDbEntity
  8
PEF-390A
100
AcDbLine
 10
731.4340605193986
 20
650.3931335417728
 30
0.0
 11
881.4340605193988
 21
650.3931335417747
 31
0.0
  0
LINE
  5
B04
330
1F
100
AcDbEntity
  8
PEF-390A
100
AcDbLine
 10
881.4340605193988
 20
651.5931335417747
 30
0.0
 11
731.4340605193986
 21
651.5931335417729
 31
0.0
  0
LINE
  5
B0A
330
1F
100
AcDbEntity
  8
PEF-390A
100
AcDbLine
 10
731.4340605193988
 20
566.6967003890039
 30
0.0
 11
731.4340605193988
 21
482.3283545596761
 31
0.0
  0
LINE
  5
B0B
330
1F
100
AcDbEntity
  8
PEF-390A
100
AcDbLine
 10
726.3501498152052
 20
483.3931335417744
 30
0.0
 11
726.3501498152049
 21
645.3931335417742
 31
0.0
  0
ARC
  5
B0C
330
1F
100
AcDbEntity
  8
PEF-390A
100
AcDbCircle
 10
724.3501498152052
 20
481.5438542378638
 30
0.0
 40
2.0
100
AcDbArc
 50
0.0
 51
75.52248781407008
  0
LINE
  5
B12
330
1F
100
AcDbEntity
  8
PEF-390A
100
AcDbLine
 10
706.8501498152052
 20
435.8637217770684
 30
0.0
 11
706.8501498152052
 21
484.9225453064802
 31
0.0
  0
LINE
  5
B13
330
1F
100
AcDbEntity
  8
PEF-390A
100
AcDbLine
 10
726.3501498152052
 20
483.3931335417744
 30
0.0
 11
730.6501498152052
 21
482.2905694392103
 31
0.0
  0
LINE
  5
B14
330
1F
100
AcDbEntity
  8
PEF-390A
100
AcDbLine
 10
726.3501498152052
 20
468.3931335417745
 30
0.0
 11
700.8501498152051
 21
468.3931335417743
 31
0.0
  0
LINE
  5
B15
330
1F
100
AcDbEntity
  8
PEF-390A
100
AcDbLine
 10
700.8501498152051
 20
467.3931335417742
 30
0.0
 11
726.3501498152052
 21
467.3931335417742
 31
0.0
  0
LINE
  5
B16
330
1F
100
AcDbEntity
  8
PEF-390A
100
AcDbLine
 10
726.3501498152052
 20
453.3931335417744
 30
0.0
 11
700.8501498152051
 21
453.3931335417744
 31
0.0
  0
LINE
  5
B17
330
1F
100
AcDbEntity
  8
PEF-390A
100
AcDbLine
 10
700.8501498152051
 20
452.3931335417743
 30
0.0
 11
726.3501498152052
 21
452.3931335417743
 31
0.0
  0
CIRCLE
  5
B18
330
1F
100
AcDbEntity
  8
PEF-390A
100
AcDbCircle
 10
712.3501498152052
 20
460.3931335417743
 30
0.0
 40
5.0
  0
CIRCLE
  5
B19
330
1F
100
AcDbEntity
  8
PEF-390A
100
AcDbCircle
 10
712.3501498152052
 20
460.3931335417743
 30
0.0
 40
4.199999999999986
  0
LINE
  5
B1A
330
1F
100
AcDbEntity
  8
PEF-390A
100
AcDbLine
 10
703.0065323058429
 20
435.5622615802556
 30
0.0
 11
724.5065323058429
 21
437.2485360900596
 31
0.0
  0
ARC
  5
B1B
330
1F
100
AcDbEntity
  8
PEF-390A
100
AcDbCircle
 10
702.8501498152055
 20
437.5561383358808
 30
0.0
 40
2.0
100
AcDbArc
 50
180.0000000000001
 51
274.4846060095456
  0
LINE
  5
B1C
330
1F
100
AcDbEntity
  8
PEF-390A
100
AcDbLine
 10
726.3501498152055
 20
439.2424128456847
 30
0.0
 11
726.3501498152052
 21
481.543854237864
 31
0.0
  0
LINE
  5
B1D
330
1F
100
AcDbEntity
  8
PEF-390A
100
AcDbLine
 10
712.3501498152052
 20
446.3674559660355
 30
0.0
 11
712.3501498152052
 21
474.4730242639779
 31
0.0
  0
LINE
  5
B1F
330
1F
100
AcDbEntity
  8
PEF-390A
100
AcDbLine
 10
731.4340605193988
 20
438.6967003890035
 30
0.0
 11
726.3501498152052
 21
437.3931335417744
 31
0.0
  0
ARC
  5
B20
330
1F
100
AcDbEntity
  8
PEF-390A
100
AcDbCircle
 10
724.3501498152052
 20
439.2424128456847
 30
0.0
 40
1.999999999999999
100
AcDbArc
 50
284.4775121859298
 51
0.0000000000001018
  0
ARC
  5
B21
330
1F
100
AcDbEntity
  8
PEF-390A
100
AcDbCircle
 10
724.3501498152052
 20
439.2424128456847
 30
0.0
 40
1.999999999999995
100
AcDbArc
 50
274.4846060095432
 51
284.4775121859298
  0
LINE
  5
B2B
330
1F
100
AcDbEntity
  8
PEF-390A
100
AcDbLine
 10
703.0065323058424
 20
485.2240055032928
 30
0.0
 11
724.5065323058426
 21
483.537730993489
 31
0.0
  0
ARC
  5
B2C
330
1F
100
AcDbEntity
  8
PEF-390A
100
AcDbCircle
 10
702.8501498152052
 20
483.2301287476678
 30
0.0
 40
1.999999999999993
100
AcDbArc
 50
85.51539399045763
 51
180.0
  0
ARC
  5
B2F
330
1F
100
AcDbEntity
  8
PEF-390A
100
AcDbCircle
 10
724.3501498152052
 20
481.5438542378638
 30
0.0
 40
1.999999999999993
100
AcDbArc
 50
75.52248781407008
 51
85.51539399045434
  0
LINE
  5
B42
330
1F
100
AcDbEntity
  8
PEF-390A
100
AcDbLine
 10
726.3501498152052
 20
565.3931335417742
 30
0.0
 11
731.4340605193986
 21
566.6967003890032
 31
0.0
  0
LINE
  5
B48
330
1F
100
AcDbEntity
  8
PEF-390A
100
AcDbLine
 10
703.6001498152049
 20
672.3931335417745
 30
0.0
 11
721.1001498152048
 21
672.3931335417745
 31
0.0
  0
LINE
  5
B49
330
1F
100
AcDbEntity
  8
PEF-390A
100
AcDbLine
 10
719.8501498152047
 20
661.3931335417746
 30
0.0
 11
705.3501498152049
 21
661.3931335417746
 31
0.0
  0
LINE
  5
B4A
330
1F
100
AcDbEntity
  8
PEF-390A
100
AcDbLine
 10
724.8501498152066
 20
660.3931335417745
 30
0.0
 11
706.8501498152047
 21
660.3931335417741
 31
0.0
  0
LINE
  5
B4B
330
1F
100
AcDbEntity
  8
PEF-390A
100
AcDbLine
 10
703.0162407749123
 20
652.2126259617988
 30
0.0
 11
724.8501498152047
 21
650.3931335417745
 31
0.0
  0
LINE
  5
B4C
330
1F
100
AcDbEntity
  8
PEF-390A
100
AcDbLine
 10
706.8501498152047
 20
672.3931335417745
 30
0.0
 11
706.8501498152047
 21
661.3931335417746
 31
0.0
  0
LINE
  5
B4D
330
1F
100
AcDbEntity
  8
PEF-390A
100
AcDbLine
 10
705.3501498152049
 20
661.3931335417746
 30
0.0
 11
705.3501498152047
 21
658.8931335417745
 31
0.0
  0
LINE
  5
B4E
330
1F
100
AcDbEntity
  8
PEF-390A
100
AcDbLine
 10
699.8501498152047
 20
658.8931335417745
 30
0.0
 11
705.3501498152047
 21
658.8931335417745
 31
0.0
  0
LINE
  5
B4F
330
1F
100
AcDbEntity
  8
PEF-390A
100
AcDbLine
 10
706.8501498152047
 20
660.3931335417741
 30
0.0
 11
706.8501498152047
 21
655.3931335417741
 31
0.0
  0
LINE
  5
B50
330
1F
100
AcDbEntity
  8
PEF-390A
100
AcDbLine
 10
701.8501498152049
 20
655.3931335417745
 30
0.0
 11
706.8501498152047
 21
655.3931335417741
 31
0.0
  0
LINE
  5
B51
330
1F
100
AcDbEntity
  8
PEF-390A
100
AcDbLine
 10
700.8501498152049
 20
654.3931335417745
 30
0.0
 11
701.8501498152049
 21
655.3931335417745
 31
0.0
  0
ARC
  5
B52
330
1F
100
AcDbEntity
  8
PEF-390A
100
AcDbCircle
 10
702.8501498152047
 20
650.2195344453091
 30
0.0
 40
2.000000000000024
100
AcDbArc
 50
85.23635830927325
 51
180.0
  0
LINE
  5
B53
330
1F
100
AcDbEntity
  8
PEF-390A
100
AcDbLine
 10
712.3501498152051
 20
623.8365297681895
 30
0.0
 11
712.3501498152047
 21
669.6006807115858
 31
0.0
  0
LINE
  5
B54
330
1F
100
AcDbEntity
  8
PEF-390A
100
AcDbLine
 10
731.4340605193986
 20
651.5931335417729
 30
0.0
 11
731.4340605193988
 21
269.193133541773
 31
0.0
  0
LINE
  5
B56
330
1F
100
AcDbEntity
  8
PEF-390A
100
AcDbLine
 10
724.8501498152051
 20
645.3931335417745
 30
0.0
 11
731.4340605193986
 21
645.3931335417743
 31
0.0
  0
LINE
  5
B58
330
1F
100
AcDbEntity
  8
PEF-390A
100
AcDbLine
 10
717.8501498152049
 20
672.3931335417745
 30
0.0
 11
717.8501498152047
 21
661.3931335417746
 31
0.0
  0
LINE
  5
B59
330
1F
100
AcDbEntity
  8
PEF-390A
100
AcDbLine
 10
724.8501498152047
 20
660.3931335417741
 30
0.0
 11
719.8501498152047
 21
660.3931335417745
 31
0.0
  0
LINE
  5
B5A
330
1F
100
AcDbEntity
  8
PEF-390A
100
AcDbLine
 10
719.8501498152047
 20
661.3931335417746
 30
0.0
 11
719.8501498152047
 21
660.3931335417745
 31
0.0
  0
LINE
  5
B5B
330
1F
100
AcDbEntity
  8
PEF-390A
100
AcDbLine
 10
731.4340605193986
 20
651.5931335417729
 30
0.0
 11
731.4340605193988
 21
655.4931335417728
 31
0.0
  0
LINE
  5
B5C
330
1F
100
AcDbEntity
  8
PEF-390A
100
AcDbLine
 10
751.4340605193988
 20
655.4931335417732
 30
0.0
 11
751.4340605193988
 21
651.5931335417732
 31
0.0
  0
LINE
  5
C03
330
1F
100
AcDbEntity
  8
PEF-390A
100
AcDbLine
 10
771.4340605193988
 20
655.4931335417735
 30
0.0
 11
771.4340605193986
 21
651.5931335417735
 31
0.0
  0
LINE
  5
C04
330
1F
100
AcDbEntity
  8
PEF-390A
100
AcDbLine
 10
791.4340605193988
 20
655.4931335417736
 30
0.0
 11
791.4340605193981
 21
651.5931335417738
 31
0.0
  0
LINE
  5
C05
330
1F
100
AcDbEntity
  8
PEF-390A
100
AcDbLine
 10
811.4340605193987
 20
655.4931335417737
 30
0.0
 11
811.4340605193987
 21
651.5931335417738
 31
0.0
  0
LINE
  5
C06
330
1F
100
AcDbEntity
  8
PEF-390A
100
AcDbLine
 10
831.4340605193986
 20
655.493133541774
 30
0.0
 11
831.4340605193986
 21
651.5931335417739
 31
0.0
  0
LINE
  5
C2E
330
1F
100
AcDbEntity
  8
PEF-390A
100
AcDbLine
 10
929.2340605194
 20
564.136820249422
 30
0.0
 11
929.2340605193995
 21
604.1368202494221
 31
0.0
  0
LINE
  5
C2F
330
1F
100
AcDbEntity
  8
PEF-390A
100
AcDbLine
 10
926.9340605193995
 20
604.1368202494221
 30
0.0
 11
926.9340605193995
 21
564.136820249422
 31
0.0
  0
LINE
  5
C3B
330
1F
100
AcDbEntity
  8
PEF-390A
100
AcDbLine
 10
926.9340605193995
 20
564.136820249422
 30
0.0
 11
929.2340605194
 21
564.136820249422
 31
0.0
  0
ARC
  5
C3C
330
1F
100
AcDbEntity
  8
PEF-390A
100
AcDbCircle
 10
930.7340605193999
 20
565.6368202494222
 30
0.0
 40
1.5
100
AcDbArc
 50
90.0
 51
180.0
  0
LINE
  5
C48
330
1F
100
AcDbEntity
  8
PEF-390A
100
AcDbLine
 10
925.9340605194008
 20
610.3931335417752
 30
0.0
 11
926.9340605194008
 21
610.3931335417748
 31
0.0
  0
ARC
  5
C49
330
1F
100
AcDbEntity
  8
PEF-390A
100
AcDbCircle
 10
930.7340605193996
 20
602.6368202494222
 30
0.0
 40
1.5
100
AcDbArc
 50
180.0
 51
270.0
  0
LINE
  5
C4A
330
1F
100
AcDbEntity
  8
PEF-390A
100
AcDbLine
 10
929.2340605193995
 20
604.1368202494221
 30
0.0
 11
926.9340605193995
 21
604.1368202494221
 31
0.0
  0
LINE
  5
C4C
330
1F
100
AcDbEntity
  8
PEF-390A
100
AcDbLine
 10
923.9340605194
 20
665.393133541775
 30
0.0
 11
883.4340605194002
 21
665.3931335417747
 31
0.0
  0
LINE
  5
C68
330
1F
100
AcDbEntity
  8
PEF-390A
100
AcDbLine
 10
881.4340605194002
 20
650.3931335417749
 30
0.0
 11
858.4340605194002
 21
650.3931335417747
 31
0.0
  0
LINE
  5
C6A
330
1F
100
AcDbEntity
  8
PEF-390A
100
AcDbLine
 10
851.4340605193986
 20
655.4931335417742
 30
0.0
 11
851.434060519398
 21
651.5931335417741
 31
0.0
  0
LINE
  5
C6B
330
1F
100
AcDbEntity
  8
PEF-390A
100
AcDbLine
 10
871.4340605193989
 20
655.4931335417745
 30
0.0
 11
871.4340605193982
 21
651.5931335417745
 31
0.0
  0
LINE
  5
C6C
330
1F
100
AcDbEntity
  8
PEF-390A
100
AcDbLine
 10
883.4340605194002
 20
665.3931335417747
 30
0.0
 11
881.4340605194002
 21
663.3931335417748
 31
0.0
  0
LINE
  5
C6E
330
1F
100
AcDbEntity
  8
PEF-390A
100
AcDbLine
 10
926.9340605194003
 20
662.393133541775
 30
0.0
 11
923.9340605194
 21
665.393133541775
 31
0.0
  0
LINE
  5
C6F
330
1F
100
AcDbEntity
  8
PEF-390A
100
AcDbLine
 10
699.8501498152047
 20
682.8931335417745
 30
0.0
 11
724.8501498152047
 21
682.8931335417745
 31
0.0
  0
LINE
  5
C70
330
1F
100
AcDbEntity
  8
PEF-390A
100
AcDbLine
 10
942.7944467925422
 20
452.788953122237
 30
0.0
 11
950.5587882477913
 21
436.1382691382567
 31
0.0
  0
LINE
  5
C71
330
1F
100
AcDbEntity
  8
PEF-390A
100
AcDbLine
 10
938.2629078573597
 20
450.6758618135334
 30
0.0
 11
946.027249312608
 21
434.0251778295532
 31
0.0
  0
LINE
  5
C72
330
1F
100
AcDbEntity
  8
PEF-390A
100
AcDbLine
 10
947.8862118048484
 20
431.837036414234
 30
0.0
 11
947.3769754670717
 21
431.1306807505137
 31
0.0
  0
LINE
  5
C73
330
1F
100
AcDbEntity
  8
PEF-390A
100
AcDbLine
 10
949.0530748901903
 20
431.3929122718682
 30
0.0
 11
947.8862118048484
 21
431.837036414234
 31
0.0
  0
LINE
  5
C74
330
1F
100
AcDbEntity
  8
PEF-390A
100
AcDbLine
 10
949.8032011593386
 20
432.5032226277831
 30
0.0
 11
949.0530748901903
 21
431.3929122718682
 31
0.0
  0
LINE
  5
C75
330
1F
100
AcDbEntity
  8
PEF-390A
100
AcDbLine
 10
951.1089765167453
 20
432.4199493510895
 30
0.0
 11
949.8032011593386
 21
432.5032226277831
 31
0.0
  0
LINE
  5
C76
330
1F
100
AcDbEntity
  8
PEF-390A
100
AcDbLine
 10
951.9085144022549
 20
433.2437720592172
 30
0.0
 11
951.1089765167453
 21
432.4199493510895
 31
0.0
  0
LINE
  5
C77
330
1F
100
AcDbEntity
  8
PEF-390A
100
AcDbLine
 10
947.7033487357273
 20
434.2874093509077
 30
0.0
 11
946.5364856503853
 21
434.7315334932734
 31
0.0
  0
LINE
  5
C78
330
1F
100
AcDbEntity
  8
PEF-390A
100
AcDbLine
 10
946.5364856503853
 20
434.7315334932734
 30
0.0
 11
946.027249312608
 21
434.0251778295532
 31
0.0
  0
LINE
  5
C79
330
1F
100
AcDbEntity
  8
PEF-390A
100
AcDbLine
 10
948.4534750048755
 20
435.3977197068225
 30
0.0
 11
947.7033487357273
 21
434.2874093509077
 31
0.0
  0
LINE
  5
C7A
330
1F
100
AcDbEntity
  8
PEF-390A
100
AcDbLine
 10
949.7592503622819
 20
435.3144464301287
 30
0.0
 11
948.4534750048755
 21
435.3977197068225
 31
0.0
  0
LINE
  5
C7B
330
1F
100
AcDbEntity
  8
PEF-390A
100
AcDbLine
 10
950.5587882477913
 20
436.1382691382567
 30
0.0
 11
949.7592503622819
 21
435.3144464301287
 31
0.0
  0
LINE
  5
C7C
330
1F
100
AcDbEntity
  8
PEF-390A
100
AcDbLine
 10
952.9340605193988
 20
661.1368202494222
 30
0.0
 11
952.9340605194001
 21
564.1368202494223
 31
0.0
  0
LINE
  5
C7D
330
1F
100
AcDbEntity
  8
PEF-390A
100
AcDbLine
 10
949.7340605193995
 20
564.1368202494223
 30
0.0
 11
949.734060519399
 21
661.1368202494222
 31
0.0
  0
LINE
  5
C7E
330
1F
100
AcDbEntity
  8
PEF-390A
100
AcDbLine
 10
952.9340605194001
 20
564.1368202494223
 30
0.0
 11
949.7340605193995
 21
564.1368202494223
 31
0.0
  0
ARC
  5
C7F
330
1F
100
AcDbEntity
  8
PEF-390A
100
AcDbCircle
 10
948.2340605193995
 20
565.6368202494222
 30
0.0
 40
1.5
100
AcDbArc
 50
0.0
 51
90.0
  0
ARC
  5
C80
330
1F
100
AcDbEntity
  8
PEF-390A
100
AcDbCircle
 10
948.2340605193995
 20
602.6368202494222
 30
0.0
 40
1.5
100
AcDbArc
 50
270.0
 51
0.0
  0
LINE
  5
C81
330
1F
100
AcDbEntity
  8
PEF-390A
100
AcDbLine
 10
952.9340605193992
 20
615.6368202494225
 30
0.0
 11
949.7340605193992
 21
615.6368202494222
 31
0.0
  0
LINE
  5
C82
330
1F
100
AcDbEntity
  8
PEF-390A
100
AcDbLine
 10
952.934060519399
 20
652.6368202494222
 30
0.0
 11
949.7340605193992
 21
652.6368202494225
 31
0.0
  0
LINE
  5
C83
330
1F
100
AcDbEntity
  8
PEF-390A
100
AcDbLine
 10
949.734060519399
 20
661.1368202494222
 30
0.0
 11
952.9340605193988
 21
661.1368202494222
 31
0.0
  0
TEXT
  5
DB0
330
1F
100
AcDbEntity
  8
PEF-390A
100
AcDbText
 10
588.3761307082908
 20
252.9423426539834
 30
0.0
 40
7.5
  1
PEF-390AR
100
AcDbText
  0
ENDSEC
  0
SECTION
  2
OBJECTS
  0
DICTIONARY
  5
C
330
0
100
AcDbDictionary
  3
ACAD_GROUP
350
D
  3
ACAD_LAYOUT
350
1A
  3
ACAD_MLINESTYLE
350
17
  3
ACAD_PLOTSETTINGS
350
19
  3
ACAD_PLOTSTYLENAME
350
E
  3
ACADDIM
350
453
  3
DWGPROPS
350
E80
  3
ACDBHEADERROUNDTRIPXREC
350
EDC
  0
DICTIONARY
  5
EA5
330
1F
100
AcDbDictionary
280
     1
  3
ACAD_LAYOUTSELFREF
360
EFD
  0
DICTIONARY
  5
EA3
330
1B
100
AcDbDictionary
280
     1
  3
ACAD_LAYOUTSELFREF
360
EFC
  0
DICTIONARY
  5
D
102
{ACAD_REACTORS
330
C
102
}
330
C
100
AcDbDictionary
  0
DICTIONARY
  5
1A
102
{ACAD_REACTORS
330
C
102
}
330
C
100
AcDbDictionary
  0
DICTIONARY
  5
17
102
{ACAD_REACTORS
330
C
102
}
330
C
100
AcDbDictionary
  3
STANDARD
350
18
  0
DICTIONARY
  5
19
102
{ACAD_REACTORS
330
C
102
}
330
C
100
AcDbDictionary
  0
ACDBDICTIONARYWDFLT
  5
E
102
{ACAD_REACTORS
330
C
102
}
330
C
100
AcDbDictionary
281
     1
  3
Normal
350
F
100
AcDbDictionaryWithDefault
340
F
  0
XRECORD
  5
453
102
{ACAD_REACTORS
330
C
102
}
330
C
100
AcDbXrecord
 90
   990106
  3

 60
     0
 61
     0
 62
     4
 63
     4
 64
     1
 65
     0
 66
     0
 67
     3
 68
     1
 69
     0
 70
     0
 71
     0
 72
     0
 40
0.0
170
     1
340
0
  0
XRECORD
  5
E80
102
{ACAD_REACTORS
330
C
102
}
330
C
100
AcDbXrecord
  1
DWGPROPS COOKIE
  2

  3

  4

  6

  7

  8
한신
  9

300
=
301
=
302
=
303
=
304
=
305
=
306
=
307
=
308
=
309
=
 40
0.0063087962962963
 41
2451746.460894792
 42
2451814.602971875
  1

 90
        0
  0
DICTIONARY
  5
EDC
102
{ACAD_REACTORS
330
C
102
}
330
C
100
AcDbDictionary
  3
TSTACKALIGN
350
EDD
  3
TSTACKSIZE
350
EDE
  3
HYPERLINKBASE
350
EDF
  3
STYLESHEET
350
EE0
  3
LAYOUTDICT
350
EE1
  3
PLOTSETDICT
350
EE2
  3
PLOTSTYLNAMDICT
350
EE3
  3
LWETCUNION
350
EE4
  3
INSUNITS
350
EE5
  3
CEPSNTYPE
350
EE6
  3
FINGERPRINTGUID
350
EE7
  3
VERSIONGUID
350
EE8
  3
PSVPSCALE
350
EE9
  3
PUCSORTHOREF
350
EEA
  3
PUCSORTHOVIEW
350
EEB
  3
PUCSBASE
350
EEC
  3
PUCSORGTOP
350
EED
  3
PUCSORGBOTTOM
350
EEE
  3
PUCSORGLEFT
350
EEF
  3
PUCSORGRIGHT
350
EF0
  3
PUCSORGFRONT
350
EF1
  3
PUCSORGBACK
350
EF2
  3
UCSORTHOREF
350
EF3
  3
UCSORTHOVIEW
350
EF4
  3
UCSBASE
350
EF5
  3
UCSORGTOP
350
EF6
  3
UCSORGBOTTOM
350
EF7
  3
UCSORGLEFT
350
EF8
  3
UCSORGRIGHT
350
EF9
  3
UCSORGFRONT
350
EFA
  3
UCSORGBACK
350
EFB
  0
XRECORD
  5
EFD
102
{ACAD_REACTORS
330
EA5
102
}
330
EA5
100
AcDbXrecord
340
1F
  0
XRECORD
  5
EFC
102
{ACAD_REACTORS
330
EA3
102
}
330
EA3
100
AcDbXrecord
340
1B
  0
MLINESTYLE
  5
18
102
{ACAD_REACTORS
330
17
102
}
330
17
100
AcDbMlineStyle
  2
STANDARD
 70
     0
  3

 62
   256
 51
90.0
 52
90.0
 71
     2
 49
0.5
 62
   256
  6
BYLAYER
 49
-0.5
 62
   256
  6
BYLAYER
  0
ACDBPLACEHOLDER
  5
F
102
{ACAD_REACTORS
330
E
102
}
330
E
100
AcDbPlaceHolder
280
     0
  0
XRECORD
  5
EDD
102
{ACAD_REACTORS
330
EDC
102
}
330
EDC
100
AcDbXrecord
 90
        1
  0
XRECORD
  5
EDE
102
{ACAD_REACTORS
330
EDC
102
}
330
EDC
100
AcDbXrecord
 90
       70
  0
XRECORD
  5
EDF
102
{ACAD_REACTORS
330
EDC
102
}
330
EDC
100
AcDbXrecord
  1

  0
XRECORD
  5
EE0
102
{ACAD_REACTORS
330
EDC
102
}
330
EDC
100
AcDbXrecord
  1

  0
XRECORD
  5
EE1
102
{ACAD_REACTORS
330
EDC
102
}
330
EDC
100
AcDbXrecord
340
1A
  0
XRECORD
  5
EE2
102
{ACAD_REACTORS
330
EDC
102
}
330
EDC
100
AcDbXrecord
340
19
  0
XRECORD
  5
EE3
102
{ACAD_REACTORS
330
EDC
102
}
330
EDC
100
AcDbXrecord
340
E
  0
XRECORD
  5
EE4
102
{ACAD_REACTORS
330
EDC
102
}
330
EDC
100
AcDbXrecord
 90
    10781
  0
XRECORD
  5
EE5
102
{ACAD_REACTORS
330
EDC
102
}
330
EDC
100
AcDbXrecord
 90
        1
  0
XRECORD
  5
EE6
102
{ACAD_REACTORS
330
EDC
102
}
330
EDC
100
AcDbXrecord
 90
        0
  0
XRECORD
  5
EE7
102
{ACAD_REACTORS
330
EDC
102
}
330
EDC
100
AcDbXrecord
  1
{FDEAD576-A652-11D2-9A35-0060089B3A3F}
  0
XRECORD
  5
EE8
102
{ACAD_REACTORS
330
EDC
102
}
330
EDC
100
AcDbXrecord
  1
{A5971056-CA4C-4596-8906-3C62F0490816}
  0
XRECORD
  5
EE9
102
{ACAD_REACTORS
330
EDC
102
}
330
EDC
100
AcDbXrecord
 40
0.0
  0
XRECORD
  5
EEA
102
{ACAD_REACTORS
330
EDC
102
}
330
EDC
100
AcDbXrecord
340
0
  0
XRECORD
  5
EEB
102
{ACAD_REACTORS
330
EDC
102
}
330
EDC
100
AcDbXrecord
 70
     0
  0
XRECORD
  5
EEC
102
{ACAD_REACTORS
330
EDC
102
}
330
EDC
100
AcDbXrecord
340
0
  0
XRECORD
  5
EED
102
{ACAD_REACTORS
330
EDC
102
}
330
EDC
100
AcDbXrecord
 10
0.0
 20
0.0
 30
0.0
  0
XRECORD
  5
EEE
102
{ACAD_REACTORS
330
EDC
102
}
330
EDC
100
AcDbXrecord
 10
0.0
 20
0.0
 30
0.0
  0
XRECORD
  5
EEF
102
{ACAD_REACTORS
330
EDC
102
}
330
EDC
100
AcDbXrecord
 10
0.0
 20
0.0
 30
0.0
  0
XRECORD
  5
EF0
102
{ACAD_REACTORS
330
EDC
102
}
330
EDC
100
AcDbXrecord
 10
0.0
 20
0.0
 30
0.0
  0
XRECORD
  5
EF1
102
{ACAD_REACTORS
330
EDC
102
}
330
EDC
100
AcDbXrecord
 10
0.0
 20
0.0
 30
0.0
  0
XRECORD
  5
EF2
102
{ACAD_REACTORS
330
EDC
102
}
330
EDC
100
AcDbXrecord
 10
0.0
 20
0.0
 30
0.0
  0
XRECORD
  5
EF3
102
{ACAD_REACTORS
330
EDC
102
}
330
EDC
100
AcDbXrecord
340
0
  0
XRECORD
  5
EF4
102
{ACAD_REACTORS
330
EDC
102
}
330
EDC
100
AcDbXrecord
 70
     0
  0
XRECORD
  5
EF5
102
{ACAD_REACTORS
330
EDC
102
}
330
EDC
100
AcDbXrecord
340
0
  0
XRECORD
  5
EF6
102
{ACAD_REACTORS
330
EDC
102
}
330
EDC
100
AcDbXrecord
 10
0.0
 20
0.0
 30
0.0
  0
XRECORD
  5
EF7
102
{ACAD_REACTORS
330
EDC
102
}
330
EDC
100
AcDbXrecord
 10
0.0
 20
0.0
 30
0.0
  0
XRECORD
  5
EF8
102
{ACAD_REACTORS
330
EDC
102
}
330
EDC
100
AcDbXrecord
 10
0.0
 20
0.0
 30
0.0
  0
XRECORD
  5
EF9
102
{ACAD_REACTORS
330
EDC
102
}
330
EDC
100
AcDbXrecord
 10
0.0
 20
0.0
 30
0.0
  0
XRECORD
  5
EFA
102
{ACAD_REACTORS
330
EDC
102
}
330
EDC
100
AcDbXrecord
 10
0.0
 20
0.0
 30
0.0
  0
XRECORD
  5
EFB
102
{ACAD_REACTORS
330
EDC
102
}
330
EDC
100
AcDbXrecord
 10
0.0
 20
0.0
 30
0.0
  0
ENDSEC
  0
EOF
