  0
SECTION
  2
HEADER
  9
$ACADVER
  1
AC1014
  9
$ACADMAINTVER
 70
     9
  9
$DWGCODEPAGE
  3
ANSI_949
  9
$INSBASE
 10
0.0
 20
0.0
 30
0.0
  9
$EXTMIN
 10
-452.716260619537
 20
13.5411994377398
 30
-0.0000000000000053
  9
$EXTMAX
 10
-117.6809966919213
 20
162.4807897194763
 30
0.0000000000000099
  9
$LIMMIN
 10
0.0
 20
0.0
  9
$LIMMAX
 10
420.0
 20
297.0
  9
$ORTHOMODE
 70
     0
  9
$REGENMODE
 70
     1
  9
$FILLMODE
 70
     1
  9
$QTEXTMODE
 70
     0
  9
$MIRRTEXT
 70
     1
  9
$DRAGMODE
 70
     2
  9
$LTSCALE
 40
10.0
  9
$OSMODE
 70
    37
  9
$ATTMODE
 70
     1
  9
$TEXTSIZE
 40
4.0
  9
$TRACEWID
 40
0.05
  9
$TEXTSTYLE
  7
STANDARD
  9
$CLAYER
  8
0
  9
$CELTYPE
  6
BYLAYER
  9
$CECOLOR
 62
   256
  9
$CELTSCALE
 40
1.0
  9
$DELOBJ
 70
     1
  9
$DISPSILH
 70
     0
  9
$DIMSCALE
 40
1.0
  9
$DIMASZ
 40
2.299999999999998
  9
$DIMEXO
 40
0.5
  9
$DIMDLI
 40
8.0
  9
$DIMRND
 40
0.0
  9
$DIMDLE
 40
0.0
  9
$DIMEXE
 40
1.0
  9
$DIMTP
 40
0.0
  9
$DIMTM
 40
0.000000001
  9
$DIMTXT
 40
2.299999999999998
  9
$DIMCEN
 40
0.09
  9
$DIMTSZ
 40
0.0
  9
$DIMTOL
 70
     0
  9
$DIMLIM
 70
     0
  9
$DIMTIH
 70
     0
  9
$DIMTOH
 70
     0
  9
$DIMSE1
 70
     0
  9
$DIMSE2
 70
     0
  9
$DIMTAD
 70
     1
  9
$DIMZIN
 70
     8
  9
$DIMBLK
  1

  9
$DIMASO
 70
     1
  9
$DIMSHO
 70
     1
  9
$DIMPOST
  1

  9
$DIMAPOST
  1

  9
$DIMALT
 70
     0
  9
$DIMALTD
 70
     1
  9
$DIMALTF
 40
25.4
  9
$DIMLFAC
 40
1.0
  9
$DIMTOFL
 70
     1
  9
$DIMTVP
 40
0.0
  9
$DIMTIX
 70
     0
  9
$DIMSOXD
 70
     0
  9
$DIMSAH
 70
     0
  9
$DIMBLK1
  1

  9
$DIMBLK2
  1

  9
$DIMSTYLE
  2
STANDARD
  9
$DIMCLRD
 70
     5
  9
$DIMCLRE
 70
     5
  9
$DIMCLRT
 70
     3
  9
$DIMTFAC
 40
0.7
  9
$DIMGAP
 40
0.5
  9
$DIMJUST
 70
     0
  9
$DIMSD1
 70
     0
  9
$DIMSD2
 70
     0
  9
$DIMTOLJ
 70
     1
  9
$DIMTZIN
 70
     0
  9
$DIMALTZ
 70
     0
  9
$DIMALTTZ
 70
     0
  9
$DIMFIT
 70
     3
  9
$DIMUPT
 70
     1
  9
$DIMUNIT
 70
     2
  9
$DIMDEC
 70
     1
  9
$DIMTDEC
 70
     1
  9
$DIMALTU
 70
     2
  9
$DIMALTTD
 70
     1
  9
$DIMTXSTY
  7
STANDARD
  9
$DIMAUNIT
 70
     0
  9
$LUNITS
 70
     2
  9
$LUPREC
 70
     4
  9
$SKETCHINC
 40
0.1
  9
$FILLETRAD
 40
0.5
  9
$AUNITS
 70
     0
  9
$AUPREC
 70
     0
  9
$MENU
  1
.
  9
$ELEVATION
 40
0.0
  9
$PELEVATION
 40
0.0
  9
$THICKNESS
 40
0.0
  9
$LIMCHECK
 70
     0
  9
$BLIPMODE
 70
     0
  9
$CHAMFERA
 40
0.5
  9
$CHAMFERB
 40
0.5
  9
$CHAMFERC
 40
1.0
  9
$CHAMFERD
 40
0.0
  9
$SKPOLY
 70
     0
  9
$TDCREATE
 40
2451736.403766551
  9
$TDUPDATE
 40
2452761.345517940
  9
$TDINDWG
 40
0.3282120255
  9
$TDUSRTIMER
 40
0.3282116667
  9
$USRTIMER
 70
     1
  9
$ANGBASE
 50
0.0
  9
$ANGDIR
 70
     0
  9
$PDMODE
 70
     0
  9
$PDSIZE
 40
0.0
  9
$PLINEWID
 40
0.0
  9
$COORDS
 70
     2
  9
$SPLFRAME
 70
     0
  9
$SPLINETYPE
 70
     6
  9
$SPLINESEGS
 70
     8
  9
$ATTDIA
 70
     0
  9
$ATTREQ
 70
     1
  9
$HANDLING
 70
 12289
  9
$HANDSEED
  5
10B8
  9
$SURFTAB1
 70
     6
  9
$SURFTAB2
 70
     6
  9
$SURFTYPE
 70
     6
  9
$SURFU
 70
     6
  9
$SURFV
 70
     6
  9
$UCSNAME
  2

  9
$UCSORG
 10
-493.2500004431735
 20
-64.50000033073036
 30
0.0
  9
$UCSXDIR
 10
1.0
 20
0.0
 30
0.0
  9
$UCSYDIR
 10
0.0
 20
1.0
 30
0.0
  9
$PUCSNAME
  2

  9
$PUCSORG
 10
0.0
 20
0.0
 30
0.0
  9
$PUCSXDIR
 10
1.0
 20
0.0
 30
0.0
  9
$PUCSYDIR
 10
0.0
 20
1.0
 30
0.0
  9
$USERI1
 70
     0
  9
$USERI2
 70
     0
  9
$USERI3
 70
     0
  9
$USERI4
 70
     0
  9
$USERI5
 70
     0
  9
$USERR1
 40
0.0
  9
$USERR2
 40
0.0
  9
$USERR3
 40
0.0
  9
$USERR4
 40
0.0
  9
$USERR5
 40
0.0
  9
$WORLDVIEW
 70
     1
  9
$SHADEDGE
 70
     3
  9
$SHADEDIF
 70
    70
  9
$TILEMODE
 70
     1
  9
$MAXACTVP
 70
    64
  9
$PINSBASE
 10
0.0
 20
0.0
 30
0.0
  9
$PLIMCHECK
 70
     0
  9
$PEXTMIN
 10
1.000000000000000E+20
 20
1.000000000000000E+20
 30
1.000000000000000E+20
  9
$PEXTMAX
 10
-1.000000000000000E+20
 20
-1.000000000000000E+20
 30
-1.000000000000000E+20
  9
$PLIMMIN
 10
0.0
 20
0.0
  9
$PLIMMAX
 10
12.0
 20
9.0
  9
$UNITMODE
 70
     0
  9
$VISRETAIN
 70
     1
  9
$PLINEGEN
 70
     0
  9
$PSLTSCALE
 70
     1
  9
$TREEDEPTH
 70
  3020
  9
$PICKSTYLE
 70
     1
  9
$CMLSTYLE
  2
STANDARD
  9
$CMLJUST
 70
     0
  9
$CMLSCALE
 40
1.0
  9
$PROXYGRAPHICS
 70
     1
  9
$MEASUREMENT
 70
     0
  0
ENDSEC
  0
SECTION
  2
CLASSES
  0
CLASS
  1
ACDBDICTIONARYWDFLT
  2
AcDbDictionaryWithDefault
  3
AutoCAD 2000
 90
        0
280
     0
281
     0
  0
CLASS
  1
ACDBPLACEHOLDER
  2
AcDbPlaceHolder
  3
AutoCAD 2000
 90
        0
280
     0
281
     0
  0
CLASS
  1
LAYOUT
  2
AcDbLayout
  3
AutoCAD 2000
 90
        0
280
     0
281
     0
  0
CLASS
  1
LONG_TRANSACTION
  2
AcDbLongTransaction
  3
AutoCAD 2000
 90
        0
280
     0
281
     0
  0
CLASS
  1
LWPOLYLINE
  2
AcDbPolyline
  3
AutoCAD 2000
 90
        0
280
     0
281
     1
  0
CLASS
  1
HATCH
  2
AcDbHatch
  3
AutoCAD 2000
 90
        0
280
     0
281
     1
  0
CLASS
  1
XRECORD
  2
AcDbXrecord
  3
AutoCAD 2000
 90
        0
280
     0
281
     0
  0
CLASS
  1
LONG_TRANSACTION
  2
AcDbLongTransaction
  3
AutoCAD 2000
 90
        0
280
     0
281
     0
  0
CLASS
  1
LWPOLYLINE
  2
AcDbPolyline
  3
AutoCAD 2000
 90
        0
280
     0
281
     1
  0
CLASS
  1
HATCH
  2
AcDbHatch
  3
AutoCAD 2000
 90
        0
280
     0
281
     1
  0
CLASS
  1
XRECORD
  2
AcDbXrecord
  3
AutoCAD 2000
 90
        0
280
     0
281
     0
  0
CLASS
  1
LONG_TRANSACTION
  2
AcDbLongTransaction
  3
AutoCAD 2000
 90
        0
280
     0
281
     0
  0
CLASS
  1
LWPOLYLINE
  2
AcDbPolyline
  3
AutoCAD 2000
 90
        0
280
     0
281
     1
  0
CLASS
  1
HATCH
  2
AcDbHatch
  3
AutoCAD 2000
 90
        0
280
     0
281
     1
  0
CLASS
  1
XRECORD
  2
AcDbXrecord
  3
AutoCAD 2000
 90
        0
280
     0
281
     0
  0
ENDSEC
  0
SECTION
  2
TABLES
  0
TABLE
  2
VPORT
  5
8
330
0
100
AcDbSymbolTable
 70
     2
  0
VPORT
  5
1095
330
8
100
AcDbSymbolTableRecord
100
AcDbViewportTableRecord
  2
*ACTIVE
 70
     0
 10
0.0
 20
0.0
 11
1.0
 21
1.0
 12
-285.1986286557291
 22
88.01099457860805
 13
0.0
 23
0.0
 14
1.0
 24
1.0
 15
5.0
 25
5.0
 16
0.0
 26
0.0
 36
1.0
 17
0.0
 27
0.0
 37
0.0
 40
227.1860064702577
 41
1.481743227326266
 42
50.0
 43
0.0
 44
0.0
 50
0.0
 51
0.0
 71
     0
 72
  2000
 73
     1
 74
     3
 75
     0
 76
     0
 77
     0
 78
     0
  0
ENDTAB
  0
TABLE
  2
LTYPE
  5
5
330
0
100
AcDbSymbolTable
 70
     4
  0
LTYPE
  5
14
330
5
100
AcDbSymbolTableRecord
100
AcDbLinetypeTableRecord
  2
BYBLOCK
 70
     0
  3

 72
    65
 73
     0
 40
0.0
  0
LTYPE
  5
15
330
5
100
AcDbSymbolTableRecord
100
AcDbLinetypeTableRecord
  2
BYLAYER
 70
     0
  3

 72
    65
 73
     0
 40
0.0
  0
LTYPE
  5
16
330
5
100
AcDbSymbolTableRecord
100
AcDbLinetypeTableRecord
  2
CONTINUOUS
 70
     0
  3
Solid line
 72
    65
 73
     0
 40
0.0
  0
LTYPE
  5
45E
330
5
100
AcDbSymbolTableRecord
100
AcDbLinetypeTableRecord
  2
CENTER2
 70
     0
  3
Center (.5x) ___ _ ___ _ ___ _ ___ _ ___ _ ___
 72
    65
 73
     4
 40
1.125
 49
0.75
 74
     0
 49
-0.125
 74
     0
 49
0.125
 74
     0
 49
-0.125
 74
     0
  0
LTYPE
  5
45F
330
5
100
AcDbSymbolTableRecord
100
AcDbLinetypeTableRecord
  2
HIDDEN
 70
     0
  3
Hidden __ __ __ __ __ __ __ __ __ __ __ __ __ _
 72
    65
 73
     2
 40
0.375
 49
0.25
 74
     0
 49
-0.125
 74
     0
  0
LTYPE
  5
1022
330
5
100
AcDbSymbolTableRecord
100
AcDbLinetypeTableRecord
  2
PHANTOM2
 70
     0
  3
Phantom (.5x) ___ _ _ ___ _ _ ___ _ _ ___ _ _
 72
    65
 73
     6
 40
1.25
 49
0.625
 74
     0
 49
-0.125
 74
     0
 49
0.125
 74
     0
 49
-0.125
 74
     0
 49
0.125
 74
     0
 49
-0.125
 74
     0
  0
ENDTAB
  0
TABLE
  2
LAYER
  5
2
330
0
100
AcDbSymbolTable
 70
     2
  0
LAYER
  5
10
330
2
100
AcDbSymbolTableRecord
100
AcDbLayerTableRecord
  2
0
 70
     0
 62
     7
  6
CONTINUOUS
  0
LAYER
  5
1094
330
2
100
AcDbSymbolTableRecord
100
AcDbLayerTableRecord
  2
PEF-90A
 70
     0
 62
     7
  6
CONTINUOUS
  0
ENDTAB
  0
TABLE
  2
STYLE
  5
3
330
0
100
AcDbSymbolTable
 70
     1
  0
STYLE
  5
11
330
3
100
AcDbSymbolTableRecord
100
AcDbTextStyleTableRecord
  2
STANDARD
 70
     0
 40
0.0
 41
1.0
 50
0.0
 71
     0
 42
4.0
  3
txt.shx
  4
whgtxt.shx
  0
ENDTAB
  0
TABLE
  2
VIEW
  5
6
330
0
100
AcDbSymbolTable
 70
     0
  0
ENDTAB
  0
TABLE
  2
UCS
  5
7
330
0
100
AcDbSymbolTable
 70
     0
  0
ENDTAB
  0
TABLE
  2
APPID
  5
9
330
0
100
AcDbSymbolTable
 70
     3
  0
APPID
  5
12
330
9
100
AcDbSymbolTableRecord
100
AcDbRegAppTableRecord
  2
ACAD
 70
     0
  0
APPID
  5
CEB
330
9
100
AcDbSymbolTableRecord
100
AcDbRegAppTableRecord
  2
MCAD_NO_VIS
 70
     0
  0
APPID
  5
CEC
330
9
100
AcDbSymbolTableRecord
100
AcDbRegAppTableRecord
  2
ACAD_TEMP_GRAPHIC
 70
     0
  0
ENDTAB
  0
TABLE
  2
DIMSTYLE
  5
A
330
0
100
AcDbSymbolTable
 70
     1
  0
DIMSTYLE
105
27
330
A
100
AcDbSymbolTableRecord
100
AcDbDimStyleTableRecord
  2
STANDARD
 70
     0
  3

  4

  5

  6

  7

 40
1.0
 41
2.299999999999998
 42
0.5
 43
8.0
 44
1.0
 45
0.0
 46
0.0
 47
0.0
 48
0.000000001
140
2.299999999999998
141
0.09
142
0.0
143
25.4
144
1.0
145
0.0
146
0.7
147
0.5
 71
     0
 72
     0
 73
     0
 74
     0
 75
     0
 76
     0
 77
     1
 78
     8
170
     0
171
     1
172
     1
173
     0
174
     0
175
     0
176
     5
177
     5
178
     3
270
     2
271
     1
272
     1
273
     2
274
     1
340
11
275
     0
280
     0
281
     0
282
     0
283
     1
284
     0
285
     0
286
     0
287
     3
288
     1
  0
ENDTAB
  0
TABLE
  2
BLOCK_RECORD
  5
1
330
0
100
AcDbSymbolTable
 70
     0
  0
BLOCK_RECORD
  5
1F
102
{ACAD_XDICTIONARY
360
105F
102
}
330
1
100
AcDbSymbolTableRecord
100
AcDbBlockTableRecord
  2
*MODEL_SPACE
  0
BLOCK_RECORD
  5
1B
102
{ACAD_XDICTIONARY
360
105D
102
}
330
1
100
AcDbSymbolTableRecord
100
AcDbBlockTableRecord
  2
*PAPER_SPACE
  0
ENDTAB
  0
ENDSEC
  0
SECTION
  2
BLOCKS
  0
BLOCK
  5
20
330
1F
100
AcDbEntity
  8
0
100
AcDbBlockBegin
  2
*MODEL_SPACE
 70
     0
 10
0.0
 20
0.0
 30
0.0
  3
*MODEL_SPACE
  1

  0
ENDBLK
  5
21
330
1F
100
AcDbEntity
  8
0
100
AcDbBlockEnd
  0
BLOCK
  5
1C
330
1B
100
AcDbEntity
 67
     1
  8
0
100
AcDbBlockBegin
  2
*PAPER_SPACE
 70
     0
 10
0.0
 20
0.0
 30
0.0
  3
*PAPER_SPACE
  1

  0
ENDBLK
  5
1D
330
1B
100
AcDbEntity
 67
     1
  8
0
100
AcDbBlockEnd
  0
ENDSEC
  0
SECTION
  2
ENTITIES
  0
LINE
  5
87C
330
1F
100
AcDbEntity
  8
PEF-90A
  6
CONTINUOUS
100
AcDbLine
 10
-196.508611182223
 20
80.74307336013175
 30
0.0
 11
-196.508611182223
 21
108.9694327916947
 31
0.0
  0
LINE
  5
880
330
1F
100
AcDbEntity
  8
PEF-90A
  6
CONTINUOUS
100
AcDbLine
 10
-175.5086111822232
 20
46.29401127426073
 30
0.0
 11
-175.508611182223
 21
144.2940112742608
 31
0.0
  0
LINE
  5
885
330
1F
100
AcDbEntity
  8
PEF-90A
  6
CONTINUOUS
100
AcDbLine
 10
-262.1121507746236
 20
120.2487061702962
 30
0.0
 11
-262.1121507746236
 21
70.24870617029643
 31
0.0
  0
LINE
  5
886
330
1F
100
AcDbEntity
  8
PEF-90A
  6
CONTINUOUS
100
AcDbLine
 10
-260.6121507746236
 20
50.74870617029636
 30
0.0
 11
-260.6121507746236
 21
139.7487061702961
 31
0.0
  0
CIRCLE
  5
887
330
1F
100
AcDbEntity
  8
PEF-90A
  6
CONTINUOUS
100
AcDbCircle
 10
-385.5086111822231
 20
95.29401127426019
 30
0.0
 40
49.10000000000053
  0
CIRCLE
  5
888
330
1F
100
AcDbEntity
  8
PEF-90A
  6
CONTINUOUS
100
AcDbCircle
 10
-385.5086111822231
 20
95.29401127426019
 30
0.0
 40
47.50000000000055
  0
LINE
  5
889
330
1F
100
AcDbEntity
  8
PEF-90A
  6
CONTINUOUS
100
AcDbLine
 10
-370.2934012939738
 20
53.29401127426024
 30
0.0
 11
-377.1586111822232
 21
53.29401127426024
 31
0.0
  0
LINE
  5
88A
330
1F
100
AcDbEntity
  8
PEF-90A
  6
CONTINUOUS
100
AcDbLine
 10
-370.2934012939738
 20
69.29401127426017
 30
0.0
 11
-377.1586111822232
 21
69.29401127426017
 31
0.0
  0
ARC
  5
88B
330
1F
100
AcDbEntity
  8
PEF-90A
  6
CONTINUOUS
100
AcDbCircle
 10
-374.6586111822232
 20
70.02490958860471
 30
0.0
 40
2.499999999999999
100
AcDbArc
 50
65.18131957522938
 51
180.0
  0
LINE
  5
88C
330
1F
100
AcDbEntity
  8
PEF-90A
  6
CENTER2
100
AcDbLine
 10
-384.7482647245053
 20
61.29401127426013
 30
0.0
 11
-364.2860969832208
 21
61.29401127426024
 31
0.0
  0
LINE
  5
88D
330
1F
100
AcDbEntity
  8
PEF-90A
  6
CENTER2
100
AcDbLine
 10
-382.7663063368098
 20
65.29401127426011
 30
0.0
 11
-365.178881007806
 21
65.29401127426024
 31
0.0
  0
LINE
  5
88E
330
1F
100
AcDbEntity
  8
PEF-90A
  6
CENTER2
100
AcDbLine
 10
-382.7663063368098
 20
57.29401127426013
 30
0.0
 11
-365.1788810078059
 21
57.29401127426029
 31
0.0
  0
CIRCLE
  5
88F
330
1F
100
AcDbEntity
  8
PEF-90A
  6
CONTINUOUS
100
AcDbCircle
 10
-385.5086111822231
 20
95.29401127426019
 30
0.0
 40
25.0
  0
ARC
  5
891
330
1F
100
AcDbEntity
  8
PEF-90A
  6
CONTINUOUS
100
AcDbCircle
 10
-385.5086111822231
 20
95.29401127426019
 30
0.0
 40
45.0
100
AcDbArc
 50
59.26213132787154
 51
100.693524212566
  0
ARC
  5
892
330
1F
100
AcDbEntity
  8
PEF-90A
  6
CONTINUOUS
100
AcDbCircle
 10
-385.5086111822231
 20
95.29401127426011
 30
0.0
 40
50.0
100
AcDbArc
 50
4.68731230983607
 51
85.3126876901639
  0
ARC
  5
893
330
1F
100
AcDbEntity
  8
PEF-90A
  6
CONTINUOUS
100
AcDbCircle
 10
-385.5086111822231
 20
95.29401127426011
 30
0.0
 40
50.0
100
AcDbArc
 50
274.6873123098358
 51
355.3126876901639
  0
LINE
  5
894
330
1F
100
AcDbEntity
  8
PEF-90A
  6
CENTER2
100
AcDbLine
 10
-446.8504786521029
 20
95.29401127426003
 30
0.0
 11
-320.0312015436691
 21
95.29401127426037
 31
0.0
  0
LINE
  5
898
330
1F
100
AcDbEntity
  8
PEF-90A
  6
CONTINUOUS
100
AcDbLine
 10
-196.508611182223
 20
140.5953312873569
 30
0.0
 11
-196.508611182223
 21
45.79401127426081
 31
0.0
  0
LINE
  5
899
330
1F
100
AcDbEntity
  8
PEF-90A
  6
CONTINUOUS
100
AcDbLine
 10
-196.508611182223
 20
47.37783869204213
 30
0.0
 11
-184.4592665065674
 21
47.9731348810901
 31
0.0
  0
LINE
  5
89B
330
1F
100
AcDbEntity
  8
PEF-90A
  6
CONTINUOUS
100
AcDbLine
 10
-144.7761080070104
 20
35.13193929870936
 30
0.0
 11
-147.1347465385191
 21
50.01610536389875
 31
0.0
  0
LINE
  5
89C
330
1F
100
AcDbEntity
  8
PEF-90A
  6
CONTINUOUS
100
AcDbLine
 10
-142.8007638870541
 20
35.44501374313813
 30
0.0
 11
-145.2491355848134
 21
50.89538019191286
 31
0.0
  0
LINE
  5
89D
330
1F
100
AcDbEntity
  8
PEF-90A
  6
CONTINUOUS
100
AcDbLine
 10
-134.9872512138039
 20
39.08851453976557
 30
0.0
 11
-145.2491355848134
 21
50.89538019191286
 31
0.0
  0
LINE
  5
89E
330
1F
100
AcDbEntity
  8
PEF-90A
  6
CONTINUOUS
100
AcDbLine
 10
-133.4776955501918
 20
40.4004755523175
 30
0.0
 11
-143.3635246311076
 21
51.77465501992656
 31
0.0
  0
LINE
  5
89F
330
1F
100
AcDbEntity
  8
PEF-90A
  6
CONTINUOUS
100
AcDbLine
 10
-160.5086111822233
 20
31.22546877933649
 30
0.0
 11
-160.5086111822231
 21
74.50974002679846
 31
0.0
  0
LINE
  5
8A0
330
1F
100
AcDbEntity
  8
PEF-90A
  6
CONTINUOUS
100
AcDbLine
 10
-162.8086111822231
 20
74.50974002679846
 30
0.0
 11
-162.8086111822233
 21
31.22546877933642
 31
0.0
  0
LINE
  5
8A2
330
1F
100
AcDbEntity
  8
PEF-90A
  6
CENTER2
100
AcDbLine
 10
-202.5086111822232
 20
39.07262573209203
 30
0.0
 11
-202.5086111822233
 21
55.07262573209209
 31
0.0
  0
LINE
  5
8A4
330
1F
100
AcDbEntity
  8
PEF-90A
  6
CONTINUOUS
100
AcDbLine
 10
-196.0086111822234
 20
45.29401127426075
 30
0.0
 11
-176.508611182223
 21
45.29401127426082
 31
0.0
  0
LINE
  5
8A5
330
1F
100
AcDbEntity
  8
PEF-90A
  6
CONTINUOUS
100
AcDbLine
 10
-144.3963829309906
 20
18.68923764091542
 30
0.0
 11
-144.5115025817671
 21
22.29380223252786
 31
0.0
  0
LINE
  5
8A6
330
1F
100
AcDbEntity
  8
PEF-90A
  6
CONTINUOUS
100
AcDbLine
 10
-138.0753523864326
 20
19.69152146038273
 30
0.0
 11
-137.2608734687256
 21
14.55490644503472
 31
0.0
  0
LINE
  5
8A7
330
1F
100
AcDbEntity
  8
PEF-90A
  6
CONTINUOUS
100
AcDbLine
 10
-138.4460666958305
 20
14.36697822888427
 30
0.0
 11
-139.2291009297904
 21
19.30528334182
 31
0.0
  0
ARC
  5
8A8
330
1F
100
AcDbEntity
  8
PEF-90A
  6
CONTINUOUS
100
AcDbCircle
 10
-141.2044229749644
 20
18.99206964823601
 30
0.0
 40
2.000000000000023
100
AcDbArc
 50
9.009999999999712
 51
189.0099999999995
  0
LINE
  5
8A9
330
1F
100
AcDbEntity
  8
PEF-90A
  6
CONTINUOUS
100
AcDbLine
 10
-137.2608734687256
 20
14.55490644503472
 30
0.0
 11
-138.4460666958305
 21
14.36697822888427
 31
0.0
  0
LINE
  5
8AA
330
1F
100
AcDbEntity
  8
PEF-90A
  6
CONTINUOUS
100
AcDbLine
 10
-144.3963829309906
 20
18.68923764091542
 30
0.0
 11
-143.5819040132837
 21
13.55262262556578
 31
0.0
  0
LINE
  5
8AB
330
1F
100
AcDbEntity
  8
PEF-90A
  6
CONTINUOUS
100
AcDbLine
 10
-143.1797450201389
 20
18.67885595465198
 30
0.0
 11
-142.3967107861789
 21
13.74055084171632
 31
0.0
  0
LINE
  5
8AC
330
1F
100
AcDbEntity
  8
PEF-90A
  6
CONTINUOUS
100
AcDbLine
 10
-142.3967107861789
 20
13.74055084171621
 30
0.0
 11
-143.5819040132837
 21
13.55262262556578
 31
0.0
  0
LINE
  5
8AD
330
1F
100
AcDbEntity
  8
PEF-90A
  6
CONTINUOUS
100
AcDbLine
 10
-127.9635213033482
 20
28.33903034461604
 30
0.0
 11
-128.9205521683405
 21
30.44992412665839
 31
0.0
  0
LINE
  5
8AE
330
1F
100
AcDbEntity
  8
PEF-90A
  6
CONTINUOUS
100
AcDbLine
 10
-125.0807645421665
 20
33.78662417542408
 30
0.0
 11
-131.968001164112
 21
41.71227693802597
 31
0.0
  0
LINE
  5
8AF
330
1F
100
AcDbEntity
  8
PEF-90A
  6
CONTINUOUS
100
AcDbLine
 10
-129.6097089779389
 20
29.85106039145557
 30
0.0
 11
-125.0807645421665
 21
33.78662417542408
 31
0.0
  0
LINE
  5
8B0
330
1F
100
AcDbEntity
  8
PEF-90A
  6
CONTINUOUS
100
AcDbLine
 10
-125.9568119541514
 20
25.34248966961614
 30
0.0
 11
-127.9635213033482
 21
28.33903034461604
 31
0.0
  0
LINE
  5
8B1
330
1F
100
AcDbEntity
  8
PEF-90A
  6
CONTINUOUS
100
AcDbLine
 10
-121.1259378893285
 20
29.54042437251723
 30
0.0
 11
-117.7145994570315
 21
25.61474483597362
 31
0.0
  0
LINE
  5
8B2
330
1F
100
AcDbEntity
  8
PEF-90A
  6
CONTINUOUS
100
AcDbLine
 10
-121.9000248308269
 20
28.60175244232367
 30
0.0
 11
-118.6203883441862
 21
24.82763207917992
 31
0.0
  0
ARC
  5
8B3
330
1F
100
AcDbEntity
  8
PEF-90A
  6
CONTINUOUS
100
AcDbCircle
 10
-123.409672976084
 20
27.28989784766742
 30
0.0
 40
1.999999999999986
100
AcDbArc
 50
40.98999999999834
 51
220.9899999999983
  0
LINE
  5
8B4
330
1F
100
AcDbEntity
  8
PEF-90A
  6
CONTINUOUS
100
AcDbLine
 10
-125.9568119541514
 20
25.34248966961614
 30
0.0
 11
-122.5454735218558
 21
21.41681013307354
 31
0.0
  0
LINE
  5
8B5
330
1F
100
AcDbEntity
  8
PEF-90A
  6
CONTINUOUS
100
AcDbLine
 10
-121.6396846347012
 20
22.20392288986742
 30
0.0
 11
-124.9193211213418
 21
25.97804325301121
 31
0.0
  0
LINE
  5
8B6
330
1F
100
AcDbEntity
  8
PEF-90A
  6
CONTINUOUS
100
AcDbLine
 10
-122.5454735218558
 20
21.41681013307354
 30
0.0
 11
-121.6396846347012
 21
22.20392288986742
 31
0.0
  0
LINE
  5
8B7
330
1F
100
AcDbEntity
  8
PEF-90A
  6
CONTINUOUS
100
AcDbLine
 10
-118.6203883441863
 20
24.8276320791798
 30
0.0
 11
-117.7145994570315
 21
25.61474483597362
 31
0.0
  0
LINE
  5
8B8
330
1F
100
AcDbEntity
  8
PEF-90A
  6
CONTINUOUS
100
AcDbLine
 10
-121.1259378893285
 20
29.54042437251723
 30
0.0
 11
-123.8131970794462
 21
31.94558059909167
 31
0.0
  0
LINE
  5
8B9
330
1F
100
AcDbEntity
  8
PEF-90A
  6
CONTINUOUS
100
AcDbLine
 10
-123.8131970794462
 20
31.94558059909167
 30
0.0
 11
-125.7699213517651
 21
33.18776044022172
 31
0.0
  0
LINE
  5
8BA
330
1F
100
AcDbEntity
  8
PEF-90A
  6
CONTINUOUS
100
AcDbLine
 10
-136.4969455998843
 20
37.77671315405722
 30
0.0
 11
-129.609708977939
 21
29.85106039145557
 31
0.0
  0
LINE
  5
8BB
330
1F
100
AcDbEntity
  8
PEF-90A
  6
CONTINUOUS
100
AcDbLine
 10
-145.1070471234778
 20
24.44821524338282
 30
0.0
 11
-146.7514190147938
 21
34.81865598054776
 31
0.0
  0
LINE
  5
8BC
330
1F
100
AcDbEntity
  8
PEF-90A
  6
CONTINUOUS
100
AcDbLine
 10
-140.8254528792709
 20
35.75829706129974
 30
0.0
 11
-139.181080987955
 21
25.38785632413487
 31
0.0
  0
LINE
  5
8BD
330
1F
100
AcDbEntity
  8
PEF-90A
  6
CONTINUOUS
100
AcDbLine
 10
-139.181080987955
 20
25.38785632413487
 30
0.0
 11
-145.1070471234778
 21
24.44821524338282
 31
0.0
  0
LINE
  5
8BE
330
1F
100
AcDbEntity
  8
PEF-90A
  6
CONTINUOUS
100
AcDbLine
 10
-138.0753523864326
 20
19.69152146038273
 30
0.0
 11
-139.0809478131906
 21
23.15488922410132
 31
0.0
  0
LINE
  5
8BF
330
1F
100
AcDbEntity
  8
PEF-90A
  6
CONTINUOUS
100
AcDbLine
 10
-139.0809478131906
 20
23.15488922410132
 30
0.0
 11
-140.0828186828338
 21
25.24487376858349
 31
0.0
  0
LINE
  5
8C0
330
1F
100
AcDbEntity
  8
PEF-90A
  6
CONTINUOUS
100
AcDbLine
 10
-144.5115025817671
 20
22.29380223252786
 30
0.0
 11
-144.2053094285997
 21
24.59119779893466
 31
0.0
  0
LINE
  5
8C1
330
1F
100
AcDbEntity
  8
PEF-90A
  6
CONTINUOUS
100
AcDbLine
 10
-162.8086111822233
 20
31.22546877933642
 30
0.0
 11
-160.5086111822233
 21
31.22546877933649
 31
0.0
  0
LINE
  5
8C3
330
1F
100
AcDbEntity
  8
PEF-90A
  6
CONTINUOUS
100
AcDbLine
 10
-131.968001164112
 20
41.71227693802597
 30
0.0
 11
-136.4969455998843
 21
37.77671315405722
 31
0.0
  0
LINE
  5
8C4
330
1F
100
AcDbEntity
  8
PEF-90A
  6
CONTINUOUS
100
AcDbLine
 10
-146.7514190147938
 20
34.81865598054776
 30
0.0
 11
-140.8254528792709
 21
35.75829706129974
 31
0.0
  0
LINE
  5
8C5
330
1F
100
AcDbEntity
  8
PEF-90A
  6
HIDDEN
100
AcDbLine
 10
-162.8086111822231
 20
35.22546877933644
 30
0.0
 11
-160.5086111822233
 21
35.22546877933644
 31
0.0
  0
LINE
  5
8C6
330
1F
100
AcDbEntity
  8
PEF-90A
  6
CENTER2
100
AcDbLine
 10
-166.2697173905354
 20
45.79653659120203
 30
0.0
 11
-156.9052962720138
 21
45.79653659120197
 31
0.0
  0
LINE
  5
8C7
330
1F
100
AcDbEntity
  8
PEF-90A
  6
CONTINUOUS
100
AcDbLine
 10
-175.508611182223
 20
46.29401127426073
 30
0.0
 11
-176.508611182223
 21
45.29401127426082
 31
0.0
  0
LINE
  5
8C8
330
1F
100
AcDbEntity
  8
PEF-90A
  6
CONTINUOUS
100
AcDbLine
 10
-256.5086111822231
 20
46.1940112742605
 30
0.0
 11
-196.5086111822233
 21
46.19401127426079
 31
0.0
  0
ARC
  5
8C9
330
1F
100
AcDbEntity
  8
PEF-90A
  6
CONTINUOUS
100
AcDbCircle
 10
-202.5086111822233
 20
54.10035864119874
 30
0.0
 40
10.40634736693795
100
AcDbArc
 50
247.3871256045195
 51
292.6128743954803
  0
LINE
  5
8CA
330
1F
100
AcDbEntity
  8
PEF-90A
  6
CONTINUOUS
100
AcDbLine
 10
-198.358611182223
 20
46.19401127426073
 30
0.0
 11
-198.507341910217
 21
44.49401127426074
 31
0.0
  0
LINE
  5
8CB
330
1F
100
AcDbEntity
  8
PEF-90A
  6
CONTINUOUS
100
AcDbLine
 10
-196.0086111822234
 20
45.29401127426075
 30
0.0
 11
-196.508611182223
 21
45.79401127426081
 31
0.0
  0
LINE
  5
8CC
330
1F
100
AcDbEntity
  8
PEF-90A
  6
CONTINUOUS
100
AcDbLine
 10
-206.6586111822234
 20
46.19401127426073
 30
0.0
 11
-206.5098804542293
 21
44.49401127426074
 31
0.0
  0
LINE
  5
8D0
330
1F
100
AcDbEntity
  8
PEF-90A
  6
CONTINUOUS
100
AcDbLine
 10
-196.508611182223
 20
95.29401127426082
 30
0.0
 11
-175.508611182223
 21
95.29401127426082
 31
0.0
  0
LINE
  5
8D1
330
1F
100
AcDbEntity
  8
PEF-90A
  6
CONTINUOUS
100
AcDbLine
 10
-196.508611182223
 20
93.81586520813355
 30
0.0
 11
-175.5086111822232
 21
93.81586520813355
 31
0.0
  0
LINE
  5
8D2
330
1F
100
AcDbEntity
  8
PEF-90A
  6
CONTINUOUS
100
AcDbLine
 10
-196.508611182223
 20
96.77215734038885
 30
0.0
 11
-175.508611182223
 21
96.77215734038885
 31
0.0
  0
LINE
  5
8D3
330
1F
100
AcDbEntity
  8
PEF-90A
  6
CENTER2
100
AcDbLine
 10
-193.6320565990816
 20
67.00974002679846
 30
0.0
 11
-158.2731620804268
 21
67.00974002679856
 31
0.0
  0
LINE
  5
8D4
330
1F
100
AcDbEntity
  8
PEF-90A
  6
CONTINUOUS
100
AcDbLine
 10
-159.6482249090819
 20
87.68983085472305
 30
0.0
 11
-151.8838834538331
 21
71.0391468707429
 31
0.0
  0
LINE
  5
8D5
330
1F
100
AcDbEntity
  8
PEF-90A
  6
CONTINUOUS
100
AcDbLine
 10
-164.179763844265
 20
85.57673954601957
 30
0.0
 11
-156.4154223890164
 21
68.92605556203932
 31
0.0
  0
LINE
  5
8D6
330
1F
100
AcDbEntity
  8
PEF-90A
  6
CONTINUOUS
100
AcDbLine
 10
-150.5341572993698
 20
68.14464979170328
 30
0.0
 11
-142.9833661172216
 21
51.95192584626465
 31
0.0
  0
LINE
  5
8D7
330
1F
100
AcDbEntity
  8
PEF-90A
  6
CONTINUOUS
100
AcDbLine
 10
-155.0656962345528
 20
66.03155848299969
 30
0.0
 11
-147.5149050524052
 21
49.83883453756117
 31
0.0
  0
LINE
  5
8D8
330
1F
100
AcDbEntity
  8
PEF-90A
  6
CONTINUOUS
100
AcDbLine
 10
-173.208611182223
 20
59.50974002679846
 30
0.0
 11
-173.2086111822233
 21
74.50974002679846
 31
0.0
  0
LINE
  5
8D9
330
1F
100
AcDbEntity
  8
PEF-90A
  6
CONTINUOUS
100
AcDbLine
 10
-175.5086111822232
 20
74.50974002679846
 30
0.0
 11
-175.5086111822232
 21
59.50974002679846
 31
0.0
  0
LINE
  5
8DA
330
1F
100
AcDbEntity
  8
PEF-90A
  6
CONTINUOUS
100
AcDbLine
 10
-142.9833661172216
 20
51.95192584626465
 30
0.0
 11
-147.514905052405
 21
49.83883453756106
 31
0.0
  0
LINE
  5
8DB
330
1F
100
AcDbEntity
  8
PEF-90A
  6
CONTINUOUS
100
AcDbLine
 10
-171.7086111822232
 20
61.00974002679844
 30
0.0
 11
-164.3086111822231
 21
61.0097400267985
 31
0.0
  0
LINE
  5
8DC
330
1F
100
AcDbEntity
  8
PEF-90A
  6
HIDDEN
100
AcDbLine
 10
-162.8086111822231
 20
56.36760440306739
 30
0.0
 11
-160.5086111822233
 21
56.36760440306744
 31
0.0
  0
ARC
  5
8DD
330
1F
100
AcDbEntity
  8
PEF-90A
  6
CONTINUOUS
100
AcDbCircle
 10
-164.3086111822231
 20
59.50974002679846
 30
0.0
 40
1.5
100
AcDbArc
 50
0.0
 51
90.0
  0
LINE
  5
8DE
330
1F
100
AcDbEntity
  8
PEF-90A
  6
CONTINUOUS
100
AcDbLine
 10
-175.5086111822232
 20
59.50974002679846
 30
0.0
 11
-173.208611182223
 21
59.50974002679846
 31
0.0
  0
ARC
  5
8DF
330
1F
100
AcDbEntity
  8
PEF-90A
  6
CONTINUOUS
100
AcDbCircle
 10
-171.7086111822232
 20
59.50974002679846
 30
0.0
 40
1.500000000000003
100
AcDbArc
 50
90.0
 51
180.0
  0
LINE
  5
8E0
330
1F
100
AcDbEntity
  8
PEF-90A
  6
CONTINUOUS
100
AcDbLine
 10
-153.3895968114341
 20
66.29379000435426
 30
0.0
 11
-154.5564598967759
 21
66.73791414672007
 31
0.0
  0
LINE
  5
8E1
330
1F
100
AcDbEntity
  8
PEF-90A
  6
CONTINUOUS
100
AcDbLine
 10
-153.9891966967489
 20
70.29859743930865
 30
0.0
 11
-154.7393229658974
 21
69.18828708339379
 31
0.0
  0
LINE
  5
8E2
330
1F
100
AcDbEntity
  8
PEF-90A
  6
CONTINUOUS
100
AcDbLine
 10
-150.5341572993698
 20
68.14464979170328
 30
0.0
 11
-151.3336951848791
 21
67.32082708357541
 31
0.0
  0
LINE
  5
8E3
330
1F
100
AcDbEntity
  8
PEF-90A
  6
CONTINUOUS
100
AcDbLine
 10
-152.6394705422856
 20
67.40410036026901
 30
0.0
 11
-153.3895968114341
 21
66.29379000435426
 31
0.0
  0
LINE
  5
8E4
330
1F
100
AcDbEntity
  8
PEF-90A
  6
CONTINUOUS
100
AcDbLine
 10
-151.3336951848791
 20
67.32082708357541
 30
0.0
 11
-152.6394705422856
 21
67.40410036026901
 31
0.0
  0
LINE
  5
8E5
330
1F
100
AcDbEntity
  8
PEF-90A
  6
CONTINUOUS
100
AcDbLine
 10
-152.6834213393424
 20
70.21532416261504
 30
0.0
 11
-153.9891966967489
 21
70.29859743930865
 31
0.0
  0
LINE
  5
8E6
330
1F
100
AcDbEntity
  8
PEF-90A
  6
CONTINUOUS
100
AcDbLine
 10
-151.8838834538331
 20
71.0391468707429
 30
0.0
 11
-152.6834213393424
 21
70.21532416261504
 31
0.0
  0
LINE
  5
8E7
330
1F
100
AcDbEntity
  8
PEF-90A
  6
CONTINUOUS
100
AcDbLine
 10
-155.9061860512393
 20
69.63241122575971
 30
0.0
 11
-156.4154223890164
 21
68.92605556203932
 31
0.0
  0
LINE
  5
8E8
330
1F
100
AcDbEntity
  8
PEF-90A
  6
CONTINUOUS
100
AcDbLine
 10
-154.7393229658974
 20
69.18828708339379
 30
0.0
 11
-155.9061860512393
 21
69.63241122575971
 31
0.0
  0
LINE
  5
8E9
330
1F
100
AcDbEntity
  8
PEF-90A
  6
CONTINUOUS
100
AcDbLine
 10
-154.5564598967759
 20
66.73791414672007
 30
0.0
 11
-155.0656962345528
 21
66.03155848299969
 31
0.0
  0
LINE
  5
8EC
330
1F
100
AcDbEntity
  8
PEF-90A
  6
CONTINUOUS
100
AcDbLine
 10
-171.7086111822232
 20
73.00974002679845
 30
0.0
 11
-164.3086111822231
 21
73.00974002679845
 31
0.0
  0
ARC
  5
8ED
330
1F
100
AcDbEntity
  8
PEF-90A
  6
CONTINUOUS
100
AcDbCircle
 10
-164.3086111822231
 20
74.50974002679851
 30
0.0
 40
1.5
100
AcDbArc
 50
270.0
 51
0.0
  0
LINE
  5
8EE
330
1F
100
AcDbEntity
  8
PEF-90A
  6
CONTINUOUS
100
AcDbLine
 10
-160.5086111822231
 20
74.50974002679846
 30
0.0
 11
-162.8086111822231
 21
74.50974002679846
 31
0.0
  0
ARC
  5
8EF
330
1F
100
AcDbEntity
  8
PEF-90A
  6
CONTINUOUS
100
AcDbCircle
 10
-171.7086111822232
 20
74.50974002679851
 30
0.0
 40
1.5
100
AcDbArc
 50
180.0
 51
270.0
  0
LINE
  5
8F0
330
1F
100
AcDbEntity
  8
PEF-90A
  6
CONTINUOUS
100
AcDbLine
 10
-173.2086111822233
 20
74.50974002679846
 30
0.0
 11
-175.5086111822232
 21
74.50974002679846
 31
0.0
  0
ARC
  5
8F2
330
1F
100
AcDbEntity
  8
PEF-90A
  6
CONTINUOUS
100
AcDbCircle
 10
-175.5086111822233
 20
80.29401127426082
 30
0.0
 40
17.49999999999997
100
AcDbArc
 50
24.99999999999622
 51
90.0
  0
ARC
  5
8F3
330
1F
100
AcDbEntity
  8
PEF-90A
  6
CONTINUOUS
100
AcDbCircle
 10
-175.5086111822233
 20
80.29401127426082
 30
0.0
 40
12.49999999999999
100
AcDbArc
 50
24.99999999999622
 51
90.0
  0
LINE
  5
8F5
330
1F
100
AcDbEntity
  8
PEF-90A
  6
CENTER2
100
AcDbLine
 10
-175.5086111822232
 20
95.29401127426082
 30
0.0
 11
-160.5086111822233
 21
95.29401127426082
 31
0.0
  0
LINE
  5
8F8
330
1F
100
AcDbEntity
  8
PEF-90A
  6
CONTINUOUS
100
AcDbLine
 10
-183.5086111822231
 20
48.97191669058827
 30
0.0
 11
-183.5086111822232
 21
78.13422363010397
 31
0.0
  0
LINE
  5
907
330
1F
100
AcDbEntity
  8
PEF-90A
  6
CONTINUOUS
100
AcDbLine
 10
-256.5086111822235
 20
53.18929945119429
 30
0.0
 11
-258.4758540797798
 21
53.18929945119428
 31
0.0
  0
LINE
  5
90A
330
1F
100
AcDbEntity
  8
PEF-90A
  6
CONTINUOUS
100
AcDbLine
 10
-256.5086111822233
 20
47.79401127426051
 30
0.0
 11
-196.5086111822233
 21
47.79401127426075
 31
0.0
  0
LINE
  5
90D
330
1F
100
AcDbEntity
  8
PEF-90A
  6
CONTINUOUS
100
AcDbLine
 10
-183.5086111822231
 20
74.85974002679849
 30
0.0
 11
-183.5086111822231
 21
59.15974002679853
 31
0.0
  0
LINE
  5
90E
330
1F
100
AcDbEntity
  8
PEF-90A
  6
CONTINUOUS
100
AcDbLine
 10
-184.508611182223
 20
59.15974002679849
 30
0.0
 11
-184.508611182223
 21
74.85974002679849
 31
0.0
  0
LINE
  5
90F
330
1F
100
AcDbEntity
  8
PEF-90A
  6
CONTINUOUS
100
AcDbLine
 10
-196.508611182223
 20
47.79401127426075
 30
0.0
 11
-207.5086111822229
 21
47.79401127426068
 31
0.0
  0
ARC
  5
910
330
1F
100
AcDbEntity
  8
PEF-90A
  6
CONTINUOUS
100
AcDbCircle
 10
-184.5086111822232
 20
48.97191669058827
 30
0.0
 40
1.000000000000005
100
AcDbArc
 50
272.8283902558672
 51
0.0
  0
LINE
  5
912
330
1F
100
AcDbEntity
  8
PEF-90A
  6
CONTINUOUS
100
AcDbLine
 10
-183.5086111822231
 20
59.15974002679853
 30
0.0
 11
-184.508611182223
 21
59.15974002679849
 31
0.0
  0
ARC
  5
918
330
1F
100
AcDbEntity
  8
PEF-90A
  6
CONTINUOUS
100
AcDbCircle
 10
-186.0936121740444
 20
70.47384002679848
 30
0.0
 40
2.30940079689024
100
AcDbArc
 50
150.0000094361475
 51
209.9999905638521
  0
LINE
  5
919
330
1F
100
AcDbEntity
  8
PEF-90A
  6
CONTINUOUS
100
AcDbLine
 10
-188.5086111822232
 20
70.90974002679849
 30
0.0
 11
-188.508611182223
 21
63.10974002679848
 31
0.0
  0
LINE
  5
91A
330
1F
100
AcDbEntity
  8
PEF-90A
  6
CONTINUOUS
100
AcDbLine
 10
-190.2086111822232
 20
69.50974002679846
 30
0.0
 11
-190.2086111822232
 21
64.50974002679851
 31
0.0
  0
ARC
  5
91B
330
1F
100
AcDbEntity
  8
PEF-90A
  6
CONTINUOUS
100
AcDbCircle
 10
-181.875402192126
 20
67.00974002679856
 30
0.0
 40
6.633208990097043
100
AcDbArc
 50
159.625352542538
 51
200.3746474574618
  0
LINE
  5
91C
330
1F
100
AcDbEntity
  8
PEF-90A
  6
CONTINUOUS
100
AcDbLine
 10
-184.508611182223
 20
64.70034002679852
 30
0.0
 11
-188.0936120022232
 21
64.70034002679852
 31
0.0
  0
LINE
  5
91D
330
1F
100
AcDbEntity
  8
PEF-90A
  6
CONTINUOUS
100
AcDbLine
 10
-184.5086111822232
 20
62.39094002679848
 30
0.0
 11
-188.093612002223
 21
62.39094002679848
 31
0.0
  0
ARC
  5
91E
330
1F
100
AcDbEntity
  8
PEF-90A
  6
CONTINUOUS
100
AcDbCircle
 10
-186.0936121740444
 20
63.54564002679848
 30
0.0
 40
2.30940079689024
100
AcDbArc
 50
150.0000094361475
 51
209.9999905638521
  0
LINE
  5
91F
330
1F
100
AcDbEntity
  8
PEF-90A
  6
CONTINUOUS
100
AcDbLine
 10
-188.093612002223
 20
62.39094002679848
 30
0.0
 11
-188.508611182223
 21
63.10974002679848
 31
0.0
  0
LINE
  5
920
330
1F
100
AcDbEntity
  8
PEF-90A
  6
CONTINUOUS
100
AcDbLine
 10
-190.2086111822232
 20
64.90974002679847
 30
0.0
 11
-188.508611182223
 21
64.90974002679847
 31
0.0
  0
LINE
  5
921
330
1F
100
AcDbEntity
  8
PEF-90A
  6
CONTINUOUS
100
AcDbLine
 10
-190.2086111822232
 20
64.50974002679851
 30
0.0
 11
-188.508611182223
 21
64.50974002679856
 31
0.0
  0
LINE
  5
922
330
1F
100
AcDbEntity
  8
PEF-90A
  6
CONTINUOUS
100
AcDbLine
 10
-184.5086111822232
 20
69.31914002679843
 30
0.0
 11
-188.0936120022232
 21
69.31914002679843
 31
0.0
  0
LINE
  5
923
330
1F
100
AcDbEntity
  8
PEF-90A
  6
CONTINUOUS
100
AcDbLine
 10
-190.2086111822232
 20
69.10974002679846
 30
0.0
 11
-188.5086111822232
 21
69.10974002679846
 31
0.0
  0
LINE
  5
925
330
1F
100
AcDbEntity
  8
PEF-90A
  6
CONTINUOUS
100
AcDbLine
 10
-184.5086111822232
 20
71.62854002679845
 30
0.0
 11
-188.0936120022232
 21
71.62854002679845
 31
0.0
  0
LINE
  5
926
330
1F
100
AcDbEntity
  8
PEF-90A
  6
CONTINUOUS
100
AcDbLine
 10
-188.0936120022232
 20
71.62854002679845
 30
0.0
 11
-188.5086111822232
 21
70.90974002679849
 31
0.0
  0
LINE
  5
927
330
1F
100
AcDbEntity
  8
PEF-90A
  6
CONTINUOUS
100
AcDbLine
 10
-188.5086111822232
 20
69.50974002679846
 30
0.0
 11
-190.2086111822232
 21
69.50974002679846
 31
0.0
  0
LINE
  5
928
330
1F
100
AcDbEntity
  8
PEF-90A
  6
CONTINUOUS
100
AcDbLine
 10
-184.508611182223
 20
74.85974002679849
 30
0.0
 11
-183.5086111822231
 21
74.85974002679849
 31
0.0
  0
LINE
  5
92C
330
1F
100
AcDbEntity
  8
PEF-90A
  6
CONTINUOUS
100
AcDbLine
 10
-258.2170350346773
 20
53.18929945119435
 30
0.0
 11
-258.2170350346773
 21
69.18929945119424
 31
0.0
  0
LINE
  5
92D
330
1F
100
AcDbEntity
  8
PEF-90A
  6
CONTINUOUS
100
AcDbLine
 10
-257.3888140903493
 20
69.18929945119424
 30
0.0
 11
-257.3888140903493
 21
53.18929945119435
 31
0.0
  0
LINE
  5
92E
330
1F
100
AcDbEntity
  8
PEF-90A
  6
CONTINUOUS
100
AcDbLine
 10
-258.4758540797798
 20
53.18929945119428
 30
0.0
 11
-258.4758540797798
 21
69.18929945119424
 31
0.0
  0
LINE
  5
937
330
1F
100
AcDbEntity
  8
PEF-90A
  6
CONTINUOUS
100
AcDbLine
 10
-258.3723144873796
 20
53.29401127426024
 30
0.0
 11
-258.3723144873796
 21
69.29401127426024
 31
0.0
  0
LINE
  5
938
330
1F
100
AcDbEntity
  8
PEF-90A
  6
CONTINUOUS
100
AcDbLine
 10
-260.6121507746236
 20
51.74870617029632
 30
0.0
 11
-256.5086111822235
 21
51.74870617029634
 31
0.0
  0
LINE
  5
939
330
1F
100
AcDbEntity
  8
PEF-90A
  6
CONTINUOUS
100
AcDbLine
 10
-260.1121507746236
 20
50.24870617029643
 30
0.0
 11
-256.5086111822235
 21
50.24870617029645
 31
0.0
  0
LINE
  5
946
330
1F
100
AcDbEntity
  8
PEF-90A
  6
CONTINUOUS
100
AcDbLine
 10
-258.3723144873796
 20
53.29401127426024
 30
0.0
 11
-256.5086111822231
 21
53.29401127426018
 31
0.0
  0
LINE
  5
962
330
1F
100
AcDbEntity
  8
PEF-90A
  6
CONTINUOUS
100
AcDbLine
 10
-260.1121507746236
 20
50.24870617029643
 30
0.0
 11
-260.6121507746236
 21
50.74870617029636
 31
0.0
  0
LINE
  5
965
330
1F
100
AcDbEntity
  8
PEF-90A
  6
CONTINUOUS
100
AcDbLine
 10
-260.6121507746236
 20
72.24870617029627
 30
0.0
 11
-256.5086111822235
 21
72.24870617029627
 31
0.0
  0
LINE
  5
980
330
1F
100
AcDbEntity
  8
PEF-90A
  6
CONTINUOUS
100
AcDbLine
 10
-258.4758540797798
 20
69.18929945119424
 30
0.0
 11
-256.5086111822235
 21
69.18929945119429
 31
0.0
  0
LINE
  5
987
330
1F
100
AcDbEntity
  8
PEF-90A
  6
CONTINUOUS
100
AcDbLine
 10
-258.3723144873796
 20
69.29401127426024
 30
0.0
 11
-256.5086111822233
 21
69.29401127426017
 31
0.0
  0
LINE
  5
98A
330
1F
100
AcDbEntity
  8
PEF-90A
  6
CONTINUOUS
100
AcDbLine
 10
-262.1121507746236
 20
70.24870617029643
 30
0.0
 11
-260.6121507746236
 21
70.24870617029636
 31
0.0
  0
LINE
  5
99E
330
1F
100
AcDbEntity
  8
PEF-90A
  6
CENTER2
100
AcDbLine
 10
-266.2061982565952
 20
95.2940112742606
 30
0.0
 11
-196.508611182223
 21
95.29401127426069
 31
0.0
  0
LINE
  5
9B4
330
1F
100
AcDbEntity
  8
PEF-90A
  6
CONTINUOUS
100
AcDbLine
 10
-196.508611182223
 20
80.74307336013182
 30
0.0
 11
-184.3764474621321
 21
79.12545153078657
 31
0.0
  0
ARC
  5
9B6
330
1F
100
AcDbEntity
  8
PEF-90A
  6
CONTINUOUS
100
AcDbCircle
 10
-184.5086111822232
 20
78.13422363010397
 30
0.0
 40
1.0
100
AcDbArc
 50
0.0
 51
82.40535663140956
  0
ARC
  5
9BB
330
1F
100
AcDbEntity
  8
PEF-90A
  6
CONTINUOUS
100
AcDbCircle
 10
-195.5086111822232
 20
81.61858975682667
 30
0.0
 40
1.0
100
AcDbArc
 50
180.0
 51
262.4053566314094
  0
LINE
  5
A02
330
1F
100
AcDbEntity
  8
PEF-90A
  6
HIDDEN
100
AcDbLine
 10
-262.1121507746236
 20
92.24870617029628
 30
0.0
 11
-256.5086111822235
 21
92.24870617029628
 31
0.0
  0
LINE
  5
A03
330
1F
100
AcDbEntity
  8
PEF-90A
  6
HIDDEN
100
AcDbLine
 10
-262.1121507746236
 20
92.89870617029636
 30
0.0
 11
-256.5086111822235
 21
92.89870617029636
 31
0.0
  0
LINE
  5
A04
330
1F
100
AcDbEntity
  8
PEF-90A
  6
HIDDEN
100
AcDbLine
 10
-262.1121507746236
 20
97.59870617029628
 30
0.0
 11
-256.5086111822235
 21
97.59870617029628
 31
0.0
  0
LINE
  5
A05
330
1F
100
AcDbEntity
  8
PEF-90A
  6
HIDDEN
100
AcDbLine
 10
-262.1121507746236
 20
98.24870617029629
 30
0.0
 11
-256.5086111822235
 21
98.24870617029629
 31
0.0
  0
LINE
  5
A1B
330
1F
100
AcDbEntity
  8
PEF-90A
  6
CENTER2
100
AcDbLine
 10
-426.8604018267446
 20
152.9371699958551
 30
0.0
 11
-442.4167510128484
 21
137.3808208097512
 31
0.0
  0
LINE
  5
A1C
330
1F
100
AcDbEntity
  8
PEF-90A
  6
CONTINUOUS
100
AcDbLine
 10
-430.4098917875689
 20
135.2455444112999
 30
0.0
 11
-444.5520274113
 21
149.3876800350308
 31
0.0
  0
LINE
  5
A1D
330
1F
100
AcDbEntity
  8
PEF-90A
  6
CONTINUOUS
100
AcDbLine
 10
-425.4601443192632
 20
140.1952918796055
 30
0.0
 11
-439.6022799429943
 21
154.3374275033366
 31
0.0
  0
LINE
  5
A1E
330
1F
100
AcDbEntity
  8
PEF-90A
  6
CONTINUOUS
100
AcDbLine
 10
-425.7672406763964
 20
124.9460390506349
 30
0.0
 11
-447.3804545360462
 21
146.5592529102845
 31
0.0
  0
LINE
  5
A1F
330
1F
100
AcDbEntity
  8
PEF-90A
  6
CONTINUOUS
100
AcDbLine
 10
-415.1606389585983
 20
135.552640768433
 30
0.0
 11
-436.7738528182481
 21
157.1658546280826
 31
0.0
  0
LINE
  5
A20
330
1F
100
AcDbEntity
  8
PEF-90A
  6
CENTER2
100
AcDbLine
 10
-443.1517699038185
 20
53.94222062973875
 30
0.0
 11
-427.5954207177145
 21
38.38587144363481
 31
0.0
  0
LINE
  5
A21
330
1F
100
AcDbEntity
  8
PEF-90A
  6
CONTINUOUS
100
AcDbLine
 10
-425.4601443192632
 20
50.39273066891436
 30
0.0
 11
-439.6022799429937
 21
36.25059504518327
 31
0.0
  0
LINE
  5
A22
330
1F
100
AcDbEntity
  8
PEF-90A
  6
CONTINUOUS
100
AcDbLine
 10
-430.4098917875688
 20
55.34247813722011
 30
0.0
 11
-444.5520274112998
 21
41.20034251348909
 31
0.0
  0
LINE
  5
A23
330
1F
100
AcDbEntity
  8
PEF-90A
  6
CONTINUOUS
100
AcDbLine
 10
-415.1606389585977
 20
55.03538178008705
 30
0.0
 11
-436.7738528182477
 21
33.42216792043712
 31
0.0
  0
LINE
  5
A24
330
1F
100
AcDbEntity
  8
PEF-90A
  6
CONTINUOUS
100
AcDbLine
 10
-425.7672406763961
 20
65.64198349788522
 30
0.0
 11
-447.380454536046
 21
44.02876963823529
 31
0.0
  0
LINE
  5
A25
330
1F
100
AcDbEntity
  8
PEF-90A
  6
CENTER2
100
AcDbLine
 10
-406.7218146123994
 20
74.08080784408433
 30
0.0
 11
-451.3458828974002
 21
29.45673955908302
 31
0.0
  0
LINE
  5
A26
330
1F
100
AcDbEntity
  8
PEF-90A
  6
CENTER2
100
AcDbLine
 10
-406.7218146178197
 20
116.5072147098564
 30
0.0
 11
-451.3458828974004
 21
161.131282989437
 31
0.0
  0
ARC
  5
A27
330
1F
100
AcDbEntity
  8
PEF-90A
  6
CONTINUOUS
100
AcDbCircle
 10
-385.5086111822231
 20
95.29401127426011
 30
0.0
 40
50.0
100
AcDbArc
 50
184.687312309836
 51
265.3126876901639
  0
ARC
  5
A28
330
1F
100
AcDbEntity
  8
PEF-90A
  6
CONTINUOUS
100
AcDbCircle
 10
-385.5086111822231
 20
95.29401127426011
 30
0.0
 40
49.99999999999997
100
AcDbArc
 50
94.68731230983605
 51
175.3126876901639
  0
ARC
  5
A2A
330
1F
100
AcDbEntity
  8
PEF-90A
  6
CONTINUOUS
100
AcDbCircle
 10
-442.0771536771468
 20
38.72546877933615
 30
0.0
 40
7.499999999999995
100
AcDbArc
 50
135.0000000000002
 51
315.0000000000003
  0
ARC
  5
A2B
330
1F
100
AcDbEntity
  8
PEF-90A
  6
CONTINUOUS
100
AcDbCircle
 10
-442.0771536771468
 20
38.72546877933615
 30
0.0
 40
3.499999999999993
100
AcDbArc
 50
135.0000000000002
 51
315.0000000000003
  0
ARC
  5
A2C
330
1F
100
AcDbEntity
  8
PEF-90A
  6
CONTINUOUS
100
AcDbCircle
 10
-426.7022638152858
 20
95.29401127426023
 30
0.0
 40
10.40634736693792
100
AcDbArc
 50
157.3871256045195
 51
202.6128743954804
  0
LINE
  5
A2D
330
1F
100
AcDbEntity
  8
PEF-90A
  6
CONTINUOUS
100
AcDbLine
 10
-434.6086111822238
 20
99.44401127426031
 30
0.0
 11
-434.6086111822238
 21
91.14401127425995
 31
0.0
  0
LINE
  5
A2E
330
1F
100
AcDbEntity
  8
PEF-90A
  6
CONTINUOUS
100
AcDbLine
 10
-434.6086111822238
 20
91.14401127425995
 30
0.0
 11
-436.3086111822238
 21
91.29274200225404
 31
0.0
  0
LINE
  5
A2F
330
1F
100
AcDbEntity
  8
PEF-90A
  6
CONTINUOUS
100
AcDbLine
 10
-434.6086111822238
 20
99.44401127426031
 30
0.0
 11
-436.3086111822235
 21
99.29528054626631
 31
0.0
  0
ARC
  5
A30
330
1F
100
AcDbEntity
  8
PEF-90A
  6
CONTINUOUS
100
AcDbCircle
 10
-442.0771536771472
 20
151.8625537691836
 30
0.0
 40
7.500000000000023
100
AcDbArc
 50
45.00000000000087
 51
224.9999999999996
  0
ARC
  5
A31
330
1F
100
AcDbEntity
  8
PEF-90A
  6
CONTINUOUS
100
AcDbCircle
 10
-442.0771536771472
 20
151.8625537691836
 30
0.0
 40
3.500000000000048
100
AcDbArc
 50
45.00000000000087
 51
224.9999999999996
  0
ARC
  5
A34
330
1F
100
AcDbEntity
  8
PEF-90A
  6
CONTINUOUS
100
AcDbCircle
 10
-385.5086111822231
 20
95.29401127426019
 30
0.0
 40
45.0
100
AcDbArc
 50
149.2621313278718
 51
190.6935242125643
  0
LINE
  5
A35
330
1F
100
AcDbEntity
  8
PEF-90A
  6
CENTER2
100
AcDbLine
 10
-385.5086111822231
 20
33.93582608689143
 30
0.0
 11
-385.5086111822235
 21
157.1100733428188
 31
0.0
  0
ARC
  5
A36
330
1F
100
AcDbEntity
  8
PEF-90A
  6
CONTINUOUS
100
AcDbCircle
 10
-385.5086111822231
 20
95.29401127426019
 30
0.0
 40
45.0
100
AcDbArc
 50
239.2621313278715
 51
280.6935242125661
  0
LINE
  5
A37
330
1F
100
AcDbEntity
  8
PEF-90A
  6
CONTINUOUS
100
AcDbLine
 10
-427.5086111822232
 20
86.06754150900242
 30
0.0
 11
-411.5086111822233
 21
86.06754150900242
 31
0.0
  0
LINE
  5
A38
330
1F
100
AcDbEntity
  8
PEF-90A
  6
CONTINUOUS
100
AcDbLine
 10
-411.5086111822233
 20
85.10161568271337
 30
0.0
 11
-427.5086111822232
 21
85.10161568271337
 31
0.0
  0
LINE
  5
A39
330
1F
100
AcDbEntity
  8
PEF-90A
  6
CONTINUOUS
100
AcDbLine
 10
-427.5086111822232
 20
83.65272694328034
 30
0.0
 11
-411.5086111822233
 21
83.65272694328034
 31
0.0
  0
LINE
  5
A3A
330
1F
100
AcDbEntity
  8
PEF-90A
  6
CONTINUOUS
100
AcDbLine
 10
-411.5086111822233
 20
80.07880138601072
 30
0.0
 11
-427.5086111822232
 21
80.07880138601075
 31
0.0
  0
LINE
  5
A3B
330
1F
100
AcDbEntity
  8
PEF-90A
  6
CONTINUOUS
100
AcDbLine
 10
-418.8219608196831
 20
77.23865856876568
 30
0.0
 11
-418.3300557404478
 21
76.9936410094823
 31
0.0
  0
ARC
  5
A3C
330
1F
100
AcDbEntity
  8
PEF-90A
  6
CONTINUOUS
100
AcDbCircle
 10
-415.5086111822233
 20
86.04731136896123
 30
0.0
 40
9.413026017668697
100
AcDbArc
 50
249.6035987915842
 51
290.3964012084156
  0
LINE
  5
A3D
330
1F
100
AcDbEntity
  8
PEF-90A
  6
CONTINUOUS
100
AcDbLine
 10
-429.7271310579495
 20
86.94401127426004
 30
0.0
 11
-410.7777128678788
 21
86.94401127426004
 31
0.0
  0
CIRCLE
  5
A3E
330
1F
100
AcDbEntity
  8
PEF-90A
  6
HIDDEN
100
AcDbCircle
 10
-413.7928824296849
 20
67.00974002679817
 30
0.0
 40
7.5
  0
ARC
  5
A3F
330
1F
100
AcDbEntity
  8
PEF-90A
  6
CENTER2
100
AcDbCircle
 10
-385.5086111822231
 20
95.29401127426011
 30
0.0
 40
39.99999999999999
100
AcDbArc
 50
209.1556630447748
 51
240.844336955226
  0
ARC
  5
A40
330
1F
100
AcDbEntity
  8
PEF-90A
  6
CONTINUOUS
100
AcDbCircle
 10
-427.9350180534159
 20
52.86760440306716
 30
0.0
 40
3.500000000000003
100
AcDbArc
 50
315.0000000000003
 51
135.0000000000002
  0
LINE
  5
A41
330
1F
100
AcDbEntity
  8
PEF-90A
  6
HIDDEN
100
AcDbLine
 10
-419.0961832885841
 20
72.31304088569728
 30
0.0
 11
-425.7672406763961
 21
65.64198349788522
 31
0.0
  0
ARC
  5
A42
330
1F
100
AcDbEntity
  8
PEF-90A
  6
CONTINUOUS
100
AcDbCircle
 10
-423.5086111822232
 20
84.49454741169729
 30
0.0
 40
8.015553424762073
100
AcDbArc
 50
249.6035987915842
 51
290.3964012084188
  0
ARC
  5
A43
330
1F
100
AcDbEntity
  8
PEF-90A
  6
CONTINUOUS
100
AcDbCircle
 10
-423.5086111822232
 20
86.04731136896118
 30
0.0
 40
9.413026017668679
100
AcDbArc
 50
249.6035987915842
 51
290.3964012084156
  0
LINE
  5
A44
330
1F
100
AcDbEntity
  8
PEF-90A
  6
CONTINUOUS
100
AcDbLine
 10
-427.5086111822232
 20
80.07880138601075
 30
0.0
 11
-427.5086111822232
 21
86.94401127426022
 31
0.0
  0
LINE
  5
A45
330
1F
100
AcDbEntity
  8
PEF-90A
  6
CONTINUOUS
100
AcDbLine
 10
-427.0086111822232
 20
77.54015200915127
 30
0.0
 11
-427.0086111822232
 21
80.07880138601075
 31
0.0
  0
LINE
  5
A46
330
1F
100
AcDbEntity
  8
PEF-90A
  6
CONTINUOUS
100
AcDbLine
 10
-426.8219608196831
 20
77.23865856876561
 30
0.0
 11
-426.3300557404478
 21
76.99364100948236
 31
0.0
  0
ARC
  5
A47
330
1F
100
AcDbEntity
  8
PEF-90A
  6
CONTINUOUS
100
AcDbCircle
 10
-426.2021770959818
 20
77.25037426126448
 30
0.0
 40
0.2868186016999079
100
AcDbArc
 50
243.5221382392648
 51
249.6035987915853
  0
ARC
  5
A48
330
1F
100
AcDbEntity
  8
PEF-90A
  6
CONTINUOUS
100
AcDbCircle
 10
-426.6717871580937
 20
77.54015200915119
 30
0.0
 40
0.3368240241293563
100
AcDbArc
 50
180.0
 51
249.6035987915853
  0
LINE
  5
A49
330
1F
100
AcDbEntity
  8
PEF-90A
  6
CENTER2
100
AcDbLine
 10
-419.5086111822234
 20
94.5336648165424
 30
0.0
 11
-419.5086111822233
 21
74.07149707525786
 31
0.0
  0
LINE
  5
A4A
330
1F
100
AcDbEntity
  8
PEF-90A
  6
CENTER2
100
AcDbLine
 10
-423.5086111822234
 20
92.55170642884673
 30
0.0
 11
-423.5086111822232
 21
74.96428109984311
 31
0.0
  0
LINE
  5
A4B
330
1F
100
AcDbEntity
  8
PEF-90A
  6
CONTINUOUS
100
AcDbLine
 10
-420.0086111822233
 20
77.54015200915119
 30
0.0
 11
-420.0086111822233
 21
80.07880138601075
 31
0.0
  0
LINE
  5
A4C
330
1F
100
AcDbEntity
  8
PEF-90A
  6
CONTINUOUS
100
AcDbLine
 10
-419.0086111822232
 20
77.54015200915119
 30
0.0
 11
-419.0086111822234
 21
80.07880138601075
 31
0.0
  0
LINE
  5
A4D
330
1F
100
AcDbEntity
  8
PEF-90A
  6
CONTINUOUS
100
AcDbLine
 10
-420.195261544763
 20
77.23865856876568
 30
0.0
 11
-420.6871666239987
 21
76.99364100948236
 31
0.0
  0
ARC
  5
A4E
330
1F
100
AcDbEntity
  8
PEF-90A
  6
CONTINUOUS
100
AcDbCircle
 10
-420.8150452684646
 20
77.25037426126454
 30
0.0
 40
0.2868186016998951
100
AcDbArc
 50
290.3964012084197
 51
296.4778617607415
  0
ARC
  5
A4F
330
1F
100
AcDbEntity
  8
PEF-90A
  6
CONTINUOUS
100
AcDbCircle
 10
-420.3454352063523
 20
77.54015200915127
 30
0.0
 40
0.3368240241293696
100
AcDbArc
 50
290.3964012084145
 51
0.0
  0
ARC
  5
A50
330
1F
100
AcDbEntity
  8
PEF-90A
  6
CONTINUOUS
100
AcDbCircle
 10
-418.6717871580937
 20
77.54015200915114
 30
0.0
 40
0.336824024129367
100
AcDbArc
 50
180.0
 51
249.6035987915842
  0
LINE
  5
A51
330
1F
100
AcDbEntity
  8
PEF-90A
  6
CONTINUOUS
100
AcDbLine
 10
-408.5086111822231
 20
83.3946412060024
 30
0.0
 11
-408.5086111822231
 21
56.61585206263271
 31
0.0
  0
CIRCLE
  5
A52
330
1F
100
AcDbEntity
  8
PEF-90A
  6
CONTINUOUS
100
AcDbCircle
 10
-413.7928824296849
 20
67.0097400267981
 30
0.0
 40
2.5
  0
CIRCLE
  5
A53
330
1F
100
AcDbEntity
  8
PEF-90A
  6
CONTINUOUS
100
AcDbCircle
 10
-413.7928824296849
 20
67.0097400267981
 30
0.0
 40
3.899999999999998
  0
LINE
  5
A54
330
1F
100
AcDbEntity
  8
PEF-90A
  6
CONTINUOUS
100
AcDbLine
 10
-414.9883158352044
 20
62.54832182033414
 30
0.0
 11
-410.5268976287406
 21
63.74375522585371
 31
0.0
  0
LINE
  5
A55
330
1F
100
AcDbEntity
  8
PEF-90A
  6
CONTINUOUS
100
AcDbLine
 10
-409.3314642232211
 20
68.20517343231768
 30
0.0
 11
-412.5974490241656
 21
71.47115823326203
 31
0.0
  0
LINE
  5
A56
330
1F
100
AcDbEntity
  8
PEF-90A
  6
HIDDEN
100
AcDbLine
 10
-408.4895815707858
 20
61.70643916789913
 30
0.0
 11
-415.1606389585977
 21
55.03538178008705
 31
0.0
  0
CIRCLE
  5
A57
330
1F
100
AcDbEntity
  8
PEF-90A
  6
CONTINUOUS
100
AcDbCircle
 10
-413.7928824296849
 20
67.0097400267981
 30
0.0
 40
2.1
  0
LINE
  5
A58
330
1F
100
AcDbEntity
  8
PEF-90A
  6
CONTINUOUS
100
AcDbLine
 10
-412.5974490241656
 20
71.47115823326203
 30
0.0
 11
-417.0588672306295
 21
70.27572482774258
 31
0.0
  0
LINE
  5
A59
330
1F
100
AcDbEntity
  8
PEF-90A
  6
CONTINUOUS
100
AcDbLine
 10
-417.0588672306295
 20
70.27572482774258
 30
0.0
 11
-418.2543006361489
 21
65.81430662127861
 31
0.0
  0
LINE
  5
A5A
330
1F
100
AcDbEntity
  8
PEF-90A
  6
CONTINUOUS
100
AcDbLine
 10
-418.2543006361489
 20
65.81430662127861
 30
0.0
 11
-414.9883158352044
 21
62.54832182033414
 31
0.0
  0
LINE
  5
A5B
330
1F
100
AcDbEntity
  8
PEF-90A
  6
CONTINUOUS
100
AcDbLine
 10
-410.5268976287406
 20
63.74375522585376
 30
0.0
 11
-409.3314642232211
 21
68.20517343231768
 31
0.0
  0
LINE
  5
A5C
330
1F
100
AcDbEntity
  8
PEF-90A
  6
CONTINUOUS
100
AcDbLine
 10
-411.5086111822233
 20
80.07880138601072
 30
0.0
 11
-411.5086111822233
 21
86.94401127426033
 31
0.0
  0
LINE
  5
A5D
330
1F
100
AcDbEntity
  8
PEF-90A
  6
CENTER2
100
AcDbLine
 10
-415.5086111822233
 20
92.55170642884673
 30
0.0
 11
-415.5086111822233
 21
74.96428109984316
 31
0.0
  0
ARC
  5
A5E
330
1F
100
AcDbEntity
  8
PEF-90A
  6
CONTINUOUS
100
AcDbCircle
 10
-415.5086111822233
 20
84.49454741169734
 30
0.0
 40
8.015553424762067
100
AcDbArc
 50
249.6035987915842
 51
290.3964012084156
  0
ARC
  5
A5F
330
1F
100
AcDbEntity
  8
PEF-90A
  6
CONTINUOUS
100
AcDbCircle
 10
-418.202177095982
 20
77.25037426126454
 30
0.0
 40
0.2868186016999285
100
AcDbArc
 50
243.522138239263
 51
249.6035987915842
  0
LINE
  5
A60
330
1F
100
AcDbEntity
  8
PEF-90A
  6
CONTINUOUS
100
AcDbLine
 10
-412.0086111822232
 20
77.54015200915127
 30
0.0
 11
-412.0086111822232
 21
80.07880138601072
 31
0.0
  0
LINE
  5
A61
330
1F
100
AcDbEntity
  8
PEF-90A
  6
CONTINUOUS
100
AcDbLine
 10
-412.1952615447633
 20
77.23865856876561
 30
0.0
 11
-412.6871666239988
 21
76.9936410094823
 31
0.0
  0
ARC
  5
A62
330
1F
100
AcDbEntity
  8
PEF-90A
  6
CONTINUOUS
100
AcDbCircle
 10
-412.8150452684646
 20
77.25037426126448
 30
0.0
 40
0.2868186016999072
100
AcDbArc
 50
290.3964012084188
 51
296.4778617607368
  0
ARC
  5
A63
330
1F
100
AcDbEntity
  8
PEF-90A
  6
CONTINUOUS
100
AcDbCircle
 10
-412.3454352063527
 20
77.54015200915127
 30
0.0
 40
0.3368240241293746
100
AcDbArc
 50
290.3964012084156
 51
0.0
  0
ARC
  5
A64
330
1F
100
AcDbEntity
  8
PEF-90A
  6
CONTINUOUS
100
AcDbCircle
 10
-410.7777128678788
 20
84.44401127426004
 30
0.0
 40
2.500000000000009
100
AcDbArc
 50
335.1813195752261
 51
90.0
  0
LINE
  5
A65
330
1F
100
AcDbEntity
  8
PEF-90A
  6
CONTINUOUS
100
AcDbLine
 10
-389.6586111822235
 20
46.19401127425965
 30
0.0
 11
-381.3586111822231
 21
46.19401127425959
 31
0.0
  0
LINE
  5
A66
330
1F
100
AcDbEntity
  8
PEF-90A
  6
CONTINUOUS
100
AcDbLine
 10
-389.6586111822235
 20
46.19401127425965
 30
0.0
 11
-389.5098804542293
 21
44.4940112742596
 31
0.0
  0
ARC
  5
A67
330
1F
100
AcDbEntity
  8
PEF-90A
  6
CONTINUOUS
100
AcDbCircle
 10
-385.5086111822231
 20
54.1003586411976
 30
0.0
 40
10.40634736693792
100
AcDbArc
 50
247.3871256045212
 51
292.6128743954785
  0
LINE
  5
A68
330
1F
100
AcDbEntity
  8
PEF-90A
  6
CONTINUOUS
100
AcDbLine
 10
-381.3586111822231
 20
46.19401127425959
 30
0.0
 11
-381.5073419102171
 21
44.49401127425965
 31
0.0
  0
LINE
  5
A69
330
1F
100
AcDbEntity
  8
PEF-90A
  6
CONTINUOUS
100
AcDbLine
 10
-376.2821414169654
 20
53.29401127426018
 30
0.0
 11
-376.2821414169654
 21
69.29401127426017
 31
0.0
  0
LINE
  5
A6A
330
1F
100
AcDbEntity
  8
PEF-90A
  6
CONTINUOUS
100
AcDbLine
 10
-375.3162155906763
 20
69.29401127426017
 30
0.0
 11
-375.3162155906763
 21
53.29401127426024
 31
0.0
  0
LINE
  5
A6B
330
1F
100
AcDbEntity
  8
PEF-90A
  6
CONTINUOUS
100
AcDbLine
 10
-377.1586111822232
 20
51.07549139853393
 30
0.0
 11
-377.1586111822232
 21
70.02490958860471
 31
0.0
  0
CIRCLE
  5
A6C
330
1F
100
AcDbEntity
  8
PEF-90A
  6
CONTINUOUS
100
AcDbCircle
 10
-385.5086111822231
 20
95.29401127426019
 30
0.0
 40
3.0
  0
CIRCLE
  5
A6D
330
1F
100
AcDbEntity
  8
PEF-90A
  6
CONTINUOUS
100
AcDbCircle
 10
-385.5086111822231
 20
95.29401127426019
 30
0.0
 40
2.349999999999992
  0
ARC
  5
A6E
330
1F
100
AcDbEntity
  8
PEF-90A
  6
CONTINUOUS
100
AcDbCircle
 10
-396.3080750447861
 20
133.29401127426
 30
0.0
 40
8.015553424762073
100
AcDbArc
 50
159.6035987915818
 51
200.396401208418
  0
ARC
  5
A6F
330
1F
100
AcDbEntity
  8
PEF-90A
  6
CONTINUOUS
100
AcDbCircle
 10
-394.7553110875222
 20
133.29401127426
 30
0.0
 40
9.413026017668695
100
AcDbArc
 50
159.6035987915818
 51
200.396401208418
  0
ARC
  5
A70
330
1F
100
AcDbEntity
  8
PEF-90A
  6
CONTINUOUS
100
AcDbCircle
 10
-396.3080750447861
 20
125.29401127426
 30
0.0
 40
8.015553424762096
100
AcDbArc
 50
159.6035987915818
 51
200.396401208418
  0
ARC
  5
A71
330
1F
100
AcDbEntity
  8
PEF-90A
  6
CONTINUOUS
100
AcDbCircle
 10
-394.7553110875222
 20
125.29401127426
 30
0.0
 40
9.413026017668675
100
AcDbArc
 50
159.6035987915818
 51
200.396401208418
  0
LINE
  5
A72
330
1F
100
AcDbEntity
  8
PEF-90A
  6
CENTER2
100
AcDbLine
 10
-386.2689576399411
 20
129.2940112742601
 30
0.0
 11
-406.7311253812256
 21
129.2940112742601
 31
0.0
  0
LINE
  5
A73
330
1F
100
AcDbEntity
  8
PEF-90A
  6
CENTER2
100
AcDbLine
 10
-388.2509160276367
 20
125.29401127426
 30
0.0
 11
-405.8383413566404
 21
125.29401127426
 31
0.0
  0
LINE
  5
A74
330
1F
100
AcDbEntity
  8
PEF-90A
  6
CENTER2
100
AcDbLine
 10
-388.2509160276367
 20
133.29401127426
 30
0.0
 11
-405.8383413566404
 21
133.29401127426
 31
0.0
  0
LINE
  5
A75
330
1F
100
AcDbEntity
  8
PEF-90A
  6
CONTINUOUS
100
AcDbLine
 10
-397.4079812504811
 20
118.29401127426
 30
0.0
 11
-424.1867703938508
 21
118.29401127426
 31
0.0
  0
CIRCLE
  5
A76
330
1F
100
AcDbEntity
  8
PEF-90A
  6
HIDDEN
100
AcDbCircle
 10
-413.7928824296852
 20
123.5782825217219
 30
0.0
 40
7.5
  0
ARC
  5
A77
330
1F
100
AcDbEntity
  8
PEF-90A
  6
CENTER2
100
AcDbCircle
 10
-385.5086111822231
 20
95.29401127426011
 30
0.0
 40
40.00000000000003
100
AcDbArc
 50
119.1556630447737
 51
161.1348158296532
  0
LINE
  5
A78
330
1F
100
AcDbEntity
  8
PEF-90A
  6
HIDDEN
100
AcDbLine
 10
-419.0961832885843
 20
118.2749816628227
 30
0.0
 11
-425.7672406763964
 21
124.9460390506349
 31
0.0
  0
ARC
  5
A79
330
1F
100
AcDbEntity
  8
PEF-90A
  6
CONTINUOUS
100
AcDbCircle
 10
-427.9350180534162
 20
137.7204181454527
 30
0.0
 40
3.499999999999968
100
AcDbArc
 50
224.9999999999996
 51
45.00000000000087
  0
CIRCLE
  5
A7A
330
1F
100
AcDbEntity
  8
PEF-90A
  6
CONTINUOUS
100
AcDbCircle
 10
-413.7928824296852
 20
123.5782825217219
 30
0.0
 40
2.5
  0
CIRCLE
  5
A7B
330
1F
100
AcDbEntity
  8
PEF-90A
  6
CONTINUOUS
100
AcDbCircle
 10
-413.7928824296852
 20
123.5782825217219
 30
0.0
 40
3.900000000000004
  0
LINE
  5
A7C
330
1F
100
AcDbEntity
  8
PEF-90A
  6
CONTINUOUS
100
AcDbLine
 10
-414.9883158352048
 20
128.0397007281858
 30
0.0
 11
-418.2543006361493
 21
124.7737159272413
 31
0.0
  0
LINE
  5
A7D
330
1F
100
AcDbEntity
  8
PEF-90A
  6
CONTINUOUS
100
AcDbLine
 10
-409.3314642232213
 20
122.3828491162022
 30
0.0
 11
-410.5268976287408
 21
126.8442673226662
 31
0.0
  0
LINE
  5
A7E
330
1F
100
AcDbEntity
  8
PEF-90A
  6
CONTINUOUS
100
AcDbLine
 10
-412.5974490241658
 20
119.116864315258
 30
0.0
 11
-409.3314642232213
 21
122.3828491162022
 31
0.0
  0
CIRCLE
  5
A7F
330
1F
100
AcDbEntity
  8
PEF-90A
  6
CONTINUOUS
100
AcDbCircle
 10
-413.7928824296852
 20
123.5782825217219
 30
0.0
 40
2.100000000000008
  0
LINE
  5
A80
330
1F
100
AcDbEntity
  8
PEF-90A
  6
CONTINUOUS
100
AcDbLine
 10
-417.0588672306296
 20
120.3122977207774
 30
0.0
 11
-412.5974490241658
 21
119.116864315258
 31
0.0
  0
LINE
  5
A81
330
1F
100
AcDbEntity
  8
PEF-90A
  6
CONTINUOUS
100
AcDbLine
 10
-418.2543006361493
 20
124.7737159272413
 30
0.0
 11
-417.0588672306296
 21
120.3122977207774
 31
0.0
  0
LINE
  5
A82
330
1F
100
AcDbEntity
  8
PEF-90A
  6
CONTINUOUS
100
AcDbLine
 10
-410.5268976287408
 20
126.8442673226662
 30
0.0
 11
-414.9883158352048
 21
128.0397007281858
 31
0.0
  0
LINE
  5
A83
330
1F
100
AcDbEntity
  8
PEF-90A
  6
HIDDEN
100
AcDbLine
 10
-408.4895815707861
 20
128.8815833806209
 30
0.0
 11
-415.1606389585983
 21
135.552640768433
 31
0.0
  0
LINE
  5
A84
330
1F
100
AcDbEntity
  8
PEF-90A
  6
CONTINUOUS
100
AcDbLine
 10
-381.358611182223
 20
144.3940112742605
 30
0.0
 11
-389.6586111822235
 21
144.3940112742605
 31
0.0
  0
LINE
  5
A85
330
1F
100
AcDbEntity
  8
PEF-90A
  6
CONTINUOUS
100
AcDbLine
 10
-389.6586111822235
 20
144.3940112742605
 30
0.0
 11
-389.5098804542293
 21
146.0940112742606
 31
0.0
  0
LINE
  5
A86
330
1F
100
AcDbEntity
  8
PEF-90A
  6
CONTINUOUS
100
AcDbLine
 10
-394.7350809474808
 20
137.2940112742601
 30
0.0
 11
-394.7350809474808
 21
121.29401127426
 31
0.0
  0
LINE
  5
A87
330
1F
100
AcDbEntity
  8
PEF-90A
  6
CONTINUOUS
100
AcDbLine
 10
-395.7010067737702
 20
121.29401127426
 30
0.0
 11
-395.7010067737702
 21
137.29401127426
 31
0.0
  0
LINE
  5
A88
330
1F
100
AcDbEntity
  8
PEF-90A
  6
CONTINUOUS
100
AcDbLine
 10
-397.1498955132032
 20
137.29401127426
 30
0.0
 11
-397.1498955132032
 21
121.29401127426
 31
0.0
  0
LINE
  5
A89
330
1F
100
AcDbEntity
  8
PEF-90A
  6
CONTINUOUS
100
AcDbLine
 10
-400.7238210704726
 20
121.29401127426
 30
0.0
 11
-400.7238210704726
 21
137.29401127426
 31
0.0
  0
LINE
  5
A8A
330
1F
100
AcDbEntity
  8
PEF-90A
  6
CONTINUOUS
100
AcDbLine
 10
-393.8586111822235
 20
139.5125311499862
 30
0.0
 11
-393.8586111822232
 21
120.5631129599155
 31
0.0
  0
LINE
  5
A8B
330
1F
100
AcDbEntity
  8
PEF-90A
  6
CONTINUOUS
100
AcDbLine
 10
-400.7238210704726
 20
121.29401127426
 30
0.0
 11
-393.8586111822232
 21
121.29401127426
 31
0.0
  0
ARC
  5
A8C
330
1F
100
AcDbEntity
  8
PEF-90A
  6
CONTINUOUS
100
AcDbCircle
 10
-396.3586111822235
 20
120.5631129599155
 30
0.0
 40
2.499999999999954
100
AcDbArc
 50
245.1813195752273
 51
0.0000000000032569
  0
LINE
  5
A8D
330
1F
100
AcDbEntity
  8
PEF-90A
  6
CONTINUOUS
100
AcDbLine
 10
-403.2624704473323
 20
121.7940112742601
 30
0.0
 11
-400.7238210704726
 21
121.7940112742601
 31
0.0
  0
LINE
  5
A8E
330
1F
100
AcDbEntity
  8
PEF-90A
  6
CONTINUOUS
100
AcDbLine
 10
-403.5639638877178
 20
121.9806616368001
 30
0.0
 11
-403.808981447001
 21
122.4725667160354
 31
0.0
  0
ARC
  5
A8F
330
1F
100
AcDbEntity
  8
PEF-90A
  6
CONTINUOUS
100
AcDbCircle
 10
-403.5522481952189
 20
122.6004453605014
 30
0.0
 40
0.2868186016999031
100
AcDbArc
 50
200.396401208418
 51
206.477861760741
  0
ARC
  5
A90
330
1F
100
AcDbEntity
  8
PEF-90A
  6
CONTINUOUS
100
AcDbCircle
 10
-403.2624704473323
 20
122.1308352983894
 30
0.0
 40
0.336824024129365
100
AcDbArc
 50
200.396401208418
 51
270.0
  0
LINE
  5
A91
330
1F
100
AcDbEntity
  8
PEF-90A
  6
CONTINUOUS
100
AcDbLine
 10
-400.7238210704726
 20
137.29401127426
 30
0.0
 11
-393.8586111822232
 21
137.2940112742601
 31
0.0
  0
LINE
  5
A92
330
1F
100
AcDbEntity
  8
PEF-90A
  6
CONTINUOUS
100
AcDbLine
 10
-403.2624704473323
 20
129.79401127426
 30
0.0
 11
-400.7238210704726
 21
129.7940112742601
 31
0.0
  0
LINE
  5
A93
330
1F
100
AcDbEntity
  8
PEF-90A
  6
CONTINUOUS
100
AcDbLine
 10
-403.2624704473321
 20
128.7940112742601
 30
0.0
 11
-400.7238210704726
 21
128.7940112742603
 31
0.0
  0
LINE
  5
A94
330
1F
100
AcDbEntity
  8
PEF-90A
  6
CONTINUOUS
100
AcDbLine
 10
-403.5639638877178
 20
129.9806616367999
 30
0.0
 11
-403.808981447001
 21
130.4725667160351
 31
0.0
  0
ARC
  5
A95
330
1F
100
AcDbEntity
  8
PEF-90A
  6
CONTINUOUS
100
AcDbCircle
 10
-403.5522481952189
 20
130.6004453605011
 30
0.0
 40
0.2868186016998784
100
AcDbArc
 50
200.3964012084042
 51
206.4778617607474
  0
ARC
  5
A96
330
1F
100
AcDbEntity
  8
PEF-90A
  6
CONTINUOUS
100
AcDbCircle
 10
-403.2624704473323
 20
130.1308352983894
 30
0.0
 40
0.3368240241293683
100
AcDbArc
 50
200.396401208418
 51
270.0
  0
LINE
  5
A97
330
1F
100
AcDbEntity
  8
PEF-90A
  6
CONTINUOUS
100
AcDbLine
 10
-403.5639638877178
 20
128.6073609117202
 30
0.0
 11
-403.808981447001
 21
128.1154558324847
 31
0.0
  0
ARC
  5
A98
330
1F
100
AcDbEntity
  8
PEF-90A
  6
CONTINUOUS
100
AcDbCircle
 10
-403.5522481952189
 20
127.9875771880188
 30
0.0
 40
0.2868186016999063
100
AcDbArc
 50
153.5221382392523
 51
159.6035987915818
  0
ARC
  5
A99
330
1F
100
AcDbEntity
  8
PEF-90A
  6
CONTINUOUS
100
AcDbCircle
 10
-403.2624704473323
 20
128.4571872501308
 30
0.0
 40
0.3368240241293989
100
AcDbArc
 50
90.0
 51
159.6035987915818
  0
LINE
  5
A9A
330
1F
100
AcDbEntity
  8
PEF-90A
  6
CONTINUOUS
100
AcDbLine
 10
-403.2624704473323
 20
136.7940112742597
 30
0.0
 11
-400.7238210704726
 21
136.79401127426
 31
0.0
  0
LINE
  5
A9B
330
1F
100
AcDbEntity
  8
PEF-90A
  6
CONTINUOUS
100
AcDbLine
 10
-403.5639638877178
 20
136.6073609117199
 30
0.0
 11
-403.808981447001
 21
136.1154558324846
 31
0.0
  0
ARC
  5
A9C
330
1F
100
AcDbEntity
  8
PEF-90A
  6
CONTINUOUS
100
AcDbCircle
 10
-403.5522481952189
 20
135.9875771880185
 30
0.0
 40
0.2868186016999063
100
AcDbArc
 50
153.5221382392523
 51
159.6035987915985
  0
ARC
  5
A9D
330
1F
100
AcDbEntity
  8
PEF-90A
  6
CONTINUOUS
100
AcDbCircle
 10
-403.2624704473323
 20
136.4571872501308
 30
0.0
 40
0.3368240241292995
100
AcDbArc
 50
90.00000000000161
 51
159.6035987915855
  0
ARC
  5
A9E
330
1F
100
AcDbEntity
  8
PEF-90A
  6
CONTINUOUS
100
AcDbCircle
 10
-385.5086111822231
 20
136.4876639073226
 30
0.0
 40
10.40634736693797
100
AcDbArc
 50
67.38712560452144
 51
112.6128743954785
  0
LINE
  5
A9F
330
1F
100
AcDbEntity
  8
PEF-90A
  6
CONTINUOUS
100
AcDbLine
 10
-381.358611182223
 20
144.3940112742605
 30
0.0
 11
-381.5073419102171
 21
146.0940112742606
 31
0.0
  0
LINE
  5
AA7
330
1F
100
AcDbEntity
  8
PEF-90A
  6
HIDDEN
100
AcDbLine
 10
-196.508611182223
 20
143.794011274261
 30
0.0
 11
-175.508611182223
 21
143.794011274261
 31
0.0
  0
LINE
  5
AA8
330
1F
100
AcDbEntity
  8
PEF-90A
  6
CONTINUOUS
100
AcDbLine
 10
-196.0086111822233
 20
145.2940112742608
 30
0.0
 11
-176.508611182223
 21
145.2940112742608
 31
0.0
  0
LINE
  5
AA9
330
1F
100
AcDbEntity
  8
PEF-90A
  6
CENTER2
100
AcDbLine
 10
-193.6320565990818
 20
123.578282521723
 30
0.0
 11
-158.2731620804268
 21
123.578282521723
 31
0.0
  0
LINE
  5
AAA
330
1F
100
AcDbEntity
  8
PEF-90A
  6
CONTINUOUS
100
AcDbLine
 10
-160.5086111822235
 20
159.3625537691853
 30
0.0
 11
-160.5086111822233
 21
116.078282521723
 31
0.0
  0
LINE
  5
AAB
330
1F
100
AcDbEntity
  8
PEF-90A
  6
CONTINUOUS
100
AcDbLine
 10
-162.8086111822234
 20
116.078282521723
 30
0.0
 11
-162.8086111822234
 21
159.3625537691851
 31
0.0
  0
LINE
  5
AAC
330
1F
100
AcDbEntity
  8
PEF-90A
  6
CONTINUOUS
100
AcDbLine
 10
-173.2086111822233
 20
131.0782825217231
 30
0.0
 11
-173.2086111822233
 21
116.078282521723
 31
0.0
  0
LINE
  5
AAD
330
1F
100
AcDbEntity
  8
PEF-90A
  6
CONTINUOUS
100
AcDbLine
 10
-175.5086111822233
 20
116.078282521723
 30
0.0
 11
-175.5086111822234
 21
131.0782825217231
 31
0.0
  0
LINE
  5
AAF
330
1F
100
AcDbEntity
  8
PEF-90A
  6
CONTINUOUS
100
AcDbLine
 10
-171.7086111822233
 20
117.5782825217229
 30
0.0
 11
-164.3086111822233
 21
117.5782825217231
 31
0.0
  0
ARC
  5
AB0
330
1F
100
AcDbEntity
  8
PEF-90A
  6
CONTINUOUS
100
AcDbCircle
 10
-164.3086111822233
 20
116.078282521723
 30
0.0
 40
1.5
100
AcDbArc
 50
0.0
 51
90.00000000000325
  0
LINE
  5
AB1
330
1F
100
AcDbEntity
  8
PEF-90A
  6
CONTINUOUS
100
AcDbLine
 10
-160.5086111822233
 20
116.078282521723
 30
0.0
 11
-162.8086111822234
 21
116.078282521723
 31
0.0
  0
ARC
  5
AB2
330
1F
100
AcDbEntity
  8
PEF-90A
  6
CONTINUOUS
100
AcDbCircle
 10
-171.7086111822233
 20
116.078282521723
 30
0.0
 40
1.5
100
AcDbArc
 50
90.0
 51
180.0
  0
LINE
  5
AB3
330
1F
100
AcDbEntity
  8
PEF-90A
  6
CONTINUOUS
100
AcDbLine
 10
-173.2086111822233
 20
116.078282521723
 30
0.0
 11
-175.5086111822233
 21
116.078282521723
 31
0.0
  0
LINE
  5
AB6
330
1F
100
AcDbEntity
  8
PEF-90A
  6
CONTINUOUS
100
AcDbLine
 10
-171.7086111822234
 20
129.5782825217231
 30
0.0
 11
-164.3086111822235
 21
129.5782825217231
 31
0.0
  0
ARC
  5
AB7
330
1F
100
AcDbEntity
  8
PEF-90A
  6
CONTINUOUS
100
AcDbCircle
 10
-164.3086111822233
 20
131.0782825217231
 30
0.0
 40
1.5
100
AcDbArc
 50
270.0
 51
0.0
  0
LINE
  5
AB8
330
1F
100
AcDbEntity
  8
PEF-90A
  6
HIDDEN
100
AcDbLine
 10
-162.8086111822234
 20
134.2204181454542
 30
0.0
 11
-160.5086111822235
 21
134.2204181454542
 31
0.0
  0
ARC
  5
AB9
330
1F
100
AcDbEntity
  8
PEF-90A
  6
CONTINUOUS
100
AcDbCircle
 10
-171.7086111822234
 20
131.0782825217231
 30
0.0
 40
1.5
100
AcDbArc
 50
180.0
 51
270.0
  0
LINE
  5
ABA
330
1F
100
AcDbEntity
  8
PEF-90A
  6
CONTINUOUS
100
AcDbLine
 10
-175.5086111822234
 20
131.0782825217231
 30
0.0
 11
-173.2086111822233
 21
131.0782825217231
 31
0.0
  0
LINE
  5
ABC
330
1F
100
AcDbEntity
  8
PEF-90A
  6
CENTER2
100
AcDbLine
 10
-166.2697173905355
 20
144.7914859573195
 30
0.0
 11
-156.9052962720141
 21
144.7914859573195
 31
0.0
  0
LINE
  5
ABD
330
1F
100
AcDbEntity
  8
PEF-90A
  6
CONTINUOUS
100
AcDbLine
 10
-175.508611182223
 20
144.2940112742608
 30
0.0
 11
-176.508611182223
 21
145.2940112742608
 31
0.0
  0
LINE
  5
ABE
330
1F
100
AcDbEntity
  8
PEF-90A
  6
HIDDEN
100
AcDbLine
 10
-162.8086111822234
 20
155.3625537691852
 30
0.0
 11
-160.5086111822235
 21
155.3625537691852
 31
0.0
  0
LINE
  5
ABF
330
1F
100
AcDbEntity
  8
PEF-90A
  6
CONTINUOUS
100
AcDbLine
 10
-162.8086111822234
 20
159.3625537691851
 30
0.0
 11
-160.5086111822235
 21
159.3625537691853
 31
0.0
  0
LINE
  5
AC0
330
1F
100
AcDbEntity
  8
PEF-90A
  6
CONTINUOUS
100
AcDbLine
 10
-183.5086111822231
 20
141.6161058579332
 30
0.0
 11
-183.5086111822231
 21
112.4537989184176
 31
0.0
  0
ARC
  5
AE0
330
1F
100
AcDbEntity
  8
PEF-90A
  6
CONTINUOUS
100
AcDbCircle
 10
-186.0936121740444
 20
120.114182521723
 30
0.0
 40
2.309400796890326
100
AcDbArc
 50
150.0000094361494
 51
209.9999905638521
  0
LINE
  5
AE1
330
1F
100
AcDbEntity
  8
PEF-90A
  6
CONTINUOUS
100
AcDbLine
 10
-188.5086111822233
 20
119.678282521723
 30
0.0
 11
-188.5086111822233
 21
127.4782825217229
 31
0.0
  0
LINE
  5
AE2
330
1F
100
AcDbEntity
  8
PEF-90A
  6
CONTINUOUS
100
AcDbLine
 10
-183.5086111822233
 20
115.728282521723
 30
0.0
 11
-183.5086111822235
 21
131.4282825217229
 31
0.0
  0
LINE
  5
AE3
330
1F
100
AcDbEntity
  8
PEF-90A
  6
CONTINUOUS
100
AcDbLine
 10
-184.5086111822235
 20
131.4282825217229
 30
0.0
 11
-184.5086111822232
 21
115.728282521723
 31
0.0
  0
LINE
  5
AE6
330
1F
100
AcDbEntity
  8
PEF-90A
  6
CONTINUOUS
100
AcDbLine
 10
-196.508611182223
 20
109.8449491883897
 30
0.0
 11
-184.3764474621321
 21
111.4625710177349
 31
0.0
  0
ARC
  5
AE8
330
1F
100
AcDbEntity
  8
PEF-90A
  6
CONTINUOUS
100
AcDbCircle
 10
-184.508611182223
 20
112.4537989184176
 30
0.0
 40
1.000000000000001
100
AcDbArc
 50
277.5946433685902
 51
0.0
  0
ARC
  5
AE9
330
1F
100
AcDbEntity
  8
PEF-90A
  6
CONTINUOUS
100
AcDbCircle
 10
-195.5086111822232
 20
108.9694327916949
 30
0.0
 40
1.000000000000005
100
AcDbArc
 50
97.59464336859371
 51
180.0
  0
LINE
  5
AED
330
1F
100
AcDbEntity
  8
PEF-90A
  6
CONTINUOUS
100
AcDbLine
 10
-184.5086111822232
 20
115.728282521723
 30
0.0
 11
-183.5086111822233
 21
115.728282521723
 31
0.0
  0
LINE
  5
AEE
330
1F
100
AcDbEntity
  8
PEF-90A
  6
CONTINUOUS
100
AcDbLine
 10
-184.5086111822233
 20
118.959482521723
 30
0.0
 11
-188.0936120022233
 21
118.959482521723
 31
0.0
  0
LINE
  5
AEF
330
1F
100
AcDbEntity
  8
PEF-90A
  6
CONTINUOUS
100
AcDbLine
 10
-188.0936120022233
 20
118.959482521723
 30
0.0
 11
-188.5086111822233
 21
119.678282521723
 31
0.0
  0
ARC
  5
B01
330
1F
100
AcDbEntity
  8
PEF-90A
  6
CONTINUOUS
100
AcDbCircle
 10
-186.0936121740446
 20
127.0423825217229
 30
0.0
 40
2.309400796890249
100
AcDbArc
 50
150.0000094361475
 51
209.9999905638521
  0
ARC
  5
B02
330
1F
100
AcDbEntity
  8
PEF-90A
  6
CONTINUOUS
100
AcDbCircle
 10
-181.875402192126
 20
123.578282521723
 30
0.0
 40
6.633208990097111
100
AcDbArc
 50
159.625352542538
 51
200.3746474574618
  0
LINE
  5
B03
330
1F
100
AcDbEntity
  8
PEF-90A
  6
CONTINUOUS
100
AcDbLine
 10
-190.2086111822233
 20
121.0782825217229
 30
0.0
 11
-190.2086111822233
 21
126.0782825217229
 31
0.0
  0
LINE
  5
B04
330
1F
100
AcDbEntity
  8
PEF-90A
  6
CONTINUOUS
100
AcDbLine
 10
-184.5086111822233
 20
121.268882521723
 30
0.0
 11
-188.0936120022233
 21
121.268882521723
 31
0.0
  0
LINE
  5
B05
330
1F
100
AcDbEntity
  8
PEF-90A
  6
CONTINUOUS
100
AcDbLine
 10
-190.2086111822233
 20
121.478282521723
 30
0.0
 11
-188.5086111822233
 21
121.478282521723
 31
0.0
  0
LINE
  5
B06
330
1F
100
AcDbEntity
  8
PEF-90A
  6
CONTINUOUS
100
AcDbLine
 10
-188.5086111822233
 20
121.0782825217229
 30
0.0
 11
-190.2086111822233
 21
121.0782825217229
 31
0.0
  0
LINE
  5
B07
330
1F
100
AcDbEntity
  8
PEF-90A
  6
CONTINUOUS
100
AcDbLine
 10
-184.5086111822233
 20
125.887682521723
 30
0.0
 11
-188.0936120022233
 21
125.887682521723
 31
0.0
  0
LINE
  5
B08
330
1F
100
AcDbEntity
  8
PEF-90A
  6
CONTINUOUS
100
AcDbLine
 10
-190.2086111822233
 20
125.678282521723
 30
0.0
 11
-188.5086111822233
 21
125.678282521723
 31
0.0
  0
LINE
  5
B09
330
1F
100
AcDbEntity
  8
PEF-90A
  6
CONTINUOUS
100
AcDbLine
 10
-190.2086111822233
 20
126.0782825217229
 30
0.0
 11
-188.5086111822233
 21
126.0782825217229
 31
0.0
  0
LINE
  5
B0E
330
1F
100
AcDbEntity
  8
PEF-90A
  6
CONTINUOUS
100
AcDbLine
 10
-184.5086111822233
 20
128.1970825217229
 30
0.0
 11
-188.0936120022234
 21
128.1970825217229
 31
0.0
  0
LINE
  5
B0F
330
1F
100
AcDbEntity
  8
PEF-90A
  6
CONTINUOUS
100
AcDbLine
 10
-188.0936120022234
 20
128.1970825217229
 30
0.0
 11
-188.5086111822233
 21
127.4782825217229
 31
0.0
  0
LINE
  5
B10
330
1F
100
AcDbEntity
  8
PEF-90A
  6
CONTINUOUS
100
AcDbLine
 10
-183.5086111822235
 20
131.4282825217229
 30
0.0
 11
-184.5086111822235
 21
131.4282825217229
 31
0.0
  0
LINE
  5
B3B
330
1F
100
AcDbEntity
  8
PEF-90A
  6
CONTINUOUS
100
AcDbLine
 10
-262.1121507746236
 20
111.7241908643027
 30
0.0
 11
-260.6121507746236
 21
111.7241908643027
 31
0.0
  0
LINE
  5
B3C
330
1F
100
AcDbEntity
  8
PEF-90A
  6
CONTINUOUS
100
AcDbLine
 10
-260.6121507746236
 20
133.9268653819237
 30
0.0
 11
-256.5086111822235
 21
133.9268653819237
 31
0.0
  0
LINE
  5
B6C
330
1F
100
AcDbEntity
  8
PEF-90A
  6
CONTINUOUS
100
AcDbLine
 10
-262.1121507746236
 20
120.2487061702962
 30
0.0
 11
-260.6121507746236
 21
120.2487061702962
 31
0.0
  0
LINE
  5
B6E
330
1F
100
AcDbEntity
  8
PEF-90A
  6
CONTINUOUS
100
AcDbLine
 10
-256.5086111822237
 20
142.7940112742604
 30
0.0
 11
-196.5086111822235
 21
142.7940112742608
 31
0.0
  0
LINE
  5
B6F
330
1F
100
AcDbEntity
  8
PEF-90A
  6
CONTINUOUS
100
AcDbLine
 10
-196.5086111822235
 20
144.3940112742606
 30
0.0
 11
-256.5086111822235
 21
144.3940112742605
 31
0.0
  0
LINE
  5
B70
330
1F
100
AcDbEntity
  8
PEF-90A
  6
CENTER2
100
AcDbLine
 10
-202.5086111822235
 20
135.0726257320918
 30
0.0
 11
-202.5086111822238
 21
151.0726257320921
 31
0.0
  0
LINE
  5
B71
330
1F
100
AcDbEntity
  8
PEF-90A
  6
CONTINUOUS
100
AcDbLine
 10
-196.508611182223
 20
142.7940112742608
 30
0.0
 11
-207.5086111822229
 21
142.7940112742608
 31
0.0
  0
ARC
  5
B75
330
1F
100
AcDbEntity
  8
PEF-90A
  6
CONTINUOUS
100
AcDbCircle
 10
-184.508611182223
 20
141.6161058579332
 30
0.0
 40
0.9999999999999003
100
AcDbArc
 50
0.0
 51
87.17160974413594
  0
LINE
  5
B76
330
1F
100
AcDbEntity
  8
PEF-90A
  6
CONTINUOUS
100
AcDbLine
 10
-196.508611182223
 20
140.5953312873569
 30
0.0
 11
-196.508611182223
 21
144.7940112742608
 31
0.0
  0
LINE
  5
B7A
330
1F
100
AcDbEntity
  8
PEF-90A
  6
CONTINUOUS
100
AcDbLine
 10
-196.508611182223
 20
143.2101838564794
 30
0.0
 11
-184.4592665065674
 21
142.6148876674314
 31
0.0
  0
LINE
  5
B7B
330
1F
100
AcDbEntity
  8
PEF-90A
  6
CONTINUOUS
100
AcDbLine
 10
-198.3586111822233
 20
144.3940112742606
 30
0.0
 11
-198.5073419102174
 21
146.0940112742606
 31
0.0
  0
LINE
  5
B7C
330
1F
100
AcDbEntity
  8
PEF-90A
  6
CONTINUOUS
100
AcDbLine
 10
-206.6586111822235
 20
144.3940112742606
 30
0.0
 11
-206.5098804542297
 21
146.0940112742606
 31
0.0
  0
LINE
  5
B7D
330
1F
100
AcDbEntity
  8
PEF-90A
  6
CONTINUOUS
100
AcDbLine
 10
-196.0086111822233
 20
145.2940112742608
 30
0.0
 11
-196.508611182223
 21
144.7940112742608
 31
0.0
  0
ARC
  5
B7E
330
1F
100
AcDbEntity
  8
PEF-90A
  6
CONTINUOUS
100
AcDbCircle
 10
-202.5086111822234
 20
136.4876639073228
 30
0.0
 40
10.40634736693792
100
AcDbArc
 50
67.38712560451964
 51
112.6128743954802
  0
LINE
  5
B82
330
1F
100
AcDbEntity
  8
PEF-90A
  6
HIDDEN
100
AcDbLine
 10
-260.6121507746236
 20
138.7487061702961
 30
0.0
 11
-256.5086111822235
 21
138.7487061702961
 31
0.0
  0
LINE
  5
B83
330
1F
100
AcDbEntity
  8
PEF-90A
  6
CONTINUOUS
100
AcDbLine
 10
-260.1121507746236
 20
140.2487061702963
 30
0.0
 11
-256.5086111822235
 21
140.2487061702963
 31
0.0
  0
LINE
  5
B84
330
1F
100
AcDbEntity
  8
PEF-90A
  6
CONTINUOUS
100
AcDbLine
 10
-256.5086111822235
 20
144.3940112742605
 30
0.0
 11
-256.5086111822235
 21
46.1940112742605
 31
0.0
  0
LINE
  5
B8D
330
1F
100
AcDbEntity
  8
PEF-90A
  6
CONTINUOUS
100
AcDbLine
 10
-260.1121507746236
 20
140.2487061702963
 30
0.0
 11
-260.6121507746236
 21
139.7487061702961
 31
0.0
  0
LINE
  5
BB1
330
1F
100
AcDbEntity
  8
PEF-90A
  6
CENTER2
100
AcDbLine
 10
-351.5086111822232
 20
96.05435773197806
 30
0.0
 11
-351.5086111822232
 21
116.5165254732624
 31
0.0
  0
LINE
  5
BB2
330
1F
100
AcDbEntity
  8
PEF-90A
  6
CENTER2
100
AcDbLine
 10
-355.5086111822232
 20
98.03631611967354
 30
0.0
 11
-355.5086111822232
 21
115.623741448677
 31
0.0
  0
LINE
  5
BB3
330
1F
100
AcDbEntity
  8
PEF-90A
  6
CENTER2
100
AcDbLine
 10
-347.5086111822232
 20
98.03631611967363
 30
0.0
 11
-347.5086111822232
 21
115.623741448677
 31
0.0
  0
ARC
  5
BB4
330
1F
100
AcDbEntity
  8
PEF-90A
  6
CONTINUOUS
100
AcDbCircle
 10
-385.5086111822231
 20
95.29401127426019
 30
0.0
 40
45.0
100
AcDbArc
 50
329.2621313278718
 51
10.69352421256452
  0
LINE
  5
BB6
330
1F
100
AcDbEntity
  8
PEF-90A
  6
HIDDEN
100
AcDbLine
 10
-351.9210390758622
 20
72.31304088569754
 30
0.0
 11
-345.2499816880501
 21
65.64198349788558
 31
0.0
  0
LINE
  5
BB7
330
1F
100
AcDbEntity
  8
PEF-90A
  6
CONTINUOUS
100
AcDbLine
 10
-355.8565834058483
 20
55.03538178008728
 30
0.0
 11
-334.2433695461983
 21
33.42216792043751
 31
0.0
  0
ARC
  5
BB8
330
1F
100
AcDbEntity
  8
PEF-90A
  6
CONTINUOUS
100
AcDbCircle
 10
-343.0822043110302
 20
52.8676044030675
 30
0.0
 40
3.499999999999993
100
AcDbArc
 50
45.00000000000087
 51
224.9999999999996
  0
ARC
  5
BB9
330
1F
100
AcDbEntity
  8
PEF-90A
  6
CENTER2
100
AcDbCircle
 10
-385.5086111822231
 20
95.29401127426011
 30
0.0
 40
39.99999999999999
100
AcDbArc
 50
299.1556630447738
 51
340.5849594971923
  0
LINE
  5
BBA
330
1F
100
AcDbEntity
  8
PEF-90A
  6
CENTER2
100
AcDbLine
 10
-364.2954077520478
 20
74.08080784408433
 30
0.0
 11
-319.6713394670458
 21
29.45673955908329
 31
0.0
  0
CIRCLE
  5
BBB
330
1F
100
AcDbEntity
  8
PEF-90A
  6
CONTINUOUS
100
AcDbCircle
 10
-357.2243399347612
 20
67.00974002679839
 30
0.0
 40
3.899999999999998
  0
LINE
  5
BBC
330
1F
100
AcDbEntity
  8
PEF-90A
  6
CONTINUOUS
100
AcDbLine
 10
-361.6857581412252
 20
68.20517343231791
 30
0.0
 11
-360.4903247357057
 21
63.74375522585399
 31
0.0
  0
LINE
  5
BBD
330
1F
100
AcDbEntity
  8
PEF-90A
  6
CONTINUOUS
100
AcDbLine
 10
-358.4197733402807
 20
71.47115823326237
 30
0.0
 11
-361.6857581412252
 21
68.20517343231791
 31
0.0
  0
CIRCLE
  5
BBE
330
1F
100
AcDbEntity
  8
PEF-90A
  6
HIDDEN
100
AcDbCircle
 10
-357.2243399347612
 20
67.00974002679839
 30
0.0
 40
7.5
  0
LINE
  5
BBF
330
1F
100
AcDbEntity
  8
PEF-90A
  6
HIDDEN
100
AcDbLine
 10
-362.5276407936603
 20
61.70643916789924
 30
0.0
 11
-355.8565834058483
 21
55.03538178008728
 31
0.0
  0
LINE
  5
BC0
330
1F
100
AcDbEntity
  8
PEF-90A
  6
CONTINUOUS
100
AcDbLine
 10
-373.6092411139653
 20
72.29401127426021
 30
0.0
 11
-346.8304519705958
 21
72.29401127426029
 31
0.0
  0
LINE
  5
BC1
330
1F
100
AcDbEntity
  8
PEF-90A
  6
CONTINUOUS
100
AcDbLine
 10
-367.7547519171143
 20
60.79401127426024
 30
0.0
 11
-370.2934012939738
 21
60.7940112742603
 31
0.0
  0
LINE
  5
BC2
330
1F
100
AcDbEntity
  8
PEF-90A
  6
CONTINUOUS
100
AcDbLine
 10
-367.7547519171141
 20
53.79401127426024
 30
0.0
 11
-370.2934012939738
 21
53.79401127426024
 31
0.0
  0
LINE
  5
BC3
330
1F
100
AcDbEntity
  8
PEF-90A
  6
CONTINUOUS
100
AcDbLine
 10
-367.7547519171143
 20
61.79401127426018
 30
0.0
 11
-370.2934012939738
 21
61.79401127426018
 31
0.0
  0
LINE
  5
BC4
330
1F
100
AcDbEntity
  8
PEF-90A
  6
CONTINUOUS
100
AcDbLine
 10
-367.7547519171143
 20
68.79401127426013
 30
0.0
 11
-370.2934012939738
 21
68.79401127426013
 31
0.0
  0
LINE
  5
BC5
330
1F
100
AcDbEntity
  8
PEF-90A
  6
CONTINUOUS
100
AcDbLine
 10
-373.8673268512432
 20
53.29401127426024
 30
0.0
 11
-373.8673268512432
 21
69.29401127426017
 31
0.0
  0
LINE
  5
BC6
330
1F
100
AcDbEntity
  8
PEF-90A
  6
CONTINUOUS
100
AcDbLine
 10
-370.2934012939738
 20
69.29401127426017
 30
0.0
 11
-370.2934012939738
 21
53.29401127426024
 31
0.0
  0
LINE
  5
BC7
330
1F
100
AcDbEntity
  8
PEF-90A
  6
CONTINUOUS
100
AcDbLine
 10
-367.4532584767285
 20
60.60736091172021
 30
0.0
 11
-367.2082409174453
 21
60.11545583248483
 31
0.0
  0
ARC
  5
BC8
330
1F
100
AcDbEntity
  8
PEF-90A
  6
CONTINUOUS
100
AcDbCircle
 10
-376.2619112769243
 20
57.29401127426024
 30
0.0
 40
9.413026017668695
100
AcDbArc
 50
339.6035987915848
 51
20.39640120841814
  0
ARC
  5
BC9
330
1F
100
AcDbEntity
  8
PEF-90A
  6
CONTINUOUS
100
AcDbCircle
 10
-367.7547519171141
 20
54.13083529838964
 30
0.0
 40
0.3368240241293634
100
AcDbArc
 50
270.0
 51
339.6035987915855
  0
ARC
  5
BCA
330
1F
100
AcDbEntity
  8
PEF-90A
  6
CONTINUOUS
100
AcDbCircle
 10
-367.4649741692276
 20
59.98757718801885
 30
0.0
 40
0.2868186016999031
100
AcDbArc
 50
20.39640120841814
 51
26.47786176075207
  0
LINE
  5
BCB
330
1F
100
AcDbEntity
  8
PEF-90A
  6
CONTINUOUS
100
AcDbLine
 10
-367.4532584767285
 20
53.98066163680027
 30
0.0
 11
-367.2082409174453
 21
54.47256671603572
 31
0.0
  0
ARC
  5
BCC
330
1F
100
AcDbEntity
  8
PEF-90A
  6
CONTINUOUS
100
AcDbCircle
 10
-367.4649741692276
 20
54.60044536050162
 30
0.0
 40
0.2868186016999079
100
AcDbArc
 50
333.5221382392522
 51
339.6035987915855
  0
ARC
  5
BCD
330
1F
100
AcDbEntity
  8
PEF-90A
  6
CONTINUOUS
100
AcDbCircle
 10
-374.7091473196603
 20
57.29401127426024
 30
0.0
 40
8.015553424762073
100
AcDbArc
 50
339.6035987915818
 51
20.39640120841814
  0
ARC
  5
BCE
330
1F
100
AcDbEntity
  8
PEF-90A
  6
CONTINUOUS
100
AcDbCircle
 10
-374.7091473196603
 20
65.29401127426019
 30
0.0
 40
8.015553424762076
100
AcDbArc
 50
339.6035987915818
 51
20.39640120841814
  0
ARC
  5
BCF
330
1F
100
AcDbEntity
  8
PEF-90A
  6
CONTINUOUS
100
AcDbCircle
 10
-376.2619112769243
 20
65.29401127426024
 30
0.0
 40
9.413026017668697
100
AcDbArc
 50
339.6035987915848
 51
20.39640120841814
  0
ARC
  5
BD0
330
1F
100
AcDbEntity
  8
PEF-90A
  6
CONTINUOUS
100
AcDbCircle
 10
-367.7547519171143
 20
60.45718725013092
 30
0.0
 40
0.3368240241293584
100
AcDbArc
 50
20.39640120841443
 51
90.00000000000161
  0
LINE
  5
BD1
330
1F
100
AcDbEntity
  8
PEF-90A
  6
CONTINUOUS
100
AcDbLine
 10
-367.4532584767288
 20
61.98066163680016
 30
0.0
 11
-367.2082409174453
 21
62.4725667160356
 31
0.0
  0
ARC
  5
BD2
330
1F
100
AcDbEntity
  8
PEF-90A
  6
CONTINUOUS
100
AcDbCircle
 10
-367.4649741692276
 20
62.60044536050145
 30
0.0
 40
0.2868186016999079
100
AcDbArc
 50
333.5221382392522
 51
339.6035987915848
  0
ARC
  5
BD3
330
1F
100
AcDbEntity
  8
PEF-90A
  6
CONTINUOUS
100
AcDbCircle
 10
-367.7547519171143
 20
62.13083529838947
 30
0.0
 40
0.3368240241293847
100
AcDbArc
 50
270.0
 51
339.6035987915848
  0
LINE
  5
BD4
330
1F
100
AcDbEntity
  8
PEF-90A
  6
CONTINUOUS
100
AcDbLine
 10
-367.4532584767285
 20
68.60736091172021
 30
0.0
 11
-367.2082409174453
 21
68.11545583248483
 31
0.0
  0
ARC
  5
BD5
330
1F
100
AcDbEntity
  8
PEF-90A
  6
CONTINUOUS
100
AcDbCircle
 10
-367.4649741692276
 20
67.98757718801886
 30
0.0
 40
0.2868186016999131
100
AcDbArc
 50
20.39640120841814
 51
26.47786176075134
  0
ARC
  5
BD6
330
1F
100
AcDbEntity
  8
PEF-90A
  6
CONTINUOUS
100
AcDbCircle
 10
-367.7547519171143
 20
68.45718725013075
 30
0.0
 40
0.33682402412936
100
AcDbArc
 50
20.39640120841814
 51
90.0
  0
LINE
  5
BD7
330
1F
100
AcDbEntity
  8
PEF-90A
  6
CONTINUOUS
100
AcDbLine
 10
-352.7629217282973
 20
65.81430662127889
 30
0.0
 11
-353.9583551338168
 21
70.27572482774282
 31
0.0
  0
LINE
  5
BD8
330
1F
100
AcDbEntity
  8
PEF-90A
  6
CONTINUOUS
100
AcDbLine
 10
-356.0289065292417
 20
62.54832182033453
 30
0.0
 11
-352.7629217282973
 21
65.81430662127889
 31
0.0
  0
CIRCLE
  5
BD9
330
1F
100
AcDbEntity
  8
PEF-90A
  6
CONTINUOUS
100
AcDbCircle
 10
-357.2243399347612
 20
67.00974002679839
 30
0.0
 40
2.099999999999992
  0
CIRCLE
  5
BDA
330
1F
100
AcDbEntity
  8
PEF-90A
  6
CONTINUOUS
100
AcDbCircle
 10
-357.2243399347612
 20
67.00974002679839
 30
0.0
 40
2.5
  0
LINE
  5
BDB
330
1F
100
AcDbEntity
  8
PEF-90A
  6
CONTINUOUS
100
AcDbLine
 10
-360.4903247357057
 20
63.74375522585399
 30
0.0
 11
-356.0289065292417
 21
62.54832182033453
 31
0.0
  0
LINE
  5
BDC
330
1F
100
AcDbEntity
  8
PEF-90A
  6
CONTINUOUS
100
AcDbLine
 10
-353.9583551338168
 20
70.27572482774292
 30
0.0
 11
-358.4197733402807
 21
71.47115823326237
 31
0.0
  0
LINE
  5
BDD
330
1F
100
AcDbEntity
  8
PEF-90A
  6
CENTER2
100
AcDbLine
 10
-344.1568205377017
 20
37.6508525526649
 30
0.0
 11
-328.6004713515978
 21
53.207201738769
 31
0.0
  0
LINE
  5
BDE
330
1F
100
AcDbEntity
  8
PEF-90A
  6
CONTINUOUS
100
AcDbLine
 10
-340.6073305768773
 20
55.3424781372205
 30
0.0
 11
-326.4651949531463
 21
41.20034251348953
 31
0.0
  0
LINE
  5
BDF
330
1F
100
AcDbEntity
  8
PEF-90A
  6
CONTINUOUS
100
AcDbLine
 10
-345.5570780451831
 20
50.39273066891461
 30
0.0
 11
-331.4149424214521
 21
36.25059504518367
 31
0.0
  0
LINE
  5
BE0
330
1F
100
AcDbEntity
  8
PEF-90A
  6
CONTINUOUS
100
AcDbLine
 10
-345.2499816880501
 20
65.64198349788558
 30
0.0
 11
-323.6367678284001
 21
44.02876963823575
 31
0.0
  0
ARC
  5
BE1
330
1F
100
AcDbEntity
  8
PEF-90A
  6
CONTINUOUS
100
AcDbCircle
 10
-328.9400686872991
 20
38.72546877933654
 30
0.0
 40
7.500000000000002
100
AcDbArc
 50
224.9999999999996
 51
45.00000000000087
  0
ARC
  5
BE2
330
1F
100
AcDbEntity
  8
PEF-90A
  6
CONTINUOUS
100
AcDbCircle
 10
-328.9400686872991
 20
38.72546877933654
 30
0.0
 40
3.499999999999998
100
AcDbArc
 50
224.9999999999996
 51
45.00000000000087
  0
LINE
  5
BE5
330
1F
100
AcDbEntity
  8
PEF-90A
  6
CONTINUOUS
100
AcDbLine
 10
-336.4086111822226
 20
99.44401127426031
 30
0.0
 11
-334.7086111822227
 21
99.29528054626631
 31
0.0
  0
LINE
  5
BE6
330
1F
100
AcDbEntity
  8
PEF-90A
  6
CONTINUOUS
100
AcDbLine
 10
-336.4086111822228
 20
91.14401127425987
 30
0.0
 11
-334.7086111822227
 21
91.29274200225394
 31
0.0
  0
LINE
  5
BE7
330
1F
100
AcDbEntity
  8
PEF-90A
  6
CONTINUOUS
100
AcDbLine
 10
-336.4086111822228
 20
91.14401127425987
 30
0.0
 11
-336.4086111822226
 21
99.44401127426031
 31
0.0
  0
ARC
  5
BE8
330
1F
100
AcDbEntity
  8
PEF-90A
  6
CONTINUOUS
100
AcDbCircle
 10
-344.3149585491608
 20
95.29401127426011
 30
0.0
 40
10.40634736693792
100
AcDbArc
 50
337.3871256045195
 51
22.61287439548037
  0
LINE
  5
BEC
330
1F
100
AcDbEntity
  8
PEF-90A
  6
CONTINUOUS
100
AcDbLine
 10
-343.5086111822233
 20
104.5204810395178
 30
0.0
 11
-359.5086111822232
 21
104.5204810395178
 31
0.0
  0
LINE
  5
BED
330
1F
100
AcDbEntity
  8
PEF-90A
  6
CONTINUOUS
100
AcDbLine
 10
-359.5086111822232
 20
105.4864068658069
 30
0.0
 11
-343.5086111822233
 21
105.4864068658069
 31
0.0
  0
LINE
  5
BEE
330
1F
100
AcDbEntity
  8
PEF-90A
  6
CONTINUOUS
100
AcDbLine
 10
-343.5086111822233
 20
106.9352956052399
 30
0.0
 11
-359.5086111822232
 21
106.9352956052399
 31
0.0
  0
LINE
  5
BEF
330
1F
100
AcDbEntity
  8
PEF-90A
  6
CONTINUOUS
100
AcDbLine
 10
-359.5086111822232
 20
110.5092211625094
 30
0.0
 11
-343.5086111822233
 21
110.5092211625094
 31
0.0
  0
ARC
  5
BF0
330
1F
100
AcDbEntity
  8
PEF-90A
  6
CONTINUOUS
100
AcDbCircle
 10
-347.5086111822232
 20
106.0934751368232
 30
0.0
 40
8.015553424762011
100
AcDbArc
 50
69.60359879158429
 51
110.396401208419
  0
ARC
  5
BF1
330
1F
100
AcDbEntity
  8
PEF-90A
  6
CONTINUOUS
100
AcDbCircle
 10
-347.5086111822232
 20
104.5407111795592
 30
0.0
 40
9.413026017668636
100
AcDbArc
 50
69.60359879158429
 51
110.3964012084155
  0
LINE
  5
BF2
330
1F
100
AcDbEntity
  8
PEF-90A
  6
CONTINUOUS
100
AcDbLine
 10
-355.8565834058486
 20
135.5526407684332
 30
0.0
 11
-334.2433695461989
 21
157.1658546280829
 31
0.0
  0
LINE
  5
BF3
330
1F
100
AcDbEntity
  8
PEF-90A
  6
HIDDEN
100
AcDbLine
 10
-351.9210390758623
 20
118.274981662823
 30
0.0
 11
-345.2499816880503
 21
124.9460390506351
 31
0.0
  0
ARC
  5
BF4
330
1F
100
AcDbEntity
  8
PEF-90A
  6
CONTINUOUS
100
AcDbCircle
 10
-343.0822043110306
 20
137.7204181454529
 30
0.0
 40
3.500000000000017
100
AcDbArc
 50
135.0000000000002
 51
315.0000000000003
  0
LINE
  5
BF5
330
1F
100
AcDbEntity
  8
PEF-90A
  6
CONTINUOUS
100
AcDbLine
 10
-341.2900913064969
 20
103.6440112742601
 30
0.0
 11
-360.2395094965678
 21
103.6440112742601
 31
0.0
  0
LINE
  5
BF6
330
1F
100
AcDbEntity
  8
PEF-90A
  6
CENTER2
100
AcDbLine
 10
-364.2954077466268
 20
116.5072147098564
 30
0.0
 11
-319.6713394670462
 21
161.1312829894371
 31
0.0
  0
ARC
  5
BF7
330
1F
100
AcDbEntity
  8
PEF-90A
  6
CONTINUOUS
100
AcDbCircle
 10
-360.2395094965678
 20
106.14401127426
 30
0.0
 40
2.500000000000008
100
AcDbArc
 50
155.181319575226
 51
270.0
  0
CIRCLE
  5
BF8
330
1F
100
AcDbEntity
  8
PEF-90A
  6
CONTINUOUS
100
AcDbCircle
 10
-357.2243399347613
 20
123.5782825217219
 30
0.0
 40
3.899999999999991
  0
LINE
  5
BF9
330
1F
100
AcDbEntity
  8
PEF-90A
  6
CONTINUOUS
100
AcDbLine
 10
-361.6857581412252
 20
122.3828491162026
 30
0.0
 11
-358.419773340281
 21
119.1168643152582
 31
0.0
  0
LINE
  5
BFA
330
1F
100
AcDbEntity
  8
PEF-90A
  6
CONTINUOUS
100
AcDbLine
 10
-360.4903247357059
 20
126.8442673226664
 30
0.0
 11
-361.6857581412252
 21
122.3828491162026
 31
0.0
  0
CIRCLE
  5
BFB
330
1F
100
AcDbEntity
  8
PEF-90A
  6
HIDDEN
100
AcDbCircle
 10
-357.2243399347613
 20
123.5782825217219
 30
0.0
 40
7.5
  0
LINE
  5
BFC
330
1F
100
AcDbEntity
  8
PEF-90A
  6
HIDDEN
100
AcDbLine
 10
-362.5276407936606
 20
128.8815833806213
 30
0.0
 11
-355.8565834058486
 21
135.5526407684332
 31
0.0
  0
ARC
  5
BFD
330
1F
100
AcDbEntity
  8
PEF-90A
  6
CENTER2
100
AcDbCircle
 10
-385.5086111822231
 20
95.29401127426011
 30
0.0
 40
39.99999999999998
100
AcDbArc
 50
29.15566304477494
 51
60.84433695522612
  0
LINE
  5
BFE
330
1F
100
AcDbEntity
  8
PEF-90A
  6
CONTINUOUS
100
AcDbLine
 10
-362.5086111822231
 20
107.1933813425179
 30
0.0
 11
-362.5086111822232
 21
133.9721704858875
 31
0.0
  0
CIRCLE
  5
BFF
330
1F
100
AcDbEntity
  8
PEF-90A
  6
CONTINUOUS
100
AcDbCircle
 10
-357.2243399347613
 20
123.5782825217219
 30
0.0
 40
2.5
  0
LINE
  5
C00
330
1F
100
AcDbEntity
  8
PEF-90A
  6
CONTINUOUS
100
AcDbLine
 10
-352.7629217282973
 20
124.7737159272417
 30
0.0
 11
-356.0289065292418
 21
128.039700728186
 31
0.0
  0
ARC
  5
C01
330
1F
100
AcDbEntity
  8
PEF-90A
  6
CONTINUOUS
100
AcDbCircle
 10
-355.5086111822232
 20
106.093475136823
 30
0.0
 40
8.015553424762055
100
AcDbArc
 50
69.60359879158429
 51
110.3964012084172
  0
ARC
  5
C02
330
1F
100
AcDbEntity
  8
PEF-90A
  6
CONTINUOUS
100
AcDbCircle
 10
-355.5086111822232
 20
104.540711179559
 30
0.0
 40
9.41302601766865
100
AcDbArc
 50
69.60359879158429
 51
110.3964012084155
  0
LINE
  5
C03
330
1F
100
AcDbEntity
  8
PEF-90A
  6
CONTINUOUS
100
AcDbLine
 10
-353.958355133817
 20
120.3122977207778
 30
0.0
 11
-352.7629217282973
 21
124.7737159272417
 31
0.0
  0
LINE
  5
C04
330
1F
100
AcDbEntity
  8
PEF-90A
  6
CONTINUOUS
100
AcDbLine
 10
-359.0086111822232
 20
113.0478705393689
 30
0.0
 11
-359.0086111822232
 21
110.5092211625094
 31
0.0
  0
LINE
  5
C05
330
1F
100
AcDbEntity
  8
PEF-90A
  6
CONTINUOUS
100
AcDbLine
 10
-359.5086111822232
 20
110.5092211625094
 30
0.0
 11
-359.5086111822232
 21
103.6440112742601
 31
0.0
  0
CIRCLE
  5
C06
330
1F
100
AcDbEntity
  8
PEF-90A
  6
CONTINUOUS
100
AcDbCircle
 10
-357.2243399347613
 20
123.5782825217219
 30
0.0
 40
2.099999999999992
  0
LINE
  5
C07
330
1F
100
AcDbEntity
  8
PEF-90A
  6
CONTINUOUS
100
AcDbLine
 10
-358.419773340281
 20
119.1168643152582
 30
0.0
 11
-353.958355133817
 21
120.3122977207778
 31
0.0
  0
LINE
  5
C08
330
1F
100
AcDbEntity
  8
PEF-90A
  6
CONTINUOUS
100
AcDbLine
 10
-358.8219608196831
 20
113.3493639797545
 30
0.0
 11
-358.3300557404478
 21
113.594381539038
 31
0.0
  0
ARC
  5
C09
330
1F
100
AcDbEntity
  8
PEF-90A
  6
CONTINUOUS
100
AcDbCircle
 10
-358.6717871580938
 20
113.0478705393689
 30
0.0
 40
0.3368240241293066
100
AcDbArc
 50
110.3964012084217
 51
180.0
  0
ARC
  5
C0A
330
1F
100
AcDbEntity
  8
PEF-90A
  6
CONTINUOUS
100
AcDbCircle
 10
-358.2021770959818
 20
113.3376482872558
 30
0.0
 40
0.2868186016998673
100
AcDbArc
 50
110.3964012084199
 51
116.4778617607449
  0
LINE
  5
C0B
330
1F
100
AcDbEntity
  8
PEF-90A
  6
CONTINUOUS
100
AcDbLine
 10
-351.0086111822232
 20
113.0478705393689
 30
0.0
 11
-351.0086111822232
 21
110.5092211625094
 31
0.0
  0
LINE
  5
C0C
330
1F
100
AcDbEntity
  8
PEF-90A
  6
CONTINUOUS
100
AcDbLine
 10
-352.0086111822231
 20
113.0478705393689
 30
0.0
 11
-352.0086111822231
 21
110.5092211625094
 31
0.0
  0
LINE
  5
C0D
330
1F
100
AcDbEntity
  8
PEF-90A
  6
CONTINUOUS
100
AcDbLine
 10
-352.1952615447633
 20
113.3493639797545
 30
0.0
 11
-352.6871666239987
 21
113.5943815390379
 31
0.0
  0
ARC
  5
C0E
330
1F
100
AcDbEntity
  8
PEF-90A
  6
CONTINUOUS
100
AcDbCircle
 10
-352.8150452684646
 20
113.3376482872555
 30
0.0
 40
0.2868186016999428
100
AcDbArc
 50
63.52213823926305
 51
69.60359879158867
  0
ARC
  5
C0F
330
1F
100
AcDbEntity
  8
PEF-90A
  6
CONTINUOUS
100
AcDbCircle
 10
-352.3454352063527
 20
113.0478705393689
 30
0.0
 40
0.3368240241293634
100
AcDbArc
 50
0.0
 51
69.60359879158429
  0
LINE
  5
C10
330
1F
100
AcDbEntity
  8
PEF-90A
  6
CONTINUOUS
100
AcDbLine
 10
-350.8219608196834
 20
113.3493639797547
 30
0.0
 11
-350.3300557404478
 21
113.5943815390379
 31
0.0
  0
ARC
  5
C11
330
1F
100
AcDbEntity
  8
PEF-90A
  6
CONTINUOUS
100
AcDbCircle
 10
-350.202177095982
 20
113.3376482872555
 30
0.0
 40
0.2868186016999823
100
AcDbArc
 50
110.3964012084096
 51
116.4778617607349
  0
ARC
  5
C12
330
1F
100
AcDbEntity
  8
PEF-90A
  6
CONTINUOUS
100
AcDbCircle
 10
-350.671787158094
 20
113.0478705393689
 30
0.0
 40
0.3368240241293867
100
AcDbArc
 50
110.3964012084155
 51
180.0
  0
LINE
  5
C13
330
1F
100
AcDbEntity
  8
PEF-90A
  6
CONTINUOUS
100
AcDbLine
 10
-356.0289065292418
 20
128.039700728186
 30
0.0
 11
-360.4903247357059
 21
126.8442673226664
 31
0.0
  0
LINE
  5
C14
330
1F
100
AcDbEntity
  8
PEF-90A
  6
CENTER2
100
AcDbLine
 10
-327.865452460628
 20
136.6458019187815
 30
0.0
 11
-343.4218016467318
 21
152.2021511048855
 31
0.0
  0
LINE
  5
C15
330
1F
100
AcDbEntity
  8
PEF-90A
  6
CONTINUOUS
100
AcDbLine
 10
-345.5570780451834
 20
140.1952918796057
 30
0.0
 11
-331.4149424214527
 21
154.3374275033368
 31
0.0
  0
ARC
  5
C16
330
1F
100
AcDbEntity
  8
PEF-90A
  6
CONTINUOUS
100
AcDbCircle
 10
-328.9400686872996
 20
151.8625537691841
 30
0.0
 40
7.500000000000034
100
AcDbArc
 50
315.0000000000003
 51
135.0000000000002
  0
ARC
  5
C17
330
1F
100
AcDbEntity
  8
PEF-90A
  6
CONTINUOUS
100
AcDbCircle
 10
-328.9400686872996
 20
151.8625537691841
 30
0.0
 40
3.499999999999993
100
AcDbArc
 50
315.0000000000003
 51
135.0000000000002
  0
LINE
  5
C18
330
1F
100
AcDbEntity
  8
PEF-90A
  6
CONTINUOUS
100
AcDbLine
 10
-340.6073305768776
 20
135.2455444113
 30
0.0
 11
-326.4651949531468
 21
149.3876800350312
 31
0.0
  0
LINE
  5
C19
330
1F
100
AcDbEntity
  8
PEF-90A
  6
CONTINUOUS
100
AcDbLine
 10
-345.2499816880503
 20
124.9460390506351
 30
0.0
 11
-323.6367678284003
 21
146.5592529102851
 31
0.0
  0
LINE
  5
C1A
330
1F
100
AcDbEntity
  8
PEF-90A
  6
CONTINUOUS
100
AcDbLine
 10
-344.0086111822232
 20
113.0478705393689
 30
0.0
 11
-344.0086111822235
 21
110.5092211625094
 31
0.0
  0
LINE
  5
C1B
330
1F
100
AcDbEntity
  8
PEF-90A
  6
CONTINUOUS
100
AcDbLine
 10
-343.5086111822233
 20
110.5092211625094
 30
0.0
 11
-343.5086111822233
 21
103.6440112742601
 31
0.0
  0
LINE
  5
C1C
330
1F
100
AcDbEntity
  8
PEF-90A
  6
CONTINUOUS
100
AcDbLine
 10
-344.1952615447634
 20
113.3493639797547
 30
0.0
 11
-344.6871666239987
 21
113.594381539038
 31
0.0
  0
ARC
  5
C1D
330
1F
100
AcDbEntity
  8
PEF-90A
  6
CONTINUOUS
100
AcDbCircle
 10
-344.8150452684646
 20
113.3376482872558
 30
0.0
 40
0.2868186016998347
100
AcDbArc
 50
63.52213823925577
 51
69.60359879158095
  0
ARC
  5
C1E
330
1F
100
AcDbEntity
  8
PEF-90A
  6
CONTINUOUS
100
AcDbCircle
 10
-344.3454352063528
 20
113.0478705393689
 30
0.0
 40
0.3368240241293634
100
AcDbArc
 50
0.0
 51
69.60359879158533
  0
TEXT
  5
F57
330
1F
100
AcDbEntity
  8
PEF-90A
100
AcDbText
 10
-301.8302096877576
 20
37.82145905465489
 30
0.0
 40
2.5
  1
PEF-90AR
100
AcDbText
  0
ENDSEC
  0
SECTION
  2
OBJECTS
  0
DICTIONARY
  5
C
330
0
100
AcDbDictionary
  3
ACAD_GROUP
350
D
  3
ACAD_LAYOUT
350
1A
  3
ACAD_MLINESTYLE
350
17
  3
ACAD_PLOTSETTINGS
350
19
  3
ACAD_PLOTSTYLENAME
350
E
  3
ACADDIM
350
102B
  3
DWGPROPS
350
103A
  3
ACDBHEADERROUNDTRIPXREC
350
1096
  0
DICTIONARY
  5
105F
330
1F
100
AcDbDictionary
280
     1
  3
ACAD_LAYOUTSELFREF
360
10B7
  0
DICTIONARY
  5
105D
330
1B
100
AcDbDictionary
280
     1
  3
ACAD_LAYOUTSELFREF
360
10B6
  0
DICTIONARY
  5
D
102
{ACAD_REACTORS
330
C
102
}
330
C
100
AcDbDictionary
  0
DICTIONARY
  5
1A
102
{ACAD_REACTORS
330
C
102
}
330
C
100
AcDbDictionary
  0
DICTIONARY
  5
17
102
{ACAD_REACTORS
330
C
102
}
330
C
100
AcDbDictionary
  3
STANDARD
350
18
  0
DICTIONARY
  5
19
102
{ACAD_REACTORS
330
C
102
}
330
C
100
AcDbDictionary
  0
ACDBDICTIONARYWDFLT
  5
E
102
{ACAD_REACTORS
330
C
102
}
330
C
100
AcDbDictionary
281
     1
  3
Normal
350
F
100
AcDbDictionaryWithDefault
340
F
  0
XRECORD
  5
102B
102
{ACAD_REACTORS
330
C
102
}
330
C
100
AcDbXrecord
 90
   990106
  3

 60
     0
 61
     0
 62
     4
 63
     4
 64
     1
 65
     0
 66
     0
 67
     3
 68
     1
 69
     0
 70
     0
 71
     0
 72
     0
 40
0.0
170
     1
  0
XRECORD
  5
103A
102
{ACAD_REACTORS
330
C
102
}
330
C
100
AcDbXrecord
  1
DWGPROPS COOKIE
  2

  3

  4

  6

  7

  8
한신
  9

300
=
301
=
302
=
303
=
304
=
305
=
306
=
307
=
308
=
309
=
 40
0.3251710648148149
 41
2451736.403766551
 42
2451814.599439234
  1

 90
        0
  0
DICTIONARY
  5
1096
102
{ACAD_REACTORS
330
C
102
}
330
C
100
AcDbDictionary
  3
TSTACKALIGN
350
1097
  3
TSTACKSIZE
350
1098
  3
HYPERLINKBASE
350
1099
  3
STYLESHEET
350
109A
  3
LAYOUTDICT
350
109B
  3
PLOTSETDICT
350
109C
  3
PLOTSTYLNAMDICT
350
109D
  3
LWETCUNION
350
109E
  3
INSUNITS
350
109F
  3
CEPSNTYPE
350
10A0
  3
FINGERPRINTGUID
350
10A1
  3
VERSIONGUID
350
10A2
  3
PSVPSCALE
350
10A3
  3
PUCSORTHOREF
350
10A4
  3
PUCSORTHOVIEW
350
10A5
  3
PUCSBASE
350
10A6
  3
PUCSORGTOP
350
10A7
  3
PUCSORGBOTTOM
350
10A8
  3
PUCSORGLEFT
350
10A9
  3
PUCSORGRIGHT
350
10AA
  3
PUCSORGFRONT
350
10AB
  3
PUCSORGBACK
350
10AC
  3
UCSORTHOREF
350
10AD
  3
UCSORTHOVIEW
350
10AE
  3
UCSBASE
350
10AF
  3
UCSORGTOP
350
10B0
  3
UCSORGBOTTOM
350
10B1
  3
UCSORGLEFT
350
10B2
  3
UCSORGRIGHT
350
10B3
  3
UCSORGFRONT
350
10B4
  3
UCSORGBACK
350
10B5
  0
XRECORD
  5
10B7
102
{ACAD_REACTORS
330
105F
102
}
330
105F
100
AcDbXrecord
340
1F
  0
XRECORD
  5
10B6
102
{ACAD_REACTORS
330
105D
102
}
330
105D
100
AcDbXrecord
340
1B
  0
MLINESTYLE
  5
18
102
{ACAD_REACTORS
330
17
102
}
330
17
100
AcDbMlineStyle
  2
STANDARD
 70
     0
  3

 62
   256
 51
90.0
 52
90.0
 71
     2
 49
0.5
 62
   256
  6
BYLAYER
 49
-0.5
 62
   256
  6
BYLAYER
  0
ACDBPLACEHOLDER
  5
F
102
{ACAD_REACTORS
330
E
102
}
330
E
100
AcDbPlaceHolder
280
     0
  0
XRECORD
  5
1097
102
{ACAD_REACTORS
330
1096
102
}
330
1096
100
AcDbXrecord
 90
        1
  0
XRECORD
  5
1098
102
{ACAD_REACTORS
330
1096
102
}
330
1096
100
AcDbXrecord
 90
       70
  0
XRECORD
  5
1099
102
{ACAD_REACTORS
330
1096
102
}
330
1096
100
AcDbXrecord
  1

  0
XRECORD
  5
109A
102
{ACAD_REACTORS
330
1096
102
}
330
1096
100
AcDbXrecord
  1

  0
XRECORD
  5
109B
102
{ACAD_REACTORS
330
1096
102
}
330
1096
100
AcDbXrecord
340
1A
  0
XRECORD
  5
109C
102
{ACAD_REACTORS
330
1096
102
}
330
1096
100
AcDbXrecord
340
19
  0
XRECORD
  5
109D
102
{ACAD_REACTORS
330
1096
102
}
330
1096
100
AcDbXrecord
340
E
  0
XRECORD
  5
109E
102
{ACAD_REACTORS
330
1096
102
}
330
1096
100
AcDbXrecord
 90
    10781
  0
XRECORD
  5
109F
102
{ACAD_REACTORS
330
1096
102
}
330
1096
100
AcDbXrecord
 90
        1
  0
XRECORD
  5
10A0
102
{ACAD_REACTORS
330
1096
102
}
330
1096
100
AcDbXrecord
 90
        0
  0
XRECORD
  5
10A1
102
{ACAD_REACTORS
330
1096
102
}
330
1096
100
AcDbXrecord
  1
{FDEAD576-A652-11D2-9A35-0060089B3A3F}
  0
XRECORD
  5
10A2
102
{ACAD_REACTORS
330
1096
102
}
330
1096
100
AcDbXrecord
  1
{0248BA11-74C2-4D28-90C5-BEB74E7CA4EF}
  0
XRECORD
  5
10A3
102
{ACAD_REACTORS
330
1096
102
}
330
1096
100
AcDbXrecord
 40
0.0
  0
XRECORD
  5
10A4
102
{ACAD_REACTORS
330
1096
102
}
330
1096
100
AcDbXrecord
340
0
  0
XRECORD
  5
10A5
102
{ACAD_REACTORS
330
1096
102
}
330
1096
100
AcDbXrecord
 70
     0
  0
XRECORD
  5
10A6
102
{ACAD_REACTORS
330
1096
102
}
330
1096
100
AcDbXrecord
340
0
  0
XRECORD
  5
10A7
102
{ACAD_REACTORS
330
1096
102
}
330
1096
100
AcDbXrecord
 10
0.0
 20
0.0
 30
0.0
  0
XRECORD
  5
10A8
102
{ACAD_REACTORS
330
1096
102
}
330
1096
100
AcDbXrecord
 10
0.0
 20
0.0
 30
0.0
  0
XRECORD
  5
10A9
102
{ACAD_REACTORS
330
1096
102
}
330
1096
100
AcDbXrecord
 10
0.0
 20
0.0
 30
0.0
  0
XRECORD
  5
10AA
102
{ACAD_REACTORS
330
1096
102
}
330
1096
100
AcDbXrecord
 10
0.0
 20
0.0
 30
0.0
  0
XRECORD
  5
10AB
102
{ACAD_REACTORS
330
1096
102
}
330
1096
100
AcDbXrecord
 10
0.0
 20
0.0
 30
0.0
  0
XRECORD
  5
10AC
102
{ACAD_REACTORS
330
1096
102
}
330
1096
100
AcDbXrecord
 10
0.0
 20
0.0
 30
0.0
  0
XRECORD
  5
10AD
102
{ACAD_REACTORS
330
1096
102
}
330
1096
100
AcDbXrecord
340
0
  0
XRECORD
  5
10AE
102
{ACAD_REACTORS
330
1096
102
}
330
1096
100
AcDbXrecord
 70
     0
  0
XRECORD
  5
10AF
102
{ACAD_REACTORS
330
1096
102
}
330
1096
100
AcDbXrecord
340
0
  0
XRECORD
  5
10B0
102
{ACAD_REACTORS
330
1096
102
}
330
1096
100
AcDbXrecord
 10
0.0
 20
0.0
 30
0.0
  0
XRECORD
  5
10B1
102
{ACAD_REACTORS
330
1096
102
}
330
1096
100
AcDbXrecord
 10
0.0
 20
0.0
 30
0.0
  0
XRECORD
  5
10B2
102
{ACAD_REACTORS
330
1096
102
}
330
1096
100
AcDbXrecord
 10
0.0
 20
0.0
 30
0.0
  0
XRECORD
  5
10B3
102
{ACAD_REACTORS
330
1096
102
}
330
1096
100
AcDbXrecord
 10
0.0
 20
0.0
 30
0.0
  0
XRECORD
  5
10B4
102
{ACAD_REACTORS
330
1096
102
}
330
1096
100
AcDbXrecord
 10
0.0
 20
0.0
 30
0.0
  0
XRECORD
  5
10B5
102
{ACAD_REACTORS
330
1096
102
}
330
1096
100
AcDbXrecord
 10
0.0
 20
0.0
 30
0.0
  0
ENDSEC
  0
EOF
