  0
SECTION
  2
HEADER
  9
$ACADVER
  1
AC1015
  9
$ACADMAINTVER
 70
    20
  9
$DWGCODEPAGE
  3
ANSI_949
  9
$INSBASE
 10
384.0
 20
277.0
 30
0.0
  9
$EXTMIN
 10
24.9169931943959
 20
92.23695453423648
 30
-0.000000000000013
  9
$EXTMAX
 10
422.0635996131036
 20
262.1363989663501
 30
0.0000000000000023
  9
$LIMMIN
 10
0.0
 20
0.0
  9
$LIMMAX
 10
420.0
 20
297.0
  9
$ORTHOMODE
 70
     0
  9
$REGENMODE
 70
     1
  9
$FILLMODE
 70
     1
  9
$QTEXTMODE
 70
     0
  9
$MIRRTEXT
 70
     1
  9
$LTSCALE
 40
4.0
  9
$ATTMODE
 70
     1
  9
$TEXTSIZE
 40
3.5
  9
$TRACEWID
 40
0.05
  9
$TEXTSTYLE
  7
STANDARD
  9
$CLAYER
  8
0
  9
$CELTYPE
  6
BYLAYER
  9
$CECOLOR
 62
   256
  9
$CELTSCALE
 40
1.0
  9
$DISPSILH
 70
     0
  9
$DIMSCALE
 40
1.0
  9
$DIMASZ
 40
3.5
  9
$DIMEXO
 40
1.25
  9
$DIMDLI
 40
0.38
  9
$DIMRND
 40
0.0
  9
$DIMDLE
 40
0.0
  9
$DIMEXE
 40
1.25
  9
$DIMTP
 40
0.0
  9
$DIMTM
 40
0.0
  9
$DIMTXT
 40
3.5
  9
$DIMCEN
 40
0.09
  9
$DIMTSZ
 40
0.0
  9
$DIMTOL
 70
     0
  9
$DIMLIM
 70
     0
  9
$DIMTIH
 70
     0
  9
$DIMTOH
 70
     1
  9
$DIMSE1
 70
     0
  9
$DIMSE2
 70
     0
  9
$DIMTAD
 70
     1
  9
$DIMZIN
 70
     8
  9
$DIMBLK
  1

  9
$DIMASO
 70
     0
  9
$DIMSHO
 70
     1
  9
$DIMPOST
  1

  9
$DIMAPOST
  1

  9
$DIMALT
 70
     0
  9
$DIMALTD
 70
     2
  9
$DIMALTF
 40
25.4
  9
$DIMLFAC
 40
1.0
  9
$DIMTOFL
 70
     1
  9
$DIMTVP
 40
0.0
  9
$DIMTIX
 70
     1
  9
$DIMSOXD
 70
     0
  9
$DIMSAH
 70
     0
  9
$DIMBLK1
  1

  9
$DIMBLK2
  1

  9
$DIMSTYLE
  2
STANDARD
  9
$DIMCLRD
 70
     5
  9
$DIMCLRE
 70
     5
  9
$DIMCLRT
 70
     3
  9
$DIMTFAC
 40
0.8571428571428571
  9
$DIMGAP
 40
0.09
  9
$DIMJUST
 70
     0
  9
$DIMSD1
 70
     0
  9
$DIMSD2
 70
     0
  9
$DIMTOLJ
 70
     1
  9
$DIMTZIN
 70
     8
  9
$DIMALTZ
 70
     8
  9
$DIMALTTZ
 70
     8
  9
$DIMUPT
 70
     0
  9
$DIMDEC
 70
     4
  9
$DIMTDEC
 70
     4
  9
$DIMALTU
 70
     2
  9
$DIMALTTD
 70
     2
  9
$DIMTXSTY
  7
STANDARD
  9
$DIMAUNIT
 70
     0
  9
$DIMADEC
 70
     0
  9
$DIMALTRND
 40
0.0
  9
$DIMAZIN
 70
     0
  9
$DIMDSEP
 70
    46
  9
$DIMATFIT
 70
     3
  9
$DIMFRAC
 70
     0
  9
$DIMLDRBLK
  1

  9
$DIMLUNIT
 70
     2
  9
$DIMLWD
 70
    -2
  9
$DIMLWE
 70
    -2
  9
$DIMTMOVE
 70
     0
  9
$LUNITS
 70
     2
  9
$LUPREC
 70
     4
  9
$SKETCHINC
 40
0.1
  9
$FILLETRAD
 40
1.5
  9
$AUNITS
 70
     0
  9
$AUPREC
 70
     0
  9
$MENU
  1
acad
  9
$ELEVATION
 40
0.0
  9
$PELEVATION
 40
0.0
  9
$THICKNESS
 40
0.0
  9
$LIMCHECK
 70
     0
  9
$CHAMFERA
 40
0.75
  9
$CHAMFERB
 40
0.75
  9
$CHAMFERC
 40
0.0
  9
$CHAMFERD
 40
0.0
  9
$SKPOLY
 70
     0
  9
$TDCREATE
 40
2450389.679576389
  9
$TDUCREATE
 40
2450389.304576389
  9
$TDUPDATE
 40
2453733.367537234
  9
$TDUUPDATE
 40
2453732.992537234
  9
$TDINDWG
 40
0.0136442245
  9
$TDUSRTIMER
 40
0.0136436806
  9
$USRTIMER
 70
     1
  9
$ANGBASE
 50
0.0
  9
$ANGDIR
 70
     0
  9
$PDMODE
 70
     0
  9
$PDSIZE
 40
0.0
  9
$PLINEWID
 40
0.0
  9
$SPLFRAME
 70
     0
  9
$SPLINETYPE
 70
     6
  9
$SPLINESEGS
 70
     8
  9
$HANDSEED
  5
9A3
  9
$SURFTAB1
 70
     6
  9
$SURFTAB2
 70
     6
  9
$SURFTYPE
 70
     6
  9
$SURFU
 70
     6
  9
$SURFV
 70
     6
  9
$UCSBASE
  2

  9
$UCSNAME
  2

  9
$UCSORG
 10
0.0
 20
0.0
 30
0.0
  9
$UCSXDIR
 10
1.0
 20
0.0
 30
0.0
  9
$UCSYDIR
 10
0.0
 20
1.0
 30
0.0
  9
$UCSORTHOREF
  2

  9
$UCSORTHOVIEW
 70
     0
  9
$UCSORGTOP
 10
0.0
 20
0.0
 30
0.0
  9
$UCSORGBOTTOM
 10
0.0
 20
0.0
 30
0.0
  9
$UCSORGLEFT
 10
0.0
 20
0.0
 30
0.0
  9
$UCSORGRIGHT
 10
0.0
 20
0.0
 30
0.0
  9
$UCSORGFRONT
 10
0.0
 20
0.0
 30
0.0
  9
$UCSORGBACK
 10
0.0
 20
0.0
 30
0.0
  9
$PUCSBASE
  2

  9
$PUCSNAME
  2

  9
$PUCSORG
 10
0.0
 20
0.0
 30
0.0
  9
$PUCSXDIR
 10
1.0
 20
0.0
 30
0.0
  9
$PUCSYDIR
 10
0.0
 20
1.0
 30
0.0
  9
$PUCSORTHOREF
  2

  9
$PUCSORTHOVIEW
 70
     0
  9
$PUCSORGTOP
 10
0.0
 20
0.0
 30
0.0
  9
$PUCSORGBOTTOM
 10
0.0
 20
0.0
 30
0.0
  9
$PUCSORGLEFT
 10
0.0
 20
0.0
 30
0.0
  9
$PUCSORGRIGHT
 10
0.0
 20
0.0
 30
0.0
  9
$PUCSORGFRONT
 10
0.0
 20
0.0
 30
0.0
  9
$PUCSORGBACK
 10
0.0
 20
0.0
 30
0.0
  9
$USERI1
 70
     0
  9
$USERI2
 70
     0
  9
$USERI3
 70
     0
  9
$USERI4
 70
     0
  9
$USERI5
 70
     0
  9
$USERR1
 40
0.0
  9
$USERR2
 40
0.0
  9
$USERR3
 40
0.0
  9
$USERR4
 40
0.0
  9
$USERR5
 40
0.0
  9
$WORLDVIEW
 70
     0
  9
$SHADEDGE
 70
     3
  9
$SHADEDIF
 70
    70
  9
$TILEMODE
 70
     1
  9
$MAXACTVP
 70
    16
  9
$PINSBASE
 10
0.0
 20
0.0
 30
0.0
  9
$PLIMCHECK
 70
     0
  9
$PEXTMIN
 10
1.000000000000000E+20
 20
1.000000000000000E+20
 30
1.000000000000000E+20
  9
$PEXTMAX
 10
-1.000000000000000E+20
 20
-1.000000000000000E+20
 30
-1.000000000000000E+20
  9
$PLIMMIN
 10
0.0
 20
0.0
  9
$PLIMMAX
 10
12.0
 20
9.0
  9
$UNITMODE
 70
     0
  9
$VISRETAIN
 70
     0
  9
$PLINEGEN
 70
     0
  9
$PSLTSCALE
 70
     1
  9
$TREEDEPTH
 70
  3020
  9
$CMLSTYLE
  2
STANDARD
  9
$CMLJUST
 70
     0
  9
$CMLSCALE
 40
1.0
  9
$PROXYGRAPHICS
 70
     1
  9
$MEASUREMENT
 70
     0
  9
$CELWEIGHT
370
    -1
  9
$ENDCAPS
280
     0
  9
$JOINSTYLE
280
     0
  9
$LWDISPLAY
290
     0
  9
$INSUNITS
 70
     0
  9
$HYPERLINKBASE
  1

  9
$STYLESHEET
  1

  9
$XEDIT
290
     1
  9
$CEPSNTYPE
380
     0
  9
$PSTYLEMODE
290
     1
  9
$FINGERPRINTGUID
  2
{55359EBC-645D-11D4-BC29-40594FC10001}
  9
$VERSIONGUID
  2
{A7AFD511-6F26-49F0-ADFE-E14A8ECB3249}
  9
$EXTNAMES
290
     1
  9
$PSVPSCALE
 40
0.0
  9
$OLESTARTUP
290
     0
  0
ENDSEC
  0
SECTION
  2
CLASSES
  0
CLASS
  1
ACDBDICTIONARYWDFLT
  2
AcDbDictionaryWithDefault
  3
ObjectDBX Classes
 90
        0
280
     0
281
     0
  0
CLASS
  1
ACDBPLACEHOLDER
  2
AcDbPlaceHolder
  3
ObjectDBX Classes
 90
        0
280
     0
281
     0
  0
CLASS
  1
LAYOUT
  2
AcDbLayout
  3
ObjectDBX Classes
 90
        0
280
     0
281
     0
  0
CLASS
  1
TABLESTYLE
  2
AcDbTableStyle
  3
ObjectDBX Classes
 90
     2047
280
     0
281
     0
  0
CLASS
  1
AMGOBJPROPCFG
  2
AmgObjPropCfg
  3
"AmgLay|Product Description: AutoCAD Mechanical 2000|Company: Autodesk"
 90
        1
280
     0
281
     0
  0
CLASS
  1
ACIMSYSVARMAN
  2
AcImSysVarManager
  3
AcMeServices
 90
        0
280
     0
281
     0
  0
CLASS
  1
AMGSETTINGSOBJ
  2
AmgSettingsObj
  3
"AcadM|Product Description: AutoCAD Mechanical 2000|Company: Autodesk"
 90
        0
280
     0
281
     0
  0
CLASS
  1
ACME_DOCUMENT
  2
AcMeDbDoc
  3
AcMeServices
 90
        0
280
     0
281
     0
  0
CLASS
  1
ACMESCOPE
  2
AcMeScope
  3
AcMeServices
 90
        0
280
     0
281
     0
  0
CLASS
  1
ACMECOMMANDHISTORY
  2
AcMeCommandHistory
  3
AcMeServices
 90
        0
280
     0
281
     0
  0
CLASS
  1
ACIMINTSYSVAR
  2
AcImIntSysVar
  3
AcMeServices
 90
        0
280
     0
281
     0
  0
CLASS
  1
ACMEDRAWINGMAN
  2
AcMeDrawingMan
  3
AcMeServices
 90
        0
280
     0
281
     0
  0
CLASS
  1
ACMEVIEW
  2
AcMeView
  3
AcMeServices
 90
        0
280
     0
281
     0
  0
CLASS
  1
ACDBENTITYCACHE
  2
AcMeEntityCache
  3
AcMeServices
 90
        0
280
     0
281
     0
  0
CLASS
  1
GSMANAGER
  2
AcMeGSManager
  3
AcMeServices
 90
        0
280
     0
281
     0
  0
CLASS
  1
AMDTINTERNALREACTOR
  2
AmdtInternalReactor
  3
AcMeServices
 90
        0
280
     0
281
     0
  0
CLASS
  1
ACMESTATEMGR
  2
AcMeStateMgr
  3
AcMeServices
 90
        0
280
     0
281
     0
  0
CLASS
  1
ACGREFMASTER
  2
AcGrefMaster
  3
AcAttribServices
 90
        0
280
     0
281
     0
  0
CLASS
  1
AM_DRAWING_MGR
  2
AcDmDwgMgr
  3
AcMechDwgViewMgmt
 90
        0
280
     0
281
     0
  0
CLASS
  1
AM_DWG_DOCUMENT
  2
AcDmDwgDocument
  3
AcMechDwgViewMgmt
 90
        0
280
     0
281
     0
  0
CLASS
  1
AM_DWG_SHEET
  2
AcDmSheet
  3
AcMechDwgViewMgmt
 90
        0
280
     0
281
     0
  0
CLASS
  1
AM_VIEWDIMPARMAP
  2
AcDmViewDimParMap
  3
AcMechDwgViewMgmt
 90
        0
280
     0
281
     0
  0
CLASS
  1
ACIMREALSYSVAR
  2
AcImRealSysVar
  3
AcMeServices
 90
        0
280
     0
281
     0
  0
CLASS
  1
AM_DWGMGR_NAME
  2
AcDmDwgMgrName
  3
AcMechDwgViewMgmt
 90
        0
280
     0
281
     0
  0
CLASS
  1
ACME_DATABASE
  2
AcMeDbDatabase
  3
AcMeServices
 90
        0
280
     0
281
     0
  0
CLASS
  1
ACRFINSADJUSTERMGR
  2
AcRfInsAdjusterMgr
  3
AcMeServices
 90
        0
280
     0
281
     0
  0
CLASS
  1
ACGREFACADMASTER
  2
AcGrefacadMaster
  3
AcGrefServices
 90
        0
280
     0
281
     0
  0
CLASS
  1
AMDTMENUSTATEMGR
  2
AmdtMenuStateMgr
  3
McadcomServices
 90
        0
280
     0
281
     0
  0
CLASS
  1
AMDTMCOMMENUSTATE
  2
AmdtMcomMenuState
  3
McadcomServices
 90
        0
280
     0
281
     0
  0
CLASS
  1
AMIMASTER
  2
AmiMaster
  3
AmiServices
 90
        0
280
     0
281
     0
  0
CLASS
  1
MAPIAMMOUDLE
  2
MApiAmModule
  3
MApiAmServices
 90
        0
280
     0
281
     0
  0
CLASS
  1
AMDTADMENUSTATE
  2
AmdtAdMenuState
  3
DesignerServices
 90
        0
280
     0
281
     0
  0
CLASS
  1
ADAPPL
  2
AcAdAppl
  3
DesignerServices
 90
        0
280
     0
281
     0
  0
CLASS
  1
DEPMGR
  2
AcAdDepMgr
  3
DesignerServices
 90
        0
280
     0
281
     0
  0
CLASS
  1
PARAMMGR
  2
AcAdParamMgr
  3
DesignerServices
 90
        0
280
     0
281
     0
  0
CLASS
  1
PARAMSCOPE
  2
AcAdParamScope
  3
DesignerServices
 90
        0
280
     0
281
     0
  0
CLASS
  1
NAMEDAPPL
  2
AcAdNamedAppl
  3
DesignerServices
 90
        0
280
     0
281
     0
  0
CLASS
  1
AMDTDMMENUSTATE
  2
AmdtDmMenuState
  3
AcMechDwgViewMgmt
 90
        0
280
     0
281
     0
  0
CLASS
  1
AMDTAMMENUSTATE
  2
AmdtAmMenuState
  3
DesignerAssemblies
 90
        0
280
     0
281
     0
  0
CLASS
  1
ACIMSTRSYSVAR
  2
AcImStrSysVar
  3
AcMeServices
 90
        0
280
     0
281
     0
  0
CLASS
  1
ACAMPROJECT
  2
AcAmProject
  3
DesignerAssemblies
 90
        0
280
     0
281
     0
  0
CLASS
  1
ACAMGRCOMPDEF
  2
AcAmGrCompDef
  3
DesignerAssemblies
 90
        0
280
     0
281
     0
  0
CLASS
  1
ACCMCONTEXT
  2
AcCmContext
  3
DesignerAssemblies
 90
        0
280
     0
281
     0
  0
CLASS
  1
ACAMCOMPDEF
  2
AcAmCompDef
  3
DesignerAssemblies
 90
        0
280
     0
281
     0
  0
CLASS
  1
ACAMCOMPDEFMGR
  2
AcAmCompDefMgr
  3
DesignerAssemblies
 90
        0
280
     0
281
     0
  0
CLASS
  1
AMCONTEXTMGR
  2
AcAmContextMgr
  3
DesignerAssemblies
 90
        0
280
     0
281
     0
  0
CLASS
  1
ACAMCONTEXTMODELER
  2
AcAmContextModeler
  3
DesignerAssemblies
 90
        0
280
     0
281
     0
  0
CLASS
  1
ACMDATADICTIONARY
  2
AcmDataDictionary
  3
"AcmSymBB|Product Description: AutoCAD Mechanical 2004 DX|Company: Autodesk"
 90
        0
280
     0
281
     0
  0
CLASS
  1
CATALOGSTATE
  2
AcAmCatalogState
  3
DesignerAssemblies
 90
        0
280
     0
281
     0
  0
CLASS
  1
ACAMGRCOMPDEFSET
  2
AcAmGrCompDefSet
  3
DesignerAssemblies
 90
        0
280
     0
281
     0
  0
CLASS
  1
AMDTBROWSERDBTAB
  2
AmdtBrowserDbTab
  3
McadcomServices
 90
        0
280
     0
281
     0
  0
CLASS
  1
CBROWSERAPPOBJECT
  2
CBrowserAppObject
  3
McadcomServices
 90
        0
280
     0
281
     0
  0
CLASS
  1
DM_PLACEHOLDER
  2
AcDmSelsetPlaceholder
  3
AcMechDwgViewMgmt
 90
        0
280
     0
281
     0
  0
CLASS
  1
ACAMGFILTERDAT
  2
AcAmgFilterDat
  3
"AcadM|Product Description: AutoCAD Mechanical 2000|Company: Autodesk"
 90
        0
280
     0
281
     0
  0
CLASS
  1
DICTIONARYVAR
  2
AcDbDictionaryVar
  3
ObjectDBX Classes
 90
        0
280
     0
281
     0
  0
ENDSEC
  0
SECTION
  2
TABLES
  0
TABLE
  2
VPORT
  5
8
330
0
100
AcDbSymbolTable
 70
     3
  0
VPORT
  5
99C
330
8
100
AcDbSymbolTableRecord
100
AcDbViewportTableRecord
  2
*Active
 70
     0
 10
0.0
 20
0.0
 11
1.0
 21
1.0
 12
223.4902964037498
 22
177.1866767502933
 13
0.0
 23
0.0
 14
0.25
 24
0.25
 15
5.0
 25
5.0
 16
0.0
 26
0.0
 36
1.0
 17
0.0
 27
0.0
 37
0.0
 40
268.3518395640778
 41
1.486997635933806
 42
50.0
 43
0.0
 44
0.0
 50
0.0
 51
0.0
 71
     0
 72
   100
 73
     1
 74
     1
 75
     1
 76
     0
 77
     0
 78
     0
281
     0
 65
     1
110
0.0
120
0.0
130
0.0
111
1.0
121
0.0
131
0.0
112
0.0
122
1.0
132
0.0
 79
     0
146
0.0
  0
ENDTAB
  0
TABLE
  2
LTYPE
  5
5
330
0
100
AcDbSymbolTable
 70
    13
  0
LTYPE
  5
13
330
5
100
AcDbSymbolTableRecord
100
AcDbLinetypeTableRecord
  2
BYBLOCK
 70
     0
  3

 72
    65
 73
     0
 40
0.0
  0
LTYPE
  5
14
330
5
100
AcDbSymbolTableRecord
100
AcDbLinetypeTableRecord
  2
BYLAYER
 70
     0
  3

 72
    65
 73
     0
 40
0.0
  0
LTYPE
  5
15
330
5
100
AcDbSymbolTableRecord
100
AcDbLinetypeTableRecord
  2
CONTINUOUS
 70
     0
  3
Solid line
 72
    65
 73
     0
 40
0.0
  0
LTYPE
  5
25
330
5
100
AcDbSymbolTableRecord
100
AcDbLinetypeTableRecord
  2
CENTER
 70
     0
  3
____ _ ____ _ ____ _ ____ _ ____ _ ____ _ ____ 
 72
    65
 73
     4
 40
2.0
 49
1.25
 74
     0
 49
-0.25
 74
     0
 49
0.25
 74
     0
 49
-0.25
 74
     0
  0
LTYPE
  5
26
330
5
100
AcDbSymbolTableRecord
100
AcDbLinetypeTableRecord
  2
DASHED
 70
     0
  3
__ __ __ __ __ __ __ __ __ __ __ __ __ __ __ __
 72
    65
 73
     2
 40
0.75
 49
0.5
 74
     0
 49
-0.25
 74
     0
  0
LTYPE
  5
27
330
5
100
AcDbSymbolTableRecord
100
AcDbLinetypeTableRecord
  2
PHANTOM
 70
     0
  3
______  __  __  ______  __  __  ______  __  __ 
 72
    65
 73
     6
 40
2.5
 49
1.25
 74
     0
 49
-0.25
 74
     0
 49
0.25
 74
     0
 49
-0.25
 74
     0
 49
0.25
 74
     0
 49
-0.25
 74
     0
  0
LTYPE
  5
926
330
5
100
AcDbSymbolTableRecord
100
AcDbLinetypeTableRecord
  2
AM_ISO02W050
 70
     0
  3
__ __ __ __ __ __ __ __ __ __ __ __ __ __ __
 72
    65
 73
     2
 40
7.5
 49
6.0
 74
     0
 49
-1.5
 74
     0
  0
LTYPE
  5
927
330
5
100
AcDbSymbolTableRecord
100
AcDbLinetypeTableRecord
  2
AM_ISO08W050
 70
     0
  3
____ . ____ . ____ . ____ . ____ . ____ . ____
 72
    65
 73
     4
 40
18.0
 49
12.0
 74
     0
 49
-1.5
 74
     0
 49
3.0
 74
     0
 49
-1.5
 74
     0
  0
LTYPE
  5
928
330
5
100
AcDbSymbolTableRecord
100
AcDbLinetypeTableRecord
  2
AM_ISO09W050
 70
     0
  3
_____ . . _____ . . _____ . . ____ .. ____
 72
    65
 73
     6
 40
22.5
 49
12.0
 74
     0
 49
-1.5
 74
     0
 49
3.0
 74
     0
 49
-1.5
 74
     0
 49
3.0
 74
     0
 49
-1.5
 74
     0
  0
LTYPE
  5
929
330
5
100
AcDbSymbolTableRecord
100
AcDbLinetypeTableRecord
  2
Amconstr
 70
     0
  3
_______________________
 72
    65
 73
     2
 40
9999.0
 49
9999.0
 74
     0
 49
0.0
 74
     0
  0
LTYPE
  5
92A
330
5
100
AcDbSymbolTableRecord
100
AcDbLinetypeTableRecord
  2
AM_ISO08W050x2
 70
     0
  3
__ . __ . __ . __ . __ . __
 72
    65
 73
     4
 40
9.0
 49
6.0
 74
     0
 49
-0.75
 74
     0
 49
1.5
 74
     0
 49
-0.75
 74
     0
  0
LTYPE
  5
92B
330
5
100
AcDbSymbolTableRecord
100
AcDbLinetypeTableRecord
  2
AM_ISO02W050x2
 70
     0
  3
 _ _ _ _ _ _ _ _ _ _ _ _
 72
    65
 73
     2
 40
3.75
 49
3.0
 74
     0
 49
-0.75
 74
     0
  0
LTYPE
  5
92E
330
5
100
AcDbSymbolTableRecord
100
AcDbLinetypeTableRecord
  2
Amzigzag
 70
     0
  3
/\/-/\/-/\/-/\/-/\/-/\/
 72
    65
 73
     2
 40
11.0001
 49
0.0001
 74
     4
 75
   135
340
92D
 46
0.04
 50
0.0
 44
0.0
 45
0.0
 49
-11.0
 74
     0
  0
LTYPE
  5
960
330
5
100
AcDbSymbolTableRecord
100
AcDbLinetypeTableRecord
  2
HIDDEN
 70
     0
  3
Hidden __ __ __ __ __ __ __ __ __ __ __ __ __ _
 72
    65
 73
     2
 40
0.375
 49
0.25
 74
     0
 49
-0.125
 74
     0
  0
LTYPE
  5
961
330
5
100
AcDbSymbolTableRecord
100
AcDbLinetypeTableRecord
  2
PHANTOM2
 70
     0
  3
Phantom (.5x) ___ _ _ ___ _ _ ___ _ _ ___ _ _
 72
    65
 73
     6
 40
1.25
 49
0.625
 74
     0
 49
-0.125
 74
     0
 49
0.125
 74
     0
 49
-0.125
 74
     0
 49
0.125
 74
     0
 49
-0.125
 74
     0
  0
ENDTAB
  0
TABLE
  2
LAYER
  5
2
330
0
100
AcDbSymbolTable
 70
     2
  0
LAYER
  5
10
330
2
100
AcDbSymbolTableRecord
100
AcDbLayerTableRecord
  2
0
 70
     0
 62
     7
  6
CONTINUOUS
370
    -3
390
F
  0
LAYER
  5
8F4
330
2
100
AcDbSymbolTableRecord
100
AcDbLayerTableRecord
  2
PEF-L125A
 70
     0
 62
     7
  6
CONTINUOUS
370
    -3
390
F
  0
ENDTAB
  0
TABLE
  2
STYLE
  5
3
330
0
100
AcDbSymbolTable
 70
     2
  0
STYLE
  5
11
330
3
100
AcDbSymbolTableRecord
100
AcDbTextStyleTableRecord
  2
STANDARD
 70
     0
 40
3.5
 41
1.0
 50
0.0
 71
     0
 42
3.5
  3
txt.shx
  4
whgtxt.shx
  0
STYLE
  5
92D
330
3
100
AcDbSymbolTableRecord
100
AcDbTextStyleTableRecord
  2

 70
     1
 40
0.0
 41
1.0
 50
0.0
 71
     0
 42
3.5
  3
ltypeshp.shx
  4

  0
ENDTAB
  0
TABLE
  2
VIEW
  5
6
330
0
100
AcDbSymbolTable
 70
     0
  0
ENDTAB
  0
TABLE
  2
UCS
  5
7
330
0
100
AcDbSymbolTable
 70
     0
  0
ENDTAB
  0
TABLE
  2
APPID
  5
9
330
0
100
AcDbSymbolTable
 70
     9
  0
APPID
  5
12
330
9
100
AcDbSymbolTableRecord
100
AcDbRegAppTableRecord
  2
ACAD
 70
     0
  0
APPID
  5
805
330
9
100
AcDbSymbolTableRecord
100
AcDbRegAppTableRecord
  2
DCO15
 70
     0
  0
APPID
  5
933
330
9
100
AcDbSymbolTableRecord
100
AcDbRegAppTableRecord
  2
MCAD_NO_VIS
 70
     0
  0
APPID
  5
934
330
9
100
AcDbSymbolTableRecord
100
AcDbRegAppTableRecord
  2
ACAD_TEMP_GRAPHIC
 70
     0
  0
APPID
  5
963
330
9
100
AcDbSymbolTableRecord
100
AcDbRegAppTableRecord
  2
AD_DRAW
 70
     0
  0
APPID
  5
966
330
9
100
AcDbSymbolTableRecord
100
AcDbRegAppTableRecord
  2
ACATTRIBSERVICES
 70
     0
  0
APPID
  5
984
330
9
100
AcDbSymbolTableRecord
100
AcDbRegAppTableRecord
  2
DESIGNERASSEMBLIES
 70
     0
  0
APPID
  5
98A
330
9
100
AcDbSymbolTableRecord
100
AcDbRegAppTableRecord
  2
ACADM_DIM_EDIT
 70
     0
  0
APPID
  5
98B
330
9
100
AcDbSymbolTableRecord
100
AcDbRegAppTableRecord
  2
AMDT_DM_ADJ
 70
     0
  0
ENDTAB
  0
TABLE
  2
DIMSTYLE
  5
A
330
0
100
AcDbSymbolTable
 70
     1
100
AcDbDimStyleTable
 71
     0
  0
DIMSTYLE
105
6A2
330
A
100
AcDbSymbolTableRecord
100
AcDbDimStyleTableRecord
  2
STANDARD
 70
     0
340
11
  0
ENDTAB
  0
TABLE
  2
BLOCK_RECORD
  5
1
330
0
100
AcDbSymbolTable
 70
     1
  0
BLOCK_RECORD
  5
1E
102
{ACAD_XDICTIONARY
360
8E6
102
}
330
1
100
AcDbSymbolTableRecord
100
AcDbBlockTableRecord
  2
*MODEL_SPACE
340
920
  0
BLOCK_RECORD
  5
1A
102
{ACAD_XDICTIONARY
360
8E4
102
}
330
1
100
AcDbSymbolTableRecord
100
AcDbBlockTableRecord
  2
*PAPER_SPACE
340
921
  0
ENDTAB
  0
ENDSEC
  0
SECTION
  2
BLOCKS
  0
BLOCK
  5
2B
330
1E
100
AcDbEntity
  8
0
100
AcDbBlockBegin
  2
*MODEL_SPACE
 70
     0
 10
0.0
 20
0.0
 30
0.0
  3
*MODEL_SPACE
  1

  0
ENDBLK
  5
2C
330
1E
100
AcDbEntity
  8
0
100
AcDbBlockEnd
  0
BLOCK
  5
29
330
1A
100
AcDbEntity
 67
     1
  8
0
100
AcDbBlockBegin
  2
*PAPER_SPACE
 70
     0
 10
0.0
 20
0.0
 30
0.0
  3
*PAPER_SPACE
  1

  0
ENDBLK
  5
2A
330
1A
100
AcDbEntity
 67
     1
  8
0
100
AcDbBlockEnd
  0
ENDSEC
  0
SECTION
  2
ENTITIES
  0
LINE
  5
199
330
1E
100
AcDbEntity
  8
PEF-L125A
100
AcDbLine
 10
240.5139445377569
 20
138.2629736514252
 30
0.0
 11
241.7213518206182
 21
138.5864974578035
 31
0.0
  0
LINE
  5
19A
330
1E
100
AcDbEntity
  8
PEF-L125A
100
AcDbLine
 10
241.7213518206182
 20
138.5864974578035
 30
0.0
 11
238.3567042342854
 21
151.1435331995611
 31
0.0
  0
LINE
  5
19B
330
1E
100
AcDbEntity
  8
PEF-L125A
100
AcDbLine
 10
238.3567042342854
 20
151.1435331995611
 30
0.0
 11
245.3596664748813
 21
153.0199712765546
 31
0.0
  0
LINE
  5
1A2
330
1E
100
AcDbEntity
  8
PEF-L125A
100
AcDbLine
 10
236.5392051880887
 20
119.5
 30
0.0
 11
244.5
 21
119.5
 31
0.0
  0
LINE
  5
1A7
330
1E
100
AcDbEntity
  8
PEF-L125A
100
AcDbLine
 10
52.5
 20
97.5
 30
0.0
 11
244.5
 21
97.5
 31
0.0
  0
LINE
  5
1A8
330
1E
100
AcDbEntity
  8
PEF-L125A
100
AcDbLine
 10
245.6141734656982
 20
101.8419952889129
 30
0.0
 11
244.5
 21
106.0001472713437
 31
0.0
  0
LINE
  5
1A9
330
1E
100
AcDbEntity
  8
PEF-L125A
100
AcDbLine
 10
245.0346179699246
 20
101.6867038618514
 30
0.0
 11
244.5
 21
103.6819252882497
 31
0.0
  0
ARC
  5
1AA
330
1E
100
AcDbEntity
  8
PEF-L125A
100
AcDbCircle
 10
237.8540065744198
 20
158.0460330474017
 30
0.0
 40
1.149999999999999
100
AcDbArc
 50
105.0000000000002
 51
285.0000000000001
  0
LINE
  5
1AB
330
1E
100
AcDbEntity
  8
PEF-L125A
100
AcDbLine
 10
58.12896738725017
 20
154.0098957644621
 30
0.0
 11
47.7762055831493
 21
192.6469288160246
 31
0.0
  0
LINE
  5
1AC
330
1E
100
AcDbEntity
  8
PEF-L125A
100
AcDbLine
 10
55.90733798678531
 20
153.4146119607262
 30
0.0
 11
45.55457618268445
 21
192.0516450122889
 31
0.0
  0
LINE
  5
1B5
330
1E
100
AcDbEntity
  8
PEF-L125A
100
AcDbLine
 10
228.6671793727844
 20
124.4544896495022
 30
0.0
 11
71.3404492525739
 21
124.4544896495022
 31
0.0
  0
LINE
  5
1B7
330
1E
100
AcDbEntity
  8
PEF-L125A
  6
CENTER
100
AcDbLine
 10
54.221852392499
 20
138.0726727324938
 30
0.0
 11
59.62991666788254
 21
139.5217591876983
 31
0.0
  0
LINE
  5
1BD
330
1E
100
AcDbEntity
  8
PEF-L125A
100
AcDbLine
 10
228.6671793727843
 20
122.4544896495022
 30
0.0
 11
83.55731376978274
 21
122.4544896495022
 31
0.0
  0
LINE
  5
1C3
330
1E
100
AcDbEntity
  8
PEF-L125A
100
AcDbLine
 10
52.5
 20
119.5
 30
0.0
 11
236.5392051880887
 21
119.5
 31
0.0
  0
LINE
  5
1C8
330
1E
100
AcDbEntity
  8
PEF-L125A
100
AcDbLine
 10
76.48086791429625
 20
119.5
 30
0.0
 11
75.15331641380377
 21
124.4544896495022
 31
0.0
  0
LINE
  5
1C9
330
1E
100
AcDbEntity
  8
PEF-L125A
100
AcDbLine
 10
75.85970220605019
 20
119.5
 30
0.0
 11
74.53215070555771
 21
124.4544896495022
 31
0.0
  0
LINE
  5
1CA
330
1E
100
AcDbEntity
  8
PEF-L125A
  6
DASHED
100
AcDbLine
 10
55.99999999999998
 20
119.5
 30
0.0
 11
55.99999999999998
 21
97.5
 31
0.0
  0
LINE
  5
1CB
330
1E
100
AcDbEntity
  8
PEF-L125A
100
AcDbLine
 10
52.5
 20
97.5
 30
0.0
 11
52.5
 21
119.5
 31
0.0
  0
LINE
  5
1CC
330
1E
100
AcDbEntity
  8
PEF-L125A
  6
CENTER
100
AcDbLine
 10
60.49999999999998
 20
92.24999999999999
 30
0.0
 11
60.49999999999998
 21
124.5
 31
0.0
  0
LINE
  5
1CD
330
1E
100
AcDbEntity
  8
PEF-L125A
  6
DASHED
100
AcDbLine
 10
65.0
 20
119.5
 30
0.0
 11
65.0
 21
97.5
 31
0.0
  0
ARC
  5
1DD
330
1E
100
AcDbEntity
  8
PEF-L125A
100
AcDbCircle
 10
71.3404492525739
 20
134.4544896495021
 30
0.0
 40
9.999999999999998
100
AcDbArc
 50
194.9999999999999
 51
270.0
  0
LINE
  5
1DE
330
1E
100
AcDbEntity
  8
PEF-L125A
100
AcDbLine
 10
83.55731376978274
 20
122.4544896495022
 30
0.0
 11
83.02141538492055
 21
124.4544896495022
 31
0.0
  0
LINE
  5
1E7
330
1E
100
AcDbEntity
  8
PEF-L125A
100
AcDbLine
 10
61.41088678787841
 20
133.2696735204296
 30
0.0
 11
58.89236097846349
 21
132.59483656368
 31
0.0
  0
LINE
  5
1EB
330
1E
100
AcDbEntity
  8
PEF-L125A
100
AcDbLine
 10
55.52771339213071
 20
145.1518723054379
 30
0.0
 11
58.89236097846349
 21
132.59483656368
 31
0.0
  0
LINE
  5
1EC
330
1E
100
AcDbEntity
  8
PEF-L125A
100
AcDbLine
 10
57.97380232491978
 20
133.1251666495699
 30
0.0
 11
54.9973833062408
 21
144.2333136518941
 31
0.0
  0
LINE
  5
1ED
330
1E
100
AcDbEntity
  8
PEF-L125A
100
AcDbLine
 10
61.68119098968319
 20
131.8662991984769
 30
0.0
 11
56.5026217905211
 21
151.1929825602613
 31
0.0
  0
LINE
  5
1EE
330
1E
100
AcDbEntity
  8
PEF-L125A
100
AcDbLine
 10
58.89236097846349
 20
132.59483656368
 30
0.0
 11
57.97380232491978
 21
133.1251666495699
 31
0.0
  0
LINE
  5
1F1
330
1E
100
AcDbEntity
  8
PEF-L125A
100
AcDbLine
 10
55.52771339213071
 20
145.1518723054379
 30
0.0
 11
54.9973833062408
 21
144.2333136518941
 31
0.0
  0
LINE
  5
1F2
330
1E
100
AcDbEntity
  8
PEF-L125A
100
AcDbLine
 10
55.52771339213071
 20
145.1518723054379
 30
0.0
 11
57.94759287471617
 21
145.8002770585773
 31
0.0
  0
ARC
  5
1F4
330
1E
100
AcDbEntity
  8
PEF-L125A
100
AcDbCircle
 10
57.3157945888857
 20
152.6014391623617
 30
0.0
 40
1.149999999999999
100
AcDbArc
 50
285.0000000000006
 51
105.0
  0
LINE
  5
1F5
330
1E
100
AcDbEntity
  8
PEF-L125A
100
AcDbLine
 10
58.12896738725017
 20
154.0098957644621
 30
0.0
 11
55.90733798678542
 21
153.4146119607262
 31
0.0
  0
LINE
  5
1F6
330
1E
100
AcDbEntity
  8
PEF-L125A
100
AcDbLine
 10
57.6134364907536
 20
151.4906244621293
 30
0.0
 11
56.5026217905211
 21
151.1929825602613
 31
0.0
  0
LINE
  5
201
330
1E
100
AcDbEntity
  8
PEF-L125A
  6
CENTER
100
AcDbLine
 10
99.0
 20
100.0
 30
0.0
 11
99.0
 21
124.2499999999999
 31
0.0
  0
LINE
  5
204
330
1E
100
AcDbEntity
  8
PEF-L125A
  6
CENTER
100
AcDbLine
 10
98.66717937278433
 20
141.25
 30
0.0
 11
98.66717937278433
 21
127.6589792990045
 31
0.0
  0
LINE
  5
205
330
1E
100
AcDbEntity
  8
PEF-L125A
  6
DASHED
100
AcDbLine
 10
95.99999999999997
 20
119.5
 30
0.0
 11
95.99999999999997
 21
108.7499999999999
 31
0.0
  0
LINE
  5
206
330
1E
100
AcDbEntity
  8
PEF-L125A
  6
DASHED
100
AcDbLine
 10
102.0
 20
119.5
 30
0.0
 11
102.0
 21
108.7499999999999
 31
0.0
  0
LINE
  5
207
330
1E
100
AcDbEntity
  8
PEF-L125A
  6
DASHED
100
AcDbLine
 10
96.99999999999995
 20
119.5
 30
0.0
 11
96.99999999999995
 21
105.75
 31
0.0
  0
LINE
  5
208
330
1E
100
AcDbEntity
  8
PEF-L125A
  6
DASHED
100
AcDbLine
 10
101.0
 20
119.5
 30
0.0
 11
101.0
 21
105.75
 31
0.0
  0
LINE
  5
20D
330
1E
100
AcDbEntity
  8
PEF-L125A
  6
DASHED
100
AcDbLine
 10
102.0
 20
108.7499999999999
 30
0.0
 11
99.0
 21
108.7499999999999
 31
0.0
  0
LINE
  5
20E
330
1E
100
AcDbEntity
  8
PEF-L125A
  6
DASHED
100
AcDbLine
 10
101.0
 20
105.75
 30
0.0
 11
99.0
 21
105.75
 31
0.0
  0
LINE
  5
20F
330
1E
100
AcDbEntity
  8
PEF-L125A
  6
DASHED
100
AcDbLine
 10
101.0
 20
105.75
 30
0.0
 11
99.0
 21
104.4999999999999
 31
0.0
  0
LINE
  5
210
330
1E
100
AcDbEntity
  8
PEF-L125A
  6
DASHED
100
AcDbLine
 10
95.99999999999997
 20
108.7499999999999
 30
0.0
 11
99.0
 21
108.7499999999999
 31
0.0
  0
LINE
  5
211
330
1E
100
AcDbEntity
  8
PEF-L125A
  6
DASHED
100
AcDbLine
 10
96.99999999999995
 20
105.75
 30
0.0
 11
99.0
 21
105.75
 31
0.0
  0
LINE
  5
212
330
1E
100
AcDbEntity
  8
PEF-L125A
  6
DASHED
100
AcDbLine
 10
96.99999999999995
 20
105.75
 30
0.0
 11
99.0
 21
104.4999999999999
 31
0.0
  0
LINE
  5
213
330
1E
100
AcDbEntity
  8
PEF-L125A
  6
DASHED
100
AcDbLine
 10
96.99999999999995
 20
106.75
 30
0.0
 11
95.99999999999997
 21
108.7499999999999
 31
0.0
  0
LINE
  5
214
330
1E
100
AcDbEntity
  8
PEF-L125A
  6
DASHED
100
AcDbLine
 10
101.0
 20
106.75
 30
0.0
 11
102.0
 21
108.7499999999999
 31
0.0
  0
LINE
  5
219
330
1E
100
AcDbEntity
  8
PEF-L125A
  6
CENTER
100
AcDbLine
 10
105.462689723282
 20
134.4544896495021
 30
0.0
 11
91.87166902228662
 21
134.4544896495021
 31
0.0
  0
CIRCLE
  5
21A
330
1E
100
AcDbEntity
  8
PEF-L125A
100
AcDbCircle
 10
98.66717937278433
 20
134.4544896495021
 30
0.0
 40
3.499999999999998
  0
ARC
  5
21B
330
1E
100
AcDbEntity
  8
PEF-L125A
100
AcDbCircle
 10
98.66717937278433
 20
134.4544896495021
 30
0.0
 40
2.999999999999997
100
AcDbArc
 50
274.869251937224
 51
183.0196059136305
  0
CIRCLE
  5
21C
330
1E
100
AcDbEntity
  8
PEF-L125A
100
AcDbCircle
 10
98.66717937278433
 20
134.4544896495021
 30
0.0
 40
2.0
  0
LINE
  5
225
330
1E
100
AcDbEntity
  8
PEF-L125A
  6
CENTER
100
AcDbLine
 10
211.9999999999999
 20
100.0
 30
0.0
 11
211.9999999999999
 21
124.0
 31
0.0
  0
LINE
  5
22A
330
1E
100
AcDbEntity
  8
PEF-L125A
  6
DASHED
100
AcDbLine
 10
231.9999999999999
 20
119.5
 30
0.0
 11
231.9999999999999
 21
97.5
 31
0.0
  0
LINE
  5
22B
330
1E
100
AcDbEntity
  8
PEF-L125A
  6
DASHED
100
AcDbLine
 10
241.0
 20
119.5
 30
0.0
 11
241.0
 21
97.5
 31
0.0
  0
LINE
  5
22C
330
1E
100
AcDbEntity
  8
PEF-L125A
  6
CENTER
100
AcDbLine
 10
236.4999999999999
 20
92.24999999999999
 30
0.0
 11
236.4999999999999
 21
124.5
 31
0.0
  0
LINE
  5
230
330
1E
100
AcDbEntity
  8
PEF-L125A
  6
CENTER
100
AcDbLine
 10
205.462689723282
 20
134.4544896495021
 30
0.0
 11
191.8716690222864
 21
134.4544896495021
 31
0.0
  0
LINE
  5
231
330
1E
100
AcDbEntity
  8
PEF-L125A
  6
CENTER
100
AcDbLine
 10
198.6671793727842
 20
141.25
 30
0.0
 11
198.6671793727842
 21
127.6589792990045
 31
0.0
  0
CIRCLE
  5
232
330
1E
100
AcDbEntity
  8
PEF-L125A
100
AcDbCircle
 10
198.6671793727842
 20
134.4544896495021
 30
0.0
 40
3.499999999999998
  0
ARC
  5
233
330
1E
100
AcDbEntity
  8
PEF-L125A
100
AcDbCircle
 10
198.6671793727842
 20
134.454489649502
 30
0.0
 40
2.999999999999997
100
AcDbArc
 50
274.869251937224
 51
183.0196059136305
  0
CIRCLE
  5
234
330
1E
100
AcDbEntity
  8
PEF-L125A
100
AcDbCircle
 10
198.6671793727842
 20
134.454489649502
 30
0.0
 40
2.0
  0
ARC
  5
235
330
1E
100
AcDbEntity
  8
PEF-L125A
100
AcDbCircle
 10
228.6671793727844
 20
134.4544896495021
 30
0.0
 40
9.999999999999998
100
AcDbArc
 50
270.0
 51
0.0
  0
LINE
  5
236
330
1E
100
AcDbEntity
  8
PEF-L125A
100
AcDbLine
 10
228.6671793727843
 20
124.4544896495022
 30
0.0
 11
228.6671793727843
 21
122.4544896495022
 31
0.0
  0
LINE
  5
237
330
1E
100
AcDbEntity
  8
PEF-L125A
  6
DASHED
100
AcDbLine
 10
209.0
 20
119.5
 30
0.0
 11
209.0
 21
108.7499999999999
 31
0.0
  0
LINE
  5
238
330
1E
100
AcDbEntity
  8
PEF-L125A
  6
DASHED
100
AcDbLine
 10
215.0
 20
119.5
 30
0.0
 11
215.0
 21
108.7499999999999
 31
0.0
  0
LINE
  5
239
330
1E
100
AcDbEntity
  8
PEF-L125A
  6
DASHED
100
AcDbLine
 10
209.9999999999999
 20
119.5
 30
0.0
 11
209.9999999999999
 21
105.75
 31
0.0
  0
LINE
  5
23A
330
1E
100
AcDbEntity
  8
PEF-L125A
  6
DASHED
100
AcDbLine
 10
214.0
 20
119.5
 30
0.0
 11
214.0
 21
105.75
 31
0.0
  0
LINE
  5
23B
330
1E
100
AcDbEntity
  8
PEF-L125A
  6
DASHED
100
AcDbLine
 10
209.0
 20
108.7499999999999
 30
0.0
 11
211.9999999999999
 21
108.7499999999999
 31
0.0
  0
LINE
  5
23C
330
1E
100
AcDbEntity
  8
PEF-L125A
  6
DASHED
100
AcDbLine
 10
209.9999999999999
 20
105.75
 30
0.0
 11
211.9999999999999
 21
105.75
 31
0.0
  0
LINE
  5
23D
330
1E
100
AcDbEntity
  8
PEF-L125A
  6
DASHED
100
AcDbLine
 10
209.9999999999999
 20
105.75
 30
0.0
 11
211.9999999999999
 21
104.4999999999999
 31
0.0
  0
LINE
  5
23E
330
1E
100
AcDbEntity
  8
PEF-L125A
  6
DASHED
100
AcDbLine
 10
209.9999999999999
 20
106.75
 30
0.0
 11
209.0
 21
108.7499999999999
 31
0.0
  0
LINE
  5
23F
330
1E
100
AcDbEntity
  8
PEF-L125A
  6
DASHED
100
AcDbLine
 10
215.0
 20
108.7499999999999
 30
0.0
 11
211.9999999999999
 21
108.7499999999999
 31
0.0
  0
LINE
  5
240
330
1E
100
AcDbEntity
  8
PEF-L125A
  6
DASHED
100
AcDbLine
 10
214.0
 20
105.75
 30
0.0
 11
211.9999999999999
 21
105.75
 31
0.0
  0
LINE
  5
241
330
1E
100
AcDbEntity
  8
PEF-L125A
  6
DASHED
100
AcDbLine
 10
214.0
 20
105.75
 30
0.0
 11
211.9999999999999
 21
104.4999999999999
 31
0.0
  0
LINE
  5
242
330
1E
100
AcDbEntity
  8
PEF-L125A
  6
DASHED
100
AcDbLine
 10
214.0
 20
106.75
 30
0.0
 11
215.0
 21
108.7499999999999
 31
0.0
  0
LINE
  5
25A
330
1E
100
AcDbEntity
  8
PEF-L125A
100
AcDbLine
 10
238.6671793727844
 20
134.4544896495021
 30
0.0
 11
238.6671793727844
 21
157.0733544345589
 31
0.0
  0
LINE
  5
25B
330
1E
100
AcDbEntity
  8
PEF-L125A
100
AcDbLine
 10
238.6671793727844
 20
145.1551950767511
 30
0.0
 11
240.9021731054106
 21
136.8140849119917
 31
0.0
  0
LINE
  5
261
330
1E
100
AcDbEntity
  8
PEF-L125A
100
AcDbLine
 10
240.9021731054106
 20
136.8140849119917
 30
0.0
 11
238.518015751752
 21
136.1752518744501
 31
0.0
  0
LINE
  5
267
330
1E
100
AcDbEntity
  8
PEF-L125A
100
AcDbLine
 10
238.6671793727844
 20
157.0733544345589
 30
0.0
 11
238.1516484762877
 21
156.9352183471693
 31
0.0
  0
LINE
  5
26C
330
1E
100
AcDbEntity
  8
PEF-L125A
100
AcDbLine
 10
206.8784821741935
 20
249.454489649502
 30
0.0
 11
48.66717937278423
 21
249.454489649502
 31
0.0
  0
LINE
  5
270
330
1E
100
AcDbEntity
  8
PEF-L125A
100
AcDbLine
 10
40.96930825912487
 20
252.4999999999999
 30
0.0
 11
204.7499999999999
 21
252.4999999999999
 31
0.0
  0
LINE
  5
277
330
1E
100
AcDbEntity
  8
PEF-L125A
100
AcDbLine
 10
44.95929237894863
 20
194.2732744127537
 30
0.0
 11
38.66717937278436
 21
217.7557598387243
 31
0.0
  0
LINE
  5
27A
330
1E
100
AcDbEntity
  8
PEF-L125A
  6
CENTER
100
AcDbLine
 10
35.13848358182213
 20
205.4286320995134
 30
0.0
 11
41.51258351070615
 21
207.1365670279332
 31
0.0
  0
LINE
  5
27B
330
1E
100
AcDbEntity
  8
PEF-L125A
100
AcDbLine
 10
40.22690744563965
 20
211.9347754248366
 30
0.0
 11
39.09035663345156
 21
211.6302375525539
 31
0.0
  0
LINE
  5
282
330
1E
100
AcDbEntity
  8
PEF-L125A
100
AcDbLine
 10
46.07010707918113
 20
194.5709163146218
 30
0.0
 11
44.95929237894863
 21
194.2732744127537
 31
0.0
  0
ARC
  5
283
330
1E
100
AcDbEntity
  8
PEF-L125A
100
AcDbCircle
 10
46.36774898104902
 20
193.4601016143891
 30
0.0
 40
1.149999999999999
100
AcDbArc
 50
285.0
 51
105.0000000000002
  0
LINE
  5
284
330
1E
100
AcDbEntity
  8
PEF-L125A
100
AcDbLine
 10
41.67854708447674
 20
201.9709792896631
 30
0.0
 11
42.81509789666483
 21
202.2755171619459
 31
0.0
  0
LINE
  5
286
330
1E
100
AcDbEntity
  8
PEF-L125A
100
AcDbLine
 10
41.67854708447674
 20
201.9709792896631
 30
0.0
 11
39.09035663345156
 21
211.6302375525539
 31
0.0
  0
LINE
  5
287
330
1E
100
AcDbEntity
  8
PEF-L125A
100
AcDbLine
 10
38.73680324285823
 20
211.0178651168579
 30
0.0
 11
41.06617464878099
 21
202.3245326802562
 31
0.0
  0
LINE
  5
288
330
1E
100
AcDbEntity
  8
PEF-L125A
100
AcDbLine
 10
41.67854708447674
 20
201.9709792896631
 30
0.0
 11
41.06617464878099
 21
202.3245326802562
 31
0.0
  0
LINE
  5
289
330
1E
100
AcDbEntity
  8
PEF-L125A
100
AcDbLine
 10
39.09035663345156
 20
211.6302375525539
 30
0.0
 11
38.73680324285823
 21
211.0178651168579
 31
0.0
  0
LINE
  5
291
330
1E
100
AcDbEntity
  8
PEF-L125A
100
AcDbLine
 10
47.7762055831493
 20
192.6469288160246
 30
0.0
 11
45.55457618268445
 21
192.0516450122889
 31
0.0
  0
ARC
  5
298
330
1E
100
AcDbEntity
  8
PEF-L125A
100
AcDbCircle
 10
48.66717937278423
 20
239.4544896495022
 30
0.0
 40
9.999999999999998
100
AcDbArc
 50
90.0
 51
180.0
  0
LINE
  5
29C
330
1E
100
AcDbEntity
  8
PEF-L125A
100
AcDbLine
 10
42.38096967818235
 20
247.2316078609925
 30
0.0
 11
40.96930825912487
 21
252.4999999999999
 31
0.0
  0
LINE
  5
2A0
330
1E
100
AcDbEntity
  8
PEF-L125A
  6
CENTER
100
AcDbLine
 10
24.93883719096931
 20
232.877954415937
 30
0.0
 11
39.06470983118862
 21
236.6629705822686
 31
0.0
  0
LINE
  5
2A1
330
1E
100
AcDbEntity
  8
PEF-L125A
100
AcDbLine
 10
38.66717937278436
 20
217.7557598387243
 30
0.0
 11
38.66717937278436
 21
239.4544896495022
 31
0.0
  0
LINE
  5
2A2
330
1E
100
AcDbEntity
  8
PEF-L125A
100
AcDbLine
 10
31.77844947520753
 20
239.8567567891216
 30
0.0
 11
31.4248960846142
 21
239.2443843534258
 31
0.0
  0
LINE
  5
2A3
330
1E
100
AcDbEntity
  8
PEF-L125A
100
AcDbLine
 10
37.23221391946442
 20
244.4239171088999
 30
0.0
 11
38.66793919676434
 21
239.3312179890539
 31
0.0
  0
LINE
  5
2A4
330
1E
100
AcDbEntity
  8
PEF-L125A
100
AcDbLine
 10
38.66717937278436
 20
235.7717578500682
 30
0.0
 11
37.09104151979733
 21
241.2802615371855
 31
0.0
  0
LINE
  5
2A5
330
1E
100
AcDbEntity
  8
PEF-L125A
100
AcDbLine
 10
34.52973112487506
 20
230.2411986811998
 30
0.0
 11
31.77844947520753
 21
239.8567567891216
 31
0.0
  0
LINE
  5
2A7
330
1E
100
AcDbEntity
  8
PEF-L125A
100
AcDbLine
 10
34.52973112487506
 20
230.2411986811998
 30
0.0
 11
38.66717937278436
 21
231.3498245979526
 31
0.0
  0
LINE
  5
2A8
330
1E
100
AcDbEntity
  8
PEF-L125A
100
AcDbLine
 10
31.4248960846142
 20
239.2443843534258
 30
0.0
 11
33.91735868917937
 21
230.5947520717931
 31
0.0
  0
LINE
  5
2A9
330
1E
100
AcDbEntity
  8
PEF-L125A
100
AcDbLine
 10
34.52973112487506
 20
230.2411986811998
 30
0.0
 11
33.91735868917937
 21
230.5947520717931
 31
0.0
  0
LINE
  5
2AE
330
1E
100
AcDbEntity
  8
PEF-L125A
100
AcDbLine
 10
37.09104151979733
 20
241.2802615371855
 30
0.0
 11
31.77844947520753
 21
239.8567567891216
 31
0.0
  0
LINE
  5
2AF
330
1E
100
AcDbEntity
  8
PEF-L125A
100
AcDbLine
 10
41.57888013776522
 20
245.5886028118613
 30
0.0
 11
37.23221391946442
 21
244.4239171088999
 31
0.0
  0
LINE
  5
2B0
330
1E
100
AcDbEntity
  8
PEF-L125A
100
AcDbLine
 10
37.09104151979733
 20
241.2802615371855
 30
0.0
 11
38.00867105477191
 21
241.5261396300329
 31
0.0
  0
LINE
  5
2B2
330
1E
100
AcDbEntity
  8
PEF-L125A
  6
DASHED
100
AcDbLine
 10
79.75
 20
249.454489649502
 30
0.0
 11
79.75
 21
252.4999999999999
 31
0.0
  0
LINE
  5
2B3
330
1E
100
AcDbEntity
  8
PEF-L125A
  6
DASHED
100
AcDbLine
 10
80.75000000000001
 20
252.4999999999999
 30
0.0
 11
80.75000000000001
 21
249.454489649502
 31
0.0
  0
LINE
  5
2B4
330
1E
100
AcDbEntity
  8
PEF-L125A
  6
DASHED
100
AcDbLine
 10
74.74999999999997
 20
252.4999999999999
 30
0.0
 11
74.74999999999997
 21
249.454489649502
 31
0.0
  0
LINE
  5
2B5
330
1E
100
AcDbEntity
  8
PEF-L125A
  6
DASHED
100
AcDbLine
 10
75.75
 20
249.454489649502
 30
0.0
 11
75.75
 21
252.4999999999999
 31
0.0
  0
LINE
  5
2B7
330
1E
100
AcDbEntity
  8
PEF-L125A
  6
CENTER
100
AcDbLine
 10
77.81921938165305
 20
257.0
 30
0.0
 11
77.81921938165305
 21
249.454489649502
 31
0.0
  0
CIRCLE
  5
2CE
330
1E
100
AcDbEntity
  8
PEF-L125A
  6
PHANTOM
100
AcDbCircle
 10
138.6671793727843
 20
212.4544896495022
 30
0.0
 40
7.999999999999998
  0
CIRCLE
  5
2CF
330
1E
100
AcDbEntity
  8
PEF-L125A
  6
PHANTOM
100
AcDbCircle
 10
138.6671793727843
 20
212.4544896495022
 30
0.0
 40
4.999999999999999
  0
LINE
  5
2D7
330
1E
100
AcDbEntity
  8
PEF-L125A
  6
CENTER
100
AcDbLine
 10
138.6671793727843
 20
225.5
 30
0.0
 11
138.6671793727843
 21
192.4544896495022
 31
0.0
  0
LINE
  5
2E4
330
1E
100
AcDbEntity
  8
PEF-L125A
  6
DASHED
100
AcDbLine
 10
132.7499999999999
 20
252.4999999999999
 30
0.0
 11
132.7499999999999
 21
249.454489649502
 31
0.0
  0
LINE
  5
2E5
330
1E
100
AcDbEntity
  8
PEF-L125A
  6
DASHED
100
AcDbLine
 10
131.75
 20
249.454489649502
 30
0.0
 11
131.75
 21
252.4999999999999
 31
0.0
  0
LINE
  5
2E6
330
1E
100
AcDbEntity
  8
PEF-L125A
  6
DASHED
100
AcDbLine
 10
127.75
 20
249.454489649502
 30
0.0
 11
127.75
 21
252.4999999999999
 31
0.0
  0
LINE
  5
2E7
330
1E
100
AcDbEntity
  8
PEF-L125A
  6
DASHED
100
AcDbLine
 10
126.75
 20
252.4999999999999
 30
0.0
 11
126.7499999999999
 21
249.454489649502
 31
0.0
  0
LINE
  5
2E8
330
1E
100
AcDbEntity
  8
PEF-L125A
  6
CENTER
100
AcDbLine
 10
129.8192193816529
 20
257.0
 30
0.0
 11
129.8192193816529
 21
249.454489649502
 31
0.0
  0
LINE
  5
2E9
330
1E
100
AcDbEntity
  8
PEF-L125A
  6
CENTER
100
AcDbLine
 10
148.1671793727841
 20
212.4544896495022
 30
0.0
 11
129.1671793727842
 21
212.4544896495022
 31
0.0
  0
LINE
  5
2EA
330
1E
100
AcDbEntity
  8
PEF-L125A
100
AcDbLine
 10
227.7191337649476
 20
200.3131521015298
 30
0.0
 11
216.5377404370842
 21
242.0426801005273
 31
0.0
  0
LINE
  5
2EB
330
1E
100
AcDbEntity
  8
PEF-L125A
  6
CENTER
100
AcDbLine
 10
232.3403302690906
 20
215.271488110264
 30
0.0
 11
224.2891112306017
 21
213.1141704708148
 31
0.0
  0
LINE
  5
2EE
330
1E
100
AcDbEntity
  8
PEF-L125A
100
AcDbLine
 10
228.9438428264324
 20
209.1513444990665
 30
0.0
 11
226.3556523754072
 21
218.810602761957
 31
0.0
  0
LINE
  5
2EF
330
1E
100
AcDbEntity
  8
PEF-L125A
100
AcDbLine
 10
226.9680248111031
 20
218.4570493713636
 30
0.0
 11
229.2973962170257
 21
209.7637169347623
 31
0.0
  0
LINE
  5
2F8
330
1E
100
AcDbEntity
  8
PEF-L125A
100
AcDbLine
 10
236.4455499723193
 20
158.8592058457662
 30
0.0
 11
226.0927881682186
 21
197.4962388973292
 31
0.0
  0
LINE
  5
2F9
330
1E
100
AcDbEntity
  8
PEF-L125A
100
AcDbLine
 10
238.6671793727844
 20
159.4544896495022
 30
0.0
 11
228.3144175686835
 21
198.0915227010651
 31
0.0
  0
LINE
  5
2FA
330
1E
100
AcDbEntity
  8
PEF-L125A
100
AcDbLine
 10
238.6671793727844
 20
159.4544896495022
 30
0.0
 11
236.4455499723193
 21
158.8592058457662
 31
0.0
  0
ARC
  5
302
330
1E
100
AcDbEntity
  8
PEF-L125A
100
AcDbCircle
 10
226.9059609665831
 20
198.9046954994294
 30
0.0
 40
1.149999999999999
100
AcDbArc
 50
105.0000000000002
 51
285.0
  0
LINE
  5
303
330
1E
100
AcDbEntity
  8
PEF-L125A
100
AcDbLine
 10
228.3144175686835
 20
198.0915227010651
 30
0.0
 11
226.0927881682186
 21
197.4962388973293
 31
0.0
  0
LINE
  5
304
330
1E
100
AcDbEntity
  8
PEF-L125A
100
AcDbLine
 10
227.7191337649476
 20
200.3131521015298
 30
0.0
 11
226.6083190647152
 21
200.0155101996617
 31
0.0
  0
LINE
  5
305
330
1E
100
AcDbEntity
  8
PEF-L125A
100
AcDbLine
 10
228.9438428264324
 20
209.1513444990665
 30
0.0
 11
225.5916256165605
 21
208.2531206048275
 31
0.0
  0
LINE
  5
308
330
1E
100
AcDbEntity
  8
PEF-L125A
100
AcDbLine
 10
228.9438428264324
 20
209.1513444990665
 30
0.0
 11
229.2973962170257
 21
209.7637169347623
 31
0.0
  0
LINE
  5
30F
330
1E
100
AcDbEntity
  8
PEF-L125A
  6
CENTER
100
AcDbLine
 10
223.85463067324
 20
243.1498139693087
 30
0.0
 11
216.7510956773602
 21
241.2464275037566
 31
0.0
  0
LINE
  5
310
330
1E
100
AcDbEntity
  8
PEF-L125A
  6
DASHED
100
AcDbLine
 10
184.7499999999999
 20
252.4999999999999
 30
0.0
 11
184.7499999999998
 21
249.454489649502
 31
0.0
  0
LINE
  5
311
330
1E
100
AcDbEntity
  8
PEF-L125A
  6
DASHED
100
AcDbLine
 10
178.75
 20
252.4999999999999
 30
0.0
 11
178.75
 21
249.454489649502
 31
0.0
  0
LINE
  5
312
330
1E
100
AcDbEntity
  8
PEF-L125A
  6
DASHED
100
AcDbLine
 10
179.75
 20
249.454489649502
 30
0.0
 11
179.75
 21
252.4999999999999
 31
0.0
  0
LINE
  5
313
330
1E
100
AcDbEntity
  8
PEF-L125A
  6
DASHED
100
AcDbLine
 10
183.75
 20
249.454489649502
 30
0.0
 11
183.75
 21
252.4999999999999
 31
0.0
  0
LINE
  5
314
330
1E
100
AcDbEntity
  8
PEF-L125A
  6
CENTER
100
AcDbLine
 10
181.819219381653
 20
257.0
 30
0.0
 11
181.819219381653
 21
249.454489649502
 31
0.0
  0
LINE
  5
318
330
1E
100
AcDbEntity
  8
PEF-L125A
100
AcDbLine
 10
219.4215900974155
 20
246.6207271388477
 30
0.0
 11
221.7509615033382
 21
237.927394702246
 31
0.0
  0
LINE
  5
319
330
1E
100
AcDbEntity
  8
PEF-L125A
100
AcDbLine
 10
221.3974081127449
 20
237.3150222665501
 30
0.0
 11
218.8092176617195
 21
246.9742805294407
 31
0.0
  0
LINE
  5
31C
330
1E
100
AcDbEntity
  8
PEF-L125A
100
AcDbLine
 10
205.5884320308178
 20
249.3709290622942
 30
0.0
 11
204.7499999999999
 21
252.4999999999999
 31
0.0
  0
LINE
  5
31D
330
1E
100
AcDbEntity
  8
PEF-L125A
100
AcDbLine
 10
221.3974081127449
 20
237.3150222665501
 30
0.0
 11
221.7509615033382
 21
237.927394702246
 31
0.0
  0
LINE
  5
31E
330
1E
100
AcDbEntity
  8
PEF-L125A
100
AcDbLine
 10
223.003435165535
 20
217.9123788677182
 30
0.0
 11
226.3556523754072
 21
218.810602761957
 31
0.0
  0
LINE
  5
325
330
1E
100
AcDbEntity
  8
PEF-L125A
100
AcDbLine
 10
221.3974081127449
 20
237.3150222665501
 30
0.0
 11
218.0451909028727
 21
236.4167983723112
 31
0.0
  0
LINE
  5
327
330
1E
100
AcDbEntity
  8
PEF-L125A
100
AcDbLine
 10
226.3556523754072
 20
218.810602761957
 30
0.0
 11
226.9680248111031
 21
218.4570493713636
 31
0.0
  0
ARC
  5
328
330
1E
100
AcDbEntity
  8
PEF-L125A
100
AcDbCircle
 10
206.8784821741935
 20
239.4544896495022
 30
0.0
 40
9.999999999999998
100
AcDbArc
 50
15.00000000000002
 51
90.0
  0
LINE
  5
32B
330
1E
100
AcDbEntity
  8
PEF-L125A
100
AcDbLine
 10
214.5745949232095
 20
245.8396167864066
 30
0.0
 11
218.8092176617195
 21
246.9742805294407
 31
0.0
  0
LINE
  5
32D
330
1E
100
AcDbEntity
  8
PEF-L125A
100
AcDbLine
 10
218.8092176617195
 20
246.9742805294407
 30
0.0
 11
219.4215900974155
 21
246.6207271388477
 31
0.0
  0
LINE
  5
344
330
1E
100
AcDbEntity
  8
PEF-L125A
  6
CENTER
100
AcDbLine
 10
351.7499999999999
 20
256.7499999999999
 30
0.0
 11
351.7499999999999
 21
92.5
 31
0.0
  0
LINE
  5
345
330
1E
100
AcDbEntity
  8
PEF-L125A
100
AcDbLine
 10
321.25
 20
124.4544896495022
 30
0.0
 11
321.25
 21
159.4544896495021
 31
0.0
  0
LINE
  5
346
330
1E
100
AcDbEntity
  8
PEF-L125A
100
AcDbLine
 10
323.4999999999999
 20
124.4544896495022
 30
0.0
 11
323.5000000000001
 21
159.4544896495021
 31
0.0
  0
LINE
  5
347
330
1E
100
AcDbEntity
  8
PEF-L125A
100
AcDbLine
 10
379.9999999999998
 20
124.4544896495023
 30
0.0
 11
379.9999999999998
 21
159.4544896495021
 31
0.0
  0
LINE
  5
348
330
1E
100
AcDbEntity
  8
PEF-L125A
100
AcDbLine
 10
382.2499999999999
 20
124.4544896495022
 30
0.0
 11
382.2499999999999
 21
159.4544896495021
 31
0.0
  0
LINE
  5
349
330
1E
100
AcDbEntity
  8
PEF-L125A
100
AcDbLine
 10
325.7499999999998
 20
101.8419952889129
 30
0.0
 11
325.7499999999998
 21
159.4544896495022
 31
0.0
  0
LINE
  5
34A
330
1E
100
AcDbEntity
  8
PEF-L125A
100
AcDbLine
 10
377.75
 20
101.8419952889129
 30
0.0
 11
377.75
 21
159.4544896495022
 31
0.0
  0
TEXT
  5
34B
330
1E
100
AcDbEntity
  8
PEF-L125A
100
AcDbText
 10
248.6764705882352
 20
243.9705882352941
 30
0.0
 40
3.705882352941175
  1
PEF-L125A
100
AcDbText
  0
LINE
  5
34E
330
1E
100
AcDbEntity
  8
PEF-L125A
100
AcDbLine
 10
401.75
 20
121.5
 30
0.0
 11
385.2499999999998
 21
121.5
 31
0.0
  0
LINE
  5
34F
330
1E
100
AcDbEntity
  8
PEF-L125A
100
AcDbLine
 10
378.2499999999998
 20
119.5
 30
0.0
 11
401.75
 21
119.5
 31
0.0
  0
LINE
  5
350
330
1E
100
AcDbEntity
  8
PEF-L125A
100
AcDbLine
 10
301.7499999999999
 20
97.5
 30
0.0
 11
401.75
 21
97.5
 31
0.0
  0
LINE
  5
354
330
1E
100
AcDbEntity
  8
PEF-L125A
  6
CENTER
100
AcDbLine
 10
322.9999999999998
 20
134.4544896495021
 30
0.0
 11
310.4171793727843
 21
134.4544896495021
 31
0.0
  0
ARC
  5
355
330
1E
100
AcDbEntity
  8
PEF-L125A
100
AcDbCircle
 10
319.2499999999998
 20
121.5
 30
0.0
 40
2.0
100
AcDbArc
 50
270.0
 51
0.0
  0
LINE
  5
356
330
1E
100
AcDbEntity
  8
PEF-L125A
100
AcDbLine
 10
319.2499999999998
 20
144.25
 30
0.0
 11
321.25
 21
144.25
 31
0.0
  0
LINE
  5
357
330
1E
100
AcDbEntity
  8
PEF-L125A
100
AcDbLine
 10
301.7499999999999
 20
119.5
 30
0.0
 11
325.2499999999998
 21
119.5
 31
0.0
  0
LINE
  5
35A
330
1E
100
AcDbEntity
  8
PEF-L125A
  6
DASHED
100
AcDbLine
 10
307.25
 20
97.5
 30
0.0
 11
307.25
 21
119.5
 31
0.0
  0
LINE
  5
35B
330
1E
100
AcDbEntity
  8
PEF-L125A
  6
DASHED
100
AcDbLine
 10
316.25
 20
97.5
 30
0.0
 11
316.25
 21
119.5
 31
0.0
  0
LINE
  5
35C
330
1E
100
AcDbEntity
  8
PEF-L125A
  6
CENTER
100
AcDbLine
 10
311.7499999999999
 20
132.0
 30
0.0
 11
311.7499999999999
 21
93.25000000000001
 31
0.0
  0
LINE
  5
35D
330
1E
100
AcDbEntity
  8
PEF-L125A
100
AcDbLine
 10
301.7499999999999
 20
97.5
 30
0.0
 11
301.7499999999999
 21
119.5
 31
0.0
  0
LINE
  5
35E
330
1E
100
AcDbEntity
  8
PEF-L125A
100
AcDbLine
 10
249.9608396839988
 20
103.0066809918743
 30
0.0
 11
245.6141734656982
 21
101.8419952889129
 31
0.0
  0
LINE
  5
35F
330
1E
100
AcDbEntity
  8
PEF-L125A
100
AcDbLine
 10
244.5
 20
119.5
 30
0.0
 11
244.5
 21
97.5
 31
0.0
  0
LINE
  5
36B
330
1E
100
AcDbEntity
  8
PEF-L125A
100
AcDbLine
 10
245.6141734656982
 20
101.8419952889129
 30
0.0
 11
245.0346179699246
 21
101.6867038618514
 31
0.0
  0
LINE
  5
36C
330
1E
100
AcDbEntity
  8
PEF-L125A
100
AcDbLine
 10
245.0346179699246
 20
101.6867038618514
 30
0.0
 11
244.5
 21
101.5434534085508
 31
0.0
  0
LINE
  5
375
330
1E
100
AcDbEntity
  8
PEF-L125A
100
AcDbLine
 10
247.5138216326408
 20
115.8095948264796
 30
0.0
 11
252.8264136772307
 21
117.2330995745434
 31
0.0
  0
LINE
  5
376
330
1E
100
AcDbEntity
  8
PEF-L125A
100
AcDbLine
 10
255.4146041282558
 20
107.5738413116527
 30
0.0
 11
252.8264136772307
 21
117.2330995745434
 31
0.0
  0
LINE
  5
377
330
1E
100
AcDbEntity
  8
PEF-L125A
100
AcDbLine
 10
253.4387861129265
 20
116.87954618395
 30
0.0
 11
255.7681575188491
 21
108.1862137473484
 31
0.0
  0
LINE
  5
378
330
1E
100
AcDbEntity
  8
PEF-L125A
100
AcDbLine
 10
245.8197349623587
 20
118.4614942124994
 30
0.0
 11
249.9608396839988
 21
103.0066809918743
 31
0.0
  0
LINE
  5
379
330
1E
100
AcDbEntity
  8
PEF-L125A
100
AcDbLine
 10
255.4146041282558
 20
107.5738413116527
 30
0.0
 11
250.102012083666
 21
106.1503365635888
 31
0.0
  0
LINE
  5
37A
330
1E
100
AcDbEntity
  8
PEF-L125A
100
AcDbLine
 10
250.102012083666
 20
106.1503365635888
 30
0.0
 11
247.5138216326408
 21
115.8095948264796
 31
0.0
  0
LINE
  5
37B
330
1E
100
AcDbEntity
  8
PEF-L125A
100
AcDbLine
 10
250.102012083666
 20
106.1503365635888
 30
0.0
 11
249.1843825486913
 21
105.9044584707414
 31
0.0
  0
LINE
  5
37C
330
1E
100
AcDbEntity
  8
PEF-L125A
100
AcDbLine
 10
247.5138216326408
 20
115.8095948264796
 30
0.0
 11
246.5961920976661
 21
115.5637167336322
 31
0.0
  0
LINE
  5
37D
330
1E
100
AcDbEntity
  8
PEF-L125A
100
AcDbLine
 10
255.4146041282558
 20
107.5738413116527
 30
0.0
 11
255.7681575188491
 21
108.1862137473484
 31
0.0
  0
LINE
  5
37E
330
1E
100
AcDbEntity
  8
PEF-L125A
100
AcDbLine
 10
244.5
 20
118.1078722951122
 30
0.0
 11
245.8197349623587
 21
118.4614942124994
 31
0.0
  0
LINE
  5
37F
330
1E
100
AcDbEntity
  8
PEF-L125A
100
AcDbLine
 10
252.8264136772307
 20
117.2330995745434
 30
0.0
 11
253.4387861129265
 21
116.87954618395
 31
0.0
  0
LINE
  5
384
330
1E
100
AcDbEntity
  8
PEF-L125A
100
AcDbLine
 10
246.2782251284248
 20
152.4896411906647
 30
0.0
 11
249.2546441471038
 21
141.3814941883403
 31
0.0
  0
LINE
  5
385
330
1E
100
AcDbEntity
  8
PEF-L125A
100
AcDbLine
 10
248.7243140612139
 20
140.4629355347967
 30
0.0
 11
245.3596664748813
 21
153.0199712765546
 31
0.0
  0
LINE
  5
386
330
1E
100
AcDbEntity
  8
PEF-L125A
100
AcDbLine
 10
248.7243140612139
 20
140.4629355347967
 30
0.0
 11
241.7213518206182
 21
138.5864974578035
 31
0.0
  0
LINE
  5
387
330
1E
100
AcDbEntity
  8
PEF-L125A
100
AcDbLine
 10
248.7243140612139
 20
140.4629355347967
 30
0.0
 11
249.2546441471038
 21
141.3814941883403
 31
0.0
  0
LINE
  5
388
330
1E
100
AcDbEntity
  8
PEF-L125A
100
AcDbLine
 10
245.3596664748813
 20
153.0199712765546
 30
0.0
 11
246.2782251284248
 21
152.4896411906647
 31
0.0
  0
LINE
  5
389
330
1E
100
AcDbEntity
  8
PEF-L125A
100
AcDbLine
 10
319.2499999999998
 20
139.4999999999997
 30
0.0
 11
319.2499999999998
 21
129.5
 31
0.0
  0
LINE
  5
38A
330
1E
100
AcDbEntity
  8
PEF-L125A
100
AcDbLine
 10
313.25
 20
129.9999999999999
 30
0.0
 11
313.25
 21
138.9999999999997
 31
0.0
  0
LINE
  5
38B
330
1E
100
AcDbEntity
  8
PEF-L125A
100
AcDbLine
 10
313.7499999999999
 20
139.4999999999997
 30
0.0
 11
313.7499999999999
 21
129.5
 31
0.0
  0
LINE
  5
38C
330
1E
100
AcDbEntity
  8
PEF-L125A
100
AcDbLine
 10
319.2499999999998
 20
122.5
 30
0.0
 11
319.2499999999998
 21
144.25
 31
0.0
  0
LINE
  5
38D
330
1E
100
AcDbEntity
  8
PEF-L125A
100
AcDbLine
 10
316.7499999999999
 20
121.5
 30
0.0
 11
306.7499999999999
 21
121.5
 31
0.0
  0
LINE
  5
38E
330
1E
100
AcDbEntity
  8
PEF-L125A
100
AcDbLine
 10
316.7499999999999
 20
127.0
 30
0.0
 11
306.7499999999999
 21
126.9999999999999
 31
0.0
  0
LINE
  5
38F
330
1E
100
AcDbEntity
  8
PEF-L125A
100
AcDbLine
 10
307.25
 20
127.5
 30
0.0
 11
316.25
 21
127.4999999999999
 31
0.0
  0
LINE
  5
390
330
1E
100
AcDbEntity
  8
PEF-L125A
100
AcDbLine
 10
301.7499999999999
 20
121.5
 30
0.0
 11
318.25
 21
121.5
 31
0.0
  0
LINE
  5
391
330
1E
100
AcDbEntity
  8
PEF-L125A
100
AcDbLine
 10
306.7499999999999
 20
121.5
 30
0.0
 11
306.7499999999999
 21
126.9999999999999
 31
0.0
  0
LINE
  5
392
330
1E
100
AcDbEntity
  8
PEF-L125A
100
AcDbLine
 10
301.7499999999999
 20
119.5
 30
0.0
 11
301.7499999999999
 21
121.5
 31
0.0
  0
LINE
  5
393
330
1E
100
AcDbEntity
  8
PEF-L125A
100
AcDbLine
 10
306.7499999999999
 20
126.9999999999999
 30
0.0
 11
307.25
 21
127.5
 31
0.0
  0
LINE
  5
394
330
1E
100
AcDbEntity
  8
PEF-L125A
100
AcDbLine
 10
316.7499999999999
 20
127.0
 30
0.0
 11
316.7499999999999
 21
121.5
 31
0.0
  0
ARC
  5
395
330
1E
100
AcDbEntity
  8
PEF-L125A
100
AcDbCircle
 10
318.25
 20
122.5
 30
0.0
 40
1.0
100
AcDbArc
 50
270.0
 51
0.0
  0
LINE
  5
396
330
1E
100
AcDbEntity
  8
PEF-L125A
100
AcDbLine
 10
319.2499999999998
 20
129.5
 30
0.0
 11
313.7499999999999
 21
129.5
 31
0.0
  0
LINE
  5
397
330
1E
100
AcDbEntity
  8
PEF-L125A
100
AcDbLine
 10
313.7499999999999
 20
129.5
 30
0.0
 11
313.25
 21
129.9999999999999
 31
0.0
  0
LINE
  5
398
330
1E
100
AcDbEntity
  8
PEF-L125A
100
AcDbLine
 10
316.7499999999999
 20
127.0
 30
0.0
 11
316.25
 21
127.4999999999999
 31
0.0
  0
LINE
  5
399
330
1E
100
AcDbEntity
  8
PEF-L125A
100
AcDbLine
 10
313.7499999999999
 20
139.4999999999997
 30
0.0
 11
319.2499999999998
 21
139.4999999999997
 31
0.0
  0
LINE
  5
39A
330
1E
100
AcDbEntity
  8
PEF-L125A
100
AcDbLine
 10
313.7499999999999
 20
139.4999999999997
 30
0.0
 11
313.25
 21
138.9999999999997
 31
0.0
  0
LINE
  5
39B
330
1E
100
AcDbEntity
  8
PEF-L125A
100
AcDbLine
 10
325.2499999999998
 20
97.5
 30
0.0
 11
325.2499999999998
 21
119.5
 31
0.0
  0
LINE
  5
39C
330
1E
100
AcDbEntity
  8
PEF-L125A
100
AcDbLine
 10
378.2499999999998
 20
97.5
 30
0.0
 11
378.2499999999998
 21
119.5
 31
0.0
  0
LINE
  5
39D
330
1E
100
AcDbEntity
  8
PEF-L125A
  6
DASHED
100
AcDbLine
 10
387.2499999999999
 20
97.5
 30
0.0
 11
387.2499999999999
 21
119.5
 31
0.0
  0
LINE
  5
39E
330
1E
100
AcDbEntity
  8
PEF-L125A
  6
DASHED
100
AcDbLine
 10
396.2499999999998
 20
97.5
 30
0.0
 11
396.2499999999998
 21
119.5
 31
0.0
  0
LINE
  5
39F
330
1E
100
AcDbEntity
  8
PEF-L125A
  6
CENTER
100
AcDbLine
 10
391.75
 20
130.25
 30
0.0
 11
391.75
 21
93.25000000000001
 31
0.0
  0
LINE
  5
3A1
330
1E
100
AcDbEntity
  8
PEF-L125A
100
AcDbLine
 10
325.7499999999998
 20
101.8419952889129
 30
0.0
 11
377.75
 21
101.8419952889129
 31
0.0
  0
LINE
  5
3AB
330
1E
100
AcDbEntity
  8
PEF-L125A
100
AcDbLine
 10
325.7499999999998
 20
118.4614942124993
 30
0.0
 11
377.75
 21
118.4614942124994
 31
0.0
  0
LINE
  5
3AC
330
1E
100
AcDbEntity
  8
PEF-L125A
100
AcDbLine
 10
325.7499999999998
 20
152.2688981326168
 30
0.0
 11
377.75
 21
152.2688981326168
 31
0.0
  0
LINE
  5
3AD
330
1E
100
AcDbEntity
  8
PEF-L125A
100
AcDbLine
 10
325.7499999999998
 20
135.6493992090304
 30
0.0
 11
377.75
 21
135.6493992090304
 31
0.0
  0
LINE
  5
3AE
330
1E
100
AcDbEntity
  8
PEF-L125A
100
AcDbLine
 10
325.7499999999998
 20
136.8140849119917
 30
0.0
 11
377.75
 21
136.8140849119917
 31
0.0
  0
LINE
  5
3AF
330
1E
100
AcDbEntity
  8
PEF-L125A
100
AcDbLine
 10
325.7499999999998
 20
103.0066809918743
 30
0.0
 11
377.75
 21
103.0066809918743
 31
0.0
  0
LWPOLYLINE
  5
3B0
330
1E
100
AcDbEntity
  8
PEF-L125A
100
AcDbPolyline
 90
        6
 70
     1
 43
0.0
 10
334.2499999999998
 20
112.5328799656494
 10
335.4999999999998
 20
110.3678164561881
 10
337.9999999999999
 20
110.3678164561881
 10
339.2499999999998
 20
112.5328799656494
 10
337.9999999999999
 20
114.6979434751104
 10
335.4999999999998
 20
114.6979434751104
  0
LWPOLYLINE
  5
3B8
330
1E
100
AcDbEntity
  8
PEF-L125A
100
AcDbPolyline
 90
        9
 70
     0
 43
0.0
 10
331.7499999999999
 20
110.6503365635887
 42
0.108253563056347
 10
332.1220465326267
 20
108.9520710713436
 42
0.1020133445945723
 10
333.2144660940672
 20
107.4683560482494
 42
0.0942731609262402
 10
334.8129758217969
 20
106.4996486735689
 42
0.0894458167924043
 10
336.7499999999999
 20
106.1503365635888
 42
0.089445816792418
 10
338.6870241782028
 20
106.4996486735692
 42
0.0942731609262365
 10
340.2855339059326
 20
107.4683560482494
 42
0.1020133445945594
 10
341.3779534673732
 20
108.9520710713436
 42
0.1082535630563308
 10
341.7499999999999
 20
110.6503365635887
 42
0.1082535630563452
  0
LWPOLYLINE
  5
3C3
330
1E
100
AcDbEntity
  8
PEF-L125A
100
AcDbPolyline
 90
       10
 70
     0
 43
0.0
 10
331.4999999999998
 20
110.7588190451025
 42
0.1056825270815721
 10
331.8930578647404
 20
108.9199725860067
 42
0.1011848951010407
 10
333.0376893987706
 20
107.326267764647
 42
0.0954125384354193
 10
334.722195717856
 20
106.27949844446
 42
0.0916968476521026
 10
336.7499999999999
 20
105.9044584707414
 42
0.0916968476521044
 10
338.7778042821439
 20
106.27949844446
 42
0.0954125384354102
 10
340.4623106012293
 20
107.326267764647
 42
0.1011848951010554
 10
341.6069421352597
 20
108.919972586007
 42
0.1056825270815566
 10
341.9999999999999
 20
110.7588190451025
 42
0.0839403136880411
 10
341.7499999999999
 20
112.2374798638899
 42
0.1011848951010513
  0
LWPOLYLINE
  5
3CF
330
1E
100
AcDbEntity
  8
PEF-L125A
100
AcDbPolyline
 90
       16
 70
     1
 43
0.0
 10
341.25
 20
112.5328799656494
 42
0.1100374112988379
 10
340.9166054913283
 20
114.029451389694
 42
0.1025479257535734
 10
339.9319805153393
 20
115.3442934503153
 42
0.0934739426362013
 10
338.4967822636756
 20
116.1992207191651
 42
0.0879343631042792
 10
336.7499999999999
 20
116.5088190451023
 42
0.0879343631042764
 10
335.0032177363243
 20
116.1992207191651
 42
0.0934739426361925
 10
333.5680194846604
 20
115.3442934503153
 42
0.1025479257535752
 10
332.5833945086718
 20
114.0294513896942
 42
0.1100374112988643
 10
332.2500000000001
 20
112.5328799656494
 42
0.1100374112988765
 10
332.5833945086718
 20
111.0363085416044
 42
0.1025479257535735
 10
333.5680194846604
 20
109.7214664809835
 42
0.0934739426361999
 10
335.0032177363243
 20
108.8665392121335
 42
0.0879343631042844
 10
336.7499999999999
 20
108.5569408861961
 42
0.0879343631042895
 10
338.4967822636757
 20
108.8665392121335
 42
0.0934739426361984
 10
339.9319805153393
 20
109.7214664809835
 42
0.1025479257535805
 10
340.9166054913281
 20
111.0363085416046
 42
0.1100374112988664
  0
LWPOLYLINE
  5
3E1
330
1E
100
AcDbEntity
  8
PEF-L125A
100
AcDbPolyline
 90
       16
 70
     1
 43
0.0
 10
341.7499999999999
 20
112.5328799656494
 42
0.1082535630563452
 10
341.3779534673732
 20
114.2311454578947
 42
0.1020133445945677
 10
340.2855339059326
 20
115.7148604809888
 42
0.0942731609262599
 10
338.6870241782028
 20
116.683567855669
 42
0.0894458167924258
 10
336.7499999999999
 20
117.0328799656494
 42
0.089445816792418
 10
334.8129758217968
 20
116.683567855669
 42
0.094273160926236
 10
333.2144660940672
 20
115.7148604809888
 42
0.1020133445945803
 10
332.1220465326267
 20
114.2311454578947
 42
0.1082535630563614
 10
331.7499999999999
 20
112.5328799656494
 42
0.108253563056347
 10
332.1220465326267
 20
110.8346144734039
 42
0.1020133445945723
 10
333.2144660940672
 20
109.3508994503099
 42
0.0942731609262402
 10
334.8129758217969
 20
108.3821920756294
 42
0.0894458167924043
 10
336.7499999999999
 20
108.0328799656494
 42
0.089445816792418
 10
338.6870241782028
 20
108.3821920756295
 42
0.0942731609262365
 10
340.2855339059326
 20
109.3508994503099
 42
0.1020133445945594
 10
341.3779534673732
 20
110.8346144734039
 42
0.1082535630563308
  0
LINE
  5
3F3
330
1E
100
AcDbEntity
  8
PEF-L125A
100
AcDbLine
 10
331.7499999999999
 20
110.6503365635887
 30
0.0
 11
331.7499999999999
 21
112.5328799656493
 31
0.0
  0
LWPOLYLINE
  5
3F4
330
1E
100
AcDbEntity
  8
PEF-L125A
100
AcDbPolyline
 90
        2
 70
     0
 43
0.0
 10
331.7499999999999
 20
112.2374798638899
 42
0.0839403136880476
 10
331.4999999999998
 20
110.7588190451025
 42
0.1056825270815721
  0
LWPOLYLINE
  5
3F8
330
1E
100
AcDbEntity
  8
PEF-L125A
100
AcDbPolyline
 90
        4
 70
     0
 43
0.0
 10
339.1056624327027
 20
112.2828799656493
 10
337.9999999999999
 20
114.1979434751103
 10
335.4999999999998
 20
114.1979434751103
 10
334.3943375672973
 20
112.2828799656493
  0
LINE
  5
3FE
330
1E
100
AcDbEntity
  8
PEF-L125A
100
AcDbLine
 10
321.25
 20
124.5
 30
0.0
 11
321.25
 21
121.5
 31
0.0
  0
LINE
  5
3FF
330
1E
100
AcDbEntity
  8
PEF-L125A
100
AcDbLine
 10
323.4999999999999
 20
124.4544896495022
 30
0.0
 11
323.5000000000001
 21
122.4544896495022
 31
0.0
  0
LINE
  5
400
330
1E
100
AcDbEntity
  8
PEF-L125A
100
AcDbLine
 10
323.5000000000001
 20
122.4544896495022
 30
0.0
 11
325.7499999999998
 21
122.4544896495022
 31
0.0
  0
LINE
  5
401
330
1E
100
AcDbEntity
  8
PEF-L125A
100
AcDbLine
 10
321.25
 20
124.4544896495022
 30
0.0
 11
323.4999999999999
 21
124.4544896495022
 31
0.0
  0
LINE
  5
402
330
1E
100
AcDbEntity
  8
PEF-L125A
100
AcDbLine
 10
341.7499999999999
 20
110.6503365635887
 30
0.0
 11
341.7499999999999
 21
112.5328799656493
 31
0.0
  0
LWPOLYLINE
  5
403
330
1E
100
AcDbEntity
  8
PEF-L125A
100
AcDbPolyline
 90
       10
 70
     0
 43
0.0
 10
331.4999999999998
 20
144.5662229652197
 42
0.1056825270815721
 10
331.8930578647404
 20
142.7273765061241
 42
0.1011848951010407
 10
333.0376893987706
 20
141.1336716847646
 42
0.0954125384354193
 10
334.722195717856
 20
140.0869023645773
 42
0.0916968476521026
 10
336.7499999999999
 20
139.7118623908589
 42
0.0916968476521044
 10
338.7778042821439
 20
140.0869023645773
 42
0.0954125384354102
 10
340.4623106012293
 20
141.1336716847646
 42
0.1011848951010554
 10
341.6069421352597
 20
142.7273765061245
 42
0.1056825270815566
 10
341.9999999999999
 20
144.5662229652197
 42
0.0839403136880411
 10
341.7499999999999
 20
146.0448837840073
 42
0.1011848951010513
  0
LWPOLYLINE
  5
40F
330
1E
100
AcDbEntity
  8
PEF-L125A
100
AcDbPolyline
 90
        9
 70
     0
 43
0.0
 10
331.7499999999999
 20
144.4577404837062
 42
0.108253563056347
 10
332.1220465326267
 20
142.7594749914611
 42
0.1020133445945723
 10
333.2144660940672
 20
141.2757599683668
 42
0.0942731609262402
 10
334.8129758217969
 20
140.3070525936865
 42
0.0894458167924043
 10
336.7499999999999
 20
139.9577404837062
 42
0.089445816792418
 10
338.6870241782028
 20
140.3070525936865
 42
0.0942731609262365
 10
340.2855339059326
 20
141.2757599683668
 42
0.1020133445945594
 10
341.3779534673732
 20
142.7594749914611
 42
0.1082535630563308
 10
341.7499999999999
 20
144.4577404837062
 42
0.1082535630563452
  0
LWPOLYLINE
  5
41A
330
1E
100
AcDbEntity
  8
PEF-L125A
100
AcDbPolyline
 90
       16
 70
     1
 43
0.0
 10
341.7499999999999
 20
146.3402838857665
 42
0.1082535630563452
 10
341.3779534673732
 20
148.038549378012
 42
0.1020133445945677
 10
340.2855339059326
 20
149.5222644011062
 42
0.0942731609262599
 10
338.6870241782028
 20
150.4909717757863
 42
0.0894458167924258
 10
336.7499999999999
 20
150.8402838857666
 42
0.089445816792418
 10
334.8129758217968
 20
150.4909717757863
 42
0.094273160926236
 10
333.2144660940672
 20
149.5222644011062
 42
0.1020133445945803
 10
332.1220465326267
 20
148.038549378012
 42
0.1082535630563614
 10
331.7499999999999
 20
146.3402838857665
 42
0.108253563056347
 10
332.1220465326267
 20
144.6420183935215
 42
0.1020133445945723
 10
333.2144660940672
 20
143.1583033704273
 42
0.0942731609262402
 10
334.8129758217969
 20
142.1895959957469
 42
0.0894458167924043
 10
336.7499999999999
 20
141.8402838857667
 42
0.089445816792418
 10
338.6870241782028
 20
142.189595995747
 42
0.0942731609262365
 10
340.2855339059326
 20
143.1583033704273
 42
0.1020133445945594
 10
341.3779534673732
 20
144.6420183935215
 42
0.1082535630563308
  0
LWPOLYLINE
  5
42C
330
1E
100
AcDbEntity
  8
PEF-L125A
100
AcDbPolyline
 90
        6
 70
     1
 43
0.0
 10
334.2499999999998
 20
146.3402838857665
 10
335.4999999999998
 20
144.1752203763055
 10
337.9999999999999
 20
144.1752203763055
 10
339.2499999999998
 20
146.3402838857665
 10
337.9999999999999
 20
148.5053473952278
 10
335.4999999999998
 20
148.5053473952278
  0
LWPOLYLINE
  5
434
330
1E
100
AcDbEntity
  8
PEF-L125A
100
AcDbPolyline
 90
       16
 70
     1
 43
0.0
 10
341.25
 20
146.3402838857665
 42
0.1100374112988379
 10
340.9166054913283
 20
147.8368553098112
 42
0.1025479257535734
 10
339.9319805153393
 20
149.1516973704324
 42
0.0934739426362013
 10
338.4967822636756
 20
150.0066246392824
 42
0.0879343631042792
 10
336.7499999999999
 20
150.3162229652199
 42
0.0879343631042764
 10
335.0032177363243
 20
150.0066246392824
 42
0.0934739426361925
 10
333.5680194846604
 20
149.1516973704324
 42
0.1025479257535752
 10
332.5833945086718
 20
147.8368553098115
 42
0.1100374112988643
 10
332.2500000000001
 20
146.3402838857665
 42
0.1100374112988765
 10
332.5833945086718
 20
144.8437124617217
 42
0.1025479257535735
 10
333.5680194846604
 20
143.5288704011008
 42
0.0934739426361999
 10
335.0032177363243
 20
142.6739431322511
 42
0.0879343631042844
 10
336.7499999999999
 20
142.3643448063135
 42
0.0879343631042895
 10
338.4967822636757
 20
142.6739431322511
 42
0.0934739426361984
 10
339.9319805153393
 20
143.5288704011008
 42
0.1025479257535805
 10
340.9166054913281
 20
144.8437124617217
 42
0.1100374112988664
  0
LWPOLYLINE
  5
446
330
1E
100
AcDbEntity
  8
PEF-L125A
100
AcDbPolyline
 90
        2
 70
     0
 43
0.0
 10
331.7499999999999
 20
146.0448837840073
 42
0.0839403136880476
 10
331.4999999999998
 20
144.5662229652197
 42
0.1056825270815721
  0
LINE
  5
44A
330
1E
100
AcDbEntity
  8
PEF-L125A
100
AcDbLine
 10
331.7499999999999
 20
144.4577404837062
 30
0.0
 11
331.7499999999999
 21
146.3402838857665
 31
0.0
  0
LWPOLYLINE
  5
44B
330
1E
100
AcDbEntity
  8
PEF-L125A
100
AcDbPolyline
 90
        4
 70
     0
 43
0.0
 10
339.1056624327027
 20
146.0902838857668
 10
337.9999999999999
 20
148.0053473952279
 10
335.4999999999998
 20
148.0053473952279
 10
334.3943375672973
 20
146.0902838857668
  0
LINE
  5
451
330
1E
100
AcDbEntity
  8
PEF-L125A
100
AcDbLine
 10
341.7499999999999
 20
144.4577404837062
 30
0.0
 11
341.7499999999999
 21
146.3402838857665
 31
0.0
  0
LINE
  5
452
330
1E
100
AcDbEntity
  8
PEF-L125A
100
AcDbLine
 10
389.7499999999999
 20
139.4999999999997
 30
0.0
 11
389.7499999999999
 21
129.5
 31
0.0
  0
LINE
  5
453
330
1E
100
AcDbEntity
  8
PEF-L125A
100
AcDbLine
 10
390.2499999999998
 20
129.9999999999999
 30
0.0
 11
390.2499999999998
 21
138.9999999999997
 31
0.0
  0
LINE
  5
454
330
1E
100
AcDbEntity
  8
PEF-L125A
100
AcDbLine
 10
384.25
 20
122.5
 30
0.0
 11
384.25
 21
144.25
 31
0.0
  0
LINE
  5
455
330
1E
100
AcDbEntity
  8
PEF-L125A
100
AcDbLine
 10
379.9999999999998
 20
122.4544896495022
 30
0.0
 11
377.75
 21
122.4544896495022
 31
0.0
  0
LWPOLYLINE
  5
456
330
1E
100
AcDbEntity
  8
PEF-L125A
100
AcDbPolyline
 90
       16
 70
     1
 43
0.0
 10
371.7500000000001
 20
112.5328799656494
 42
0.1082535630563452
 10
371.3779534673732
 20
114.2311454578947
 42
0.1020133445945677
 10
370.2855339059327
 20
115.7148604809888
 42
0.0942731609262599
 10
368.6870241782028
 20
116.683567855669
 42
0.0894458167924258
 10
366.75
 20
117.0328799656494
 42
0.089445816792418
 10
364.8129758217968
 20
116.683567855669
 42
0.094273160926236
 10
363.2144660940672
 20
115.7148604809888
 42
0.1020133445945803
 10
362.1220465326266
 20
114.2311454578947
 42
0.1082535630563614
 10
361.7500000000001
 20
112.5328799656494
 42
0.108253563056347
 10
362.1220465326266
 20
110.8346144734039
 42
0.1020133445945723
 10
363.2144660940672
 20
109.3508994503099
 42
0.0942731609262402
 10
364.812975821797
 20
108.3821920756294
 42
0.0894458167924043
 10
366.75
 20
108.0328799656494
 42
0.089445816792418
 10
368.6870241782031
 20
108.3821920756295
 42
0.0942731609262365
 10
370.2855339059327
 20
109.3508994503099
 42
0.1020133445945594
 10
371.3779534673735
 20
110.8346144734039
 42
0.1082535630563308
  0
LWPOLYLINE
  5
468
330
1E
100
AcDbEntity
  8
PEF-L125A
100
AcDbPolyline
 90
       16
 70
     1
 43
0.0
 10
371.25
 20
112.5328799656494
 42
0.1100374112988379
 10
370.9166054913282
 20
114.029451389694
 42
0.1025479257535734
 10
369.9319805153393
 20
115.3442934503153
 42
0.0934739426362013
 10
368.4967822636756
 20
116.1992207191651
 42
0.0879343631042792
 10
366.75
 20
116.5088190451023
 42
0.0879343631042764
 10
365.0032177363244
 20
116.1992207191651
 42
0.0934739426361925
 10
363.5680194846604
 20
115.3442934503153
 42
0.1025479257535752
 10
362.5833945086717
 20
114.0294513896942
 42
0.1100374112988643
 10
362.25
 20
112.5328799656494
 42
0.1100374112988765
 10
362.5833945086717
 20
111.0363085416044
 42
0.1025479257535735
 10
363.5680194846604
 20
109.7214664809835
 42
0.0934739426361999
 10
365.0032177363244
 20
108.8665392121335
 42
0.0879343631042844
 10
366.75
 20
108.5569408861961
 42
0.0879343631042895
 10
368.4967822636757
 20
108.8665392121335
 42
0.0934739426361984
 10
369.9319805153393
 20
109.7214664809835
 42
0.1025479257535805
 10
370.9166054913281
 20
111.0363085416046
 42
0.1100374112988664
  0
LWPOLYLINE
  5
47A
330
1E
100
AcDbEntity
  8
PEF-L125A
100
AcDbPolyline
 90
        4
 70
     0
 43
0.0
 10
369.1056624327027
 20
112.2828799656493
 10
367.9999999999999
 20
114.1979434751103
 10
365.5000000000001
 20
114.1979434751103
 10
364.3943375672975
 20
112.2828799656493
  0
LWPOLYLINE
  5
480
330
1E
100
AcDbEntity
  8
PEF-L125A
100
AcDbPolyline
 90
        6
 70
     1
 43
0.0
 10
364.25
 20
112.5328799656494
 10
365.5000000000001
 20
110.3678164561881
 10
367.9999999999999
 20
110.3678164561881
 10
369.2500000000001
 20
112.5328799656494
 10
367.9999999999999
 20
114.6979434751104
 10
365.5000000000001
 20
114.6979434751104
  0
LWPOLYLINE
  5
488
330
1E
100
AcDbEntity
  8
PEF-L125A
100
AcDbPolyline
 90
       10
 70
     0
 43
0.0
 10
361.4999999999998
 20
110.7588190451025
 42
0.1056825270815721
 10
361.8930578647404
 20
108.9199725860067
 42
0.1011848951010407
 10
363.0376893987706
 20
107.326267764647
 42
0.0954125384354193
 10
364.7221957178562
 20
106.27949844446
 42
0.0916968476521026
 10
366.75
 20
105.9044584707414
 42
0.0916968476521044
 10
368.7778042821439
 20
106.27949844446
 42
0.0954125384354102
 10
370.4623106012293
 20
107.326267764647
 42
0.1011848951010554
 10
371.6069421352596
 20
108.919972586007
 42
0.1056825270815566
 10
371.9999999999998
 20
110.7588190451025
 42
0.0839403136880411
 10
371.7500000000001
 20
112.2374798638899
 42
0.1011848951010513
  0
LWPOLYLINE
  5
494
330
1E
100
AcDbEntity
  8
PEF-L125A
100
AcDbPolyline
 90
        9
 70
     0
 43
0.0
 10
361.7500000000001
 20
110.6503365635887
 42
0.108253563056347
 10
362.1220465326266
 20
108.9520710713436
 42
0.1020133445945723
 10
363.2144660940672
 20
107.4683560482494
 42
0.0942731609262402
 10
364.812975821797
 20
106.4996486735689
 42
0.0894458167924043
 10
366.75
 20
106.1503365635888
 42
0.089445816792418
 10
368.6870241782031
 20
106.4996486735692
 42
0.0942731609262365
 10
370.2855339059327
 20
107.4683560482494
 42
0.1020133445945594
 10
371.3779534673735
 20
108.9520710713436
 42
0.1082535630563308
 10
371.7500000000001
 20
110.6503365635887
 42
0.1082535630563452
  0
LWPOLYLINE
  5
49F
330
1E
100
AcDbEntity
  8
PEF-L125A
100
AcDbPolyline
 90
        2
 70
     0
 43
0.0
 10
361.7500000000001
 20
112.2374798638899
 42
0.0839403136880476
 10
361.4999999999998
 20
110.7588190451025
 42
0.1056825270815721
  0
LINE
  5
4A3
330
1E
100
AcDbEntity
  8
PEF-L125A
100
AcDbLine
 10
361.75
 20
110.6503365635887
 30
0.0
 11
361.75
 21
112.5328799656493
 31
0.0
  0
LINE
  5
4A4
330
1E
100
AcDbEntity
  8
PEF-L125A
100
AcDbLine
 10
371.75
 20
110.6503365635887
 30
0.0
 11
371.75
 21
112.5328799656493
 31
0.0
  0
LINE
  5
4A5
330
1E
100
AcDbEntity
  8
PEF-L125A
100
AcDbLine
 10
396.2499999999998
 20
127.5
 30
0.0
 11
387.2499999999999
 21
127.4999999999999
 31
0.0
  0
LINE
  5
4A6
330
1E
100
AcDbEntity
  8
PEF-L125A
100
AcDbLine
 10
386.75
 20
127.0
 30
0.0
 11
396.75
 21
126.9999999999999
 31
0.0
  0
LINE
  5
4A7
330
1E
100
AcDbEntity
  8
PEF-L125A
100
AcDbLine
 10
384.25
 20
129.5
 30
0.0
 11
389.7499999999999
 21
129.5
 31
0.0
  0
LINE
  5
4A8
330
1E
100
AcDbEntity
  8
PEF-L125A
100
AcDbLine
 10
386.75
 20
127.0
 30
0.0
 11
386.75
 21
121.5
 31
0.0
  0
LINE
  5
4A9
330
1E
100
AcDbEntity
  8
PEF-L125A
100
AcDbLine
 10
382.2499999999999
 20
124.5
 30
0.0
 11
382.2499999999999
 21
121.5
 31
0.0
  0
LINE
  5
4AA
330
1E
100
AcDbEntity
  8
PEF-L125A
100
AcDbLine
 10
379.9999999999999
 20
124.4544896495022
 30
0.0
 11
379.9999999999998
 21
122.4544896495022
 31
0.0
  0
ARC
  5
4AB
330
1E
100
AcDbEntity
  8
PEF-L125A
100
AcDbCircle
 10
384.25
 20
121.5
 30
0.0
 40
2.0
100
AcDbArc
 50
180.0
 51
270.0
  0
ARC
  5
4AC
330
1E
100
AcDbEntity
  8
PEF-L125A
100
AcDbCircle
 10
385.2499999999998
 20
122.5
 30
0.0
 40
1.0
100
AcDbArc
 50
180.0
 51
270.0
  0
LINE
  5
4AD
330
1E
100
AcDbEntity
  8
PEF-L125A
100
AcDbLine
 10
379.9999999999998
 20
124.4544896495022
 30
0.0
 11
382.2499999999999
 21
124.4544896495022
 31
0.0
  0
LINE
  5
4AE
330
1E
100
AcDbEntity
  8
PEF-L125A
100
AcDbLine
 10
386.75
 20
127.0
 30
0.0
 11
387.2499999999999
 21
127.4999999999999
 31
0.0
  0
LINE
  5
4AF
330
1E
100
AcDbEntity
  8
PEF-L125A
100
AcDbLine
 10
396.75
 20
121.5
 30
0.0
 11
396.75
 21
126.9999999999999
 31
0.0
  0
LINE
  5
4B0
330
1E
100
AcDbEntity
  8
PEF-L125A
100
AcDbLine
 10
389.7499999999999
 20
129.5
 30
0.0
 11
390.2499999999998
 21
129.9999999999999
 31
0.0
  0
LINE
  5
4B1
330
1E
100
AcDbEntity
  8
PEF-L125A
100
AcDbLine
 10
396.75
 20
126.9999999999999
 30
0.0
 11
396.2499999999998
 21
127.5
 31
0.0
  0
LWPOLYLINE
  5
4B2
330
1E
100
AcDbEntity
  8
PEF-L125A
100
AcDbPolyline
 90
        9
 70
     0
 43
0.0
 10
361.7500000000001
 20
144.4577404837062
 42
0.108253563056347
 10
362.1220465326266
 20
142.7594749914611
 42
0.1020133445945723
 10
363.2144660940672
 20
141.2757599683668
 42
0.0942731609262402
 10
364.812975821797
 20
140.3070525936865
 42
0.0894458167924043
 10
366.75
 20
139.9577404837062
 42
0.089445816792418
 10
368.6870241782031
 20
140.3070525936865
 42
0.0942731609262365
 10
370.2855339059327
 20
141.2757599683668
 42
0.1020133445945594
 10
371.3779534673735
 20
142.7594749914611
 42
0.1082535630563308
 10
371.7500000000001
 20
144.4577404837062
 42
0.1082535630563452
  0
LWPOLYLINE
  5
4BD
330
1E
100
AcDbEntity
  8
PEF-L125A
100
AcDbPolyline
 90
       10
 70
     0
 43
0.0
 10
361.4999999999998
 20
144.5662229652197
 42
0.1056825270815721
 10
361.8930578647404
 20
142.7273765061241
 42
0.1011848951010407
 10
363.0376893987706
 20
141.1336716847646
 42
0.0954125384354193
 10
364.7221957178562
 20
140.0869023645773
 42
0.0916968476521026
 10
366.75
 20
139.7118623908589
 42
0.0916968476521044
 10
368.7778042821439
 20
140.0869023645773
 42
0.0954125384354102
 10
370.4623106012293
 20
141.1336716847646
 42
0.1011848951010554
 10
371.6069421352596
 20
142.7273765061245
 42
0.1056825270815566
 10
371.9999999999998
 20
144.5662229652197
 42
0.0839403136880411
 10
371.7500000000001
 20
146.0448837840073
 42
0.1011848951010513
  0
LWPOLYLINE
  5
4C9
330
1E
100
AcDbEntity
  8
PEF-L125A
100
AcDbPolyline
 90
       16
 70
     1
 43
0.0
 10
371.25
 20
146.3402838857665
 42
0.1100374112988379
 10
370.9166054913282
 20
147.8368553098112
 42
0.1025479257535734
 10
369.9319805153393
 20
149.1516973704324
 42
0.0934739426362013
 10
368.4967822636756
 20
150.0066246392824
 42
0.0879343631042792
 10
366.75
 20
150.3162229652199
 42
0.0879343631042764
 10
365.0032177363244
 20
150.0066246392824
 42
0.0934739426361925
 10
363.5680194846604
 20
149.1516973704324
 42
0.1025479257535752
 10
362.5833945086717
 20
147.8368553098115
 42
0.1100374112988643
 10
362.25
 20
146.3402838857665
 42
0.1100374112988765
 10
362.5833945086717
 20
144.8437124617217
 42
0.1025479257535735
 10
363.5680194846604
 20
143.5288704011008
 42
0.0934739426361999
 10
365.0032177363244
 20
142.6739431322511
 42
0.0879343631042844
 10
366.75
 20
142.3643448063135
 42
0.0879343631042895
 10
368.4967822636757
 20
142.6739431322511
 42
0.0934739426361984
 10
369.9319805153393
 20
143.5288704011008
 42
0.1025479257535805
 10
370.9166054913281
 20
144.8437124617217
 42
0.1100374112988664
  0
LWPOLYLINE
  5
4DB
330
1E
100
AcDbEntity
  8
PEF-L125A
100
AcDbPolyline
 90
       16
 70
     1
 43
0.0
 10
371.7500000000001
 20
146.3402838857665
 42
0.1082535630563452
 10
371.3779534673732
 20
148.038549378012
 42
0.1020133445945677
 10
370.2855339059327
 20
149.5222644011062
 42
0.0942731609262599
 10
368.6870241782028
 20
150.4909717757863
 42
0.0894458167924258
 10
366.75
 20
150.8402838857666
 42
0.089445816792418
 10
364.8129758217968
 20
150.4909717757863
 42
0.094273160926236
 10
363.2144660940672
 20
149.5222644011062
 42
0.1020133445945803
 10
362.1220465326266
 20
148.038549378012
 42
0.1082535630563614
 10
361.7500000000001
 20
146.3402838857665
 42
0.108253563056347
 10
362.1220465326266
 20
144.6420183935215
 42
0.1020133445945723
 10
363.2144660940672
 20
143.1583033704273
 42
0.0942731609262402
 10
364.812975821797
 20
142.1895959957469
 42
0.0894458167924043
 10
366.75
 20
141.8402838857667
 42
0.089445816792418
 10
368.6870241782031
 20
142.189595995747
 42
0.0942731609262365
 10
370.2855339059327
 20
143.1583033704273
 42
0.1020133445945594
 10
371.3779534673735
 20
144.6420183935215
 42
0.1082535630563308
  0
LWPOLYLINE
  5
4ED
330
1E
100
AcDbEntity
  8
PEF-L125A
100
AcDbPolyline
 90
        6
 70
     1
 43
0.0
 10
364.25
 20
146.3402838857665
 10
365.5000000000001
 20
144.1752203763055
 10
367.9999999999999
 20
144.1752203763055
 10
369.2500000000001
 20
146.3402838857665
 10
367.9999999999999
 20
148.5053473952278
 10
365.5000000000001
 20
148.5053473952278
  0
LWPOLYLINE
  5
4F5
330
1E
100
AcDbEntity
  8
PEF-L125A
100
AcDbPolyline
 90
        4
 70
     0
 43
0.0
 10
369.1056624327027
 20
146.0902838857668
 10
367.9999999999999
 20
148.0053473952279
 10
365.5000000000001
 20
148.0053473952279
 10
364.3943375672975
 20
146.0902838857668
  0
LINE
  5
4FB
330
1E
100
AcDbEntity
  8
PEF-L125A
100
AcDbLine
 10
361.75
 20
144.4577404837062
 30
0.0
 11
361.75
 21
146.3402838857665
 31
0.0
  0
LWPOLYLINE
  5
4FC
330
1E
100
AcDbEntity
  8
PEF-L125A
100
AcDbPolyline
 90
        2
 70
     0
 43
0.0
 10
361.7500000000001
 20
146.0448837840073
 42
0.0839403136880476
 10
361.4999999999998
 20
144.5662229652197
 42
0.1056825270815721
  0
LINE
  5
500
330
1E
100
AcDbEntity
  8
PEF-L125A
100
AcDbLine
 10
371.75
 20
144.4577404837062
 30
0.0
 11
371.75
 21
146.3402838857665
 31
0.0
  0
LINE
  5
501
330
1E
100
AcDbEntity
  8
PEF-L125A
100
AcDbLine
 10
389.7499999999999
 20
139.4999999999997
 30
0.0
 11
384.25
 21
139.4999999999997
 31
0.0
  0
LINE
  5
502
330
1E
100
AcDbEntity
  8
PEF-L125A
  6
CENTER
100
AcDbLine
 10
380.5
 20
134.4544896495021
 30
0.0
 11
393.0828206272157
 21
134.4544896495021
 31
0.0
  0
LINE
  5
503
330
1E
100
AcDbEntity
  8
PEF-L125A
100
AcDbLine
 10
389.7499999999999
 20
139.4999999999997
 30
0.0
 11
390.2499999999998
 21
138.9999999999997
 31
0.0
  0
LINE
  5
504
330
1E
100
AcDbEntity
  8
PEF-L125A
100
AcDbLine
 10
384.25
 20
144.25
 30
0.0
 11
382.2499999999999
 21
144.25
 31
0.0
  0
LINE
  5
505
330
1E
100
AcDbEntity
  8
PEF-L125A
100
AcDbLine
 10
401.75
 20
97.5
 30
0.0
 11
401.75
 21
119.5
 31
0.0
  0
LWPOLYLINE
  5
508
330
1E
100
AcDbEntity
  8
PEF-L125A
100
AcDbPolyline
 90
        7
 70
     0
 43
0.0
 10
384.2500000000001
 20
209.2868512110725
 42
-0.1261702732518448
 10
398.3551756450176
 20
208.3375142621131
 42
-0.2098550644116466
 10
404.8529411764706
 20
202.4999999999999
 42
-0.1234764131504746
 10
407.0467753143073
 20
190.4066483144203
 42
0.1272428020929823
 10
409.2647058823529
 20
178.6764705882353
 42
0.0216269221245116
 10
413.6691146324396
 20
170.2830089458059
 42
-0.0241989224772119
 10
416.9343744470341
 20
163.9818931058699
 42
-0.0329541313924982
  0
LWPOLYLINE
  5
511
330
1E
100
AcDbEntity
  8
PEF-L125A
100
AcDbPolyline
 90
        8
 70
     0
 43
0.0
 10
384.264705882353
 20
215.4411764705882
 42
-0.1404571468492371
 10
401.1269575283542
 20
214.2018845366628
 42
-0.2194176430029708
 10
409.2647058823529
 20
206.6176470588235
 42
-0.1077373196251919
 10
412.3211504767089
 20
194.025199602323
 42
0.1237762786564543
 10
413.6764705882352
 20
182.7941176470588
 42
0.021626922124514
 10
418.0808793383219
 20
174.4006560046294
 42
-0.0264432166651876
 10
421.6176470588235
 20
167.5
 42
-0.0083871039092308
 10
422.0320017708298
 20
166.5307067677676
 42
-0.0188468969150609
  0
ARC
  5
51C
330
1E
100
AcDbEntity
  8
PEF-L125A
100
AcDbCircle
 10
321.25
 20
206.4544896495022
 30
0.0
 40
2.0
100
AcDbArc
 50
180.0
 51
270.0
  0
ARC
  5
51D
330
1E
100
AcDbEntity
  8
PEF-L125A
100
AcDbCircle
 10
321.25
 20
218.4544896495022
 30
0.0
 40
2.0
100
AcDbArc
 50
90.0
 51
180.0
  0
LINE
  5
51E
330
1E
100
AcDbEntity
  8
PEF-L125A
100
AcDbLine
 10
319.2499999999998
 20
206.4544896495022
 30
0.0
 11
319.2499999999998
 21
218.4544896495022
 31
0.0
  0
TEXT
  5
523
330
1E
100
AcDbEntity
  8
PEF-L125A
100
AcDbText
 10
249.75
 20
258.975
 30
0.0
 40
3.149999999999999
  1
이송방향
100
AcDbText
  0
LINE
  5
524
330
1E
100
AcDbEntity
  8
PEF-L125A
100
AcDbLine
 10
249.5
 20
257.25
 30
0.0
 11
268.75
 21
257.25
 31
0.0
  0
LINE
  5
525
330
1E
100
AcDbEntity
  8
PEF-L125A
100
AcDbLine
 10
249.5
 20
256.7499999999999
 30
0.0
 11
268.75
 21
256.7499999999999
 31
0.0
  0
LINE
  5
526
330
1E
100
AcDbEntity
  8
PEF-L125A
100
AcDbLine
 10
249.5
 20
256.7499999999999
 30
0.0
 11
249.5
 21
257.25
 31
0.0
  0
LINE
  5
528
330
1E
100
AcDbEntity
  8
PEF-L125A
100
AcDbLine
 10
273.2499999999999
 20
256.7499999999999
 30
0.0
 11
268.75
 21
256.7499999999999
 31
0.0
  0
LINE
  5
529
330
1E
100
AcDbEntity
  8
PEF-L125A
100
AcDbLine
 10
268.75
 20
258.5
 30
0.0
 11
273.2499999999999
 21
256.7499999999999
 31
0.0
  0
LINE
  5
52A
330
1E
100
AcDbEntity
  8
PEF-L125A
100
AcDbLine
 10
268.75
 20
257.25
 30
0.0
 11
268.75
 21
258.5
 31
0.0
  0
LINE
  5
52B
330
1E
100
AcDbEntity
  8
PEF-L125A
100
AcDbLine
 10
384.25
 20
206.4544896495022
 30
0.0
 11
384.25
 21
218.4544896495022
 31
0.0
  0
LINE
  5
52C
330
1E
100
AcDbEntity
  8
PEF-L125A
100
AcDbLine
 10
382.2499999999999
 20
198.0915227010648
 30
0.0
 11
382.2499999999999
 21
249.454489649502
 31
0.0
  0
LINE
  5
52D
330
1E
100
AcDbEntity
  8
PEF-L125A
100
AcDbLine
 10
379.9999999999998
 20
198.0915227010648
 30
0.0
 11
379.9999999999998
 21
249.454489649502
 31
0.0
  0
LINE
  5
52E
330
1E
100
AcDbEntity
  8
PEF-L125A
100
AcDbLine
 10
321.25
 20
198.0915227010648
 30
0.0
 11
321.25
 21
249.454489649502
 31
0.0
  0
LINE
  5
52F
330
1E
100
AcDbEntity
  8
PEF-L125A
100
AcDbLine
 10
323.5000000000001
 20
198.0915227010648
 30
0.0
 11
323.5000000000001
 21
249.454489649502
 31
0.0
  0
LWPOLYLINE
  5
530
330
1E
100
AcDbEntity
  8
PEF-L125A
100
AcDbPolyline
 90
       10
 70
     0
 43
0.0
 10
331.4999999999998
 20
212.3677429670581
 42
0.1056825270815721
 10
331.8930578647404
 20
210.5288965079624
 42
0.1011848951010407
 10
333.0376893987706
 20
208.9351916866028
 42
0.0954125384354193
 10
334.722195717856
 20
207.8884223664157
 42
0.0916968476521026
 10
336.7499999999999
 20
207.513382392697
 42
0.0916968476521044
 10
338.7778042821439
 20
207.8884223664157
 42
0.0954125384354102
 10
340.4623106012293
 20
208.9351916866028
 42
0.1011848951010554
 10
341.6069421352597
 20
210.5288965079627
 42
0.1056825270815566
 10
341.9999999999999
 20
212.3677429670581
 42
0.0839403136880411
 10
341.7499999999999
 20
213.8464037858454
 42
0.1011848951010513
  0
LWPOLYLINE
  5
53C
330
1E
100
AcDbEntity
  8
PEF-L125A
100
AcDbPolyline
 90
        9
 70
     0
 43
0.0
 10
331.7499999999999
 20
212.2592604855445
 42
0.108253563056347
 10
332.1220465326267
 20
210.5609949932993
 42
0.1020133445945723
 10
333.2144660940672
 20
209.0772799702049
 42
0.0942731609262402
 10
334.8129758217969
 20
208.1085725955246
 42
0.0894458167924043
 10
336.7499999999999
 20
207.7592604855445
 42
0.089445816792418
 10
338.6870241782028
 20
208.1085725955247
 42
0.0942731609262365
 10
340.2855339059326
 20
209.0772799702049
 42
0.1020133445945594
 10
341.3779534673732
 20
210.5609949932993
 42
0.1082535630563308
 10
341.7499999999999
 20
212.2592604855445
 42
0.1082535630563452
  0
LWPOLYLINE
  5
547
330
1E
100
AcDbEntity
  8
PEF-L125A
100
AcDbPolyline
 90
       16
 70
     1
 43
0.0
 10
341.7499999999999
 20
214.1418038876051
 42
0.1082535630563452
 10
341.3779534673732
 20
215.8400693798501
 42
0.1020133445945677
 10
340.2855339059326
 20
217.3237844029445
 42
0.0942731609262599
 10
338.6870241782028
 20
218.2924917776246
 42
0.0894458167924258
 10
336.7499999999999
 20
218.6418038876049
 42
0.089445816792418
 10
334.8129758217968
 20
218.2924917776246
 42
0.094273160926236
 10
333.2144660940672
 20
217.3237844029445
 42
0.1020133445945803
 10
332.1220465326267
 20
215.8400693798501
 42
0.1082535630563614
 10
331.7499999999999
 20
214.1418038876051
 42
0.108253563056347
 10
332.1220465326267
 20
212.4435383953596
 42
0.1020133445945723
 10
333.2144660940672
 20
210.9598233722654
 42
0.0942731609262402
 10
334.8129758217969
 20
209.9911159975852
 42
0.0894458167924043
 10
336.7499999999999
 20
209.6418038876048
 42
0.089445816792418
 10
338.6870241782028
 20
209.9911159975853
 42
0.0942731609262365
 10
340.2855339059326
 20
210.9598233722654
 42
0.1020133445945594
 10
341.3779534673732
 20
212.4435383953596
 42
0.1082535630563308
  0
LWPOLYLINE
  5
559
330
1E
100
AcDbEntity
  8
PEF-L125A
100
AcDbPolyline
 90
        6
 70
     1
 43
0.0
 10
334.2499999999998
 20
214.1418038876051
 10
335.4999999999998
 20
211.9767403781439
 10
337.9999999999999
 20
211.9767403781439
 10
339.2499999999998
 20
214.1418038876051
 10
337.9999999999999
 20
216.306867397066
 10
335.4999999999998
 20
216.306867397066
  0
LWPOLYLINE
  5
561
330
1E
100
AcDbEntity
  8
PEF-L125A
100
AcDbPolyline
 90
       16
 70
     1
 43
0.0
 10
341.25
 20
214.1418038876051
 42
0.1100374112988379
 10
340.9166054913283
 20
215.6383753116495
 42
0.1025479257535734
 10
339.9319805153393
 20
216.9532173722708
 42
0.0934739426362013
 10
338.4967822636756
 20
217.8081446411208
 42
0.0879343631042792
 10
336.7499999999999
 20
218.1177429670581
 42
0.0879343631042764
 10
335.0032177363243
 20
217.8081446411208
 42
0.0934739426361925
 10
333.5680194846604
 20
216.9532173722708
 42
0.1025479257535752
 10
332.5833945086718
 20
215.6383753116499
 42
0.1100374112988643
 10
332.2500000000001
 20
214.1418038876051
 42
0.1100374112988765
 10
332.5833945086718
 20
212.6452324635601
 42
0.1025479257535735
 10
333.5680194846604
 20
211.3303904029392
 42
0.0934739426361999
 10
335.0032177363243
 20
210.4754631340893
 42
0.0879343631042844
 10
336.7499999999999
 20
210.1658648081519
 42
0.0879343631042895
 10
338.4967822636757
 20
210.4754631340893
 42
0.0934739426361984
 10
339.9319805153393
 20
211.3303904029392
 42
0.1025479257535805
 10
340.9166054913281
 20
212.6452324635601
 42
0.1100374112988664
  0
LWPOLYLINE
  5
573
330
1E
100
AcDbEntity
  8
PEF-L125A
100
AcDbPolyline
 90
        9
 70
     0
 43
0.0
 10
361.7500000000001
 20
212.2592604855445
 42
0.108253563056347
 10
362.1220465326266
 20
210.5609949932993
 42
0.1020133445945723
 10
363.2144660940672
 20
209.0772799702049
 42
0.0942731609262402
 10
364.812975821797
 20
208.1085725955246
 42
0.0894458167924043
 10
366.75
 20
207.7592604855445
 42
0.089445816792418
 10
368.6870241782031
 20
208.1085725955247
 42
0.0942731609262365
 10
370.2855339059327
 20
209.0772799702049
 42
0.1020133445945594
 10
371.3779534673735
 20
210.5609949932993
 42
0.1082535630563308
 10
371.7500000000001
 20
212.2592604855445
 42
0.1082535630563452
  0
LWPOLYLINE
  5
57E
330
1E
100
AcDbEntity
  8
PEF-L125A
100
AcDbPolyline
 90
       10
 70
     0
 43
0.0
 10
361.4999999999998
 20
212.3677429670581
 42
0.1056825270815721
 10
361.8930578647404
 20
210.5288965079624
 42
0.1011848951010407
 10
363.0376893987706
 20
208.9351916866028
 42
0.0954125384354193
 10
364.7221957178562
 20
207.8884223664157
 42
0.0916968476521026
 10
366.75
 20
207.513382392697
 42
0.0916968476521044
 10
368.7778042821439
 20
207.8884223664157
 42
0.0954125384354102
 10
370.4623106012293
 20
208.9351916866028
 42
0.1011848951010554
 10
371.6069421352596
 20
210.5288965079627
 42
0.1056825270815566
 10
371.9999999999998
 20
212.3677429670581
 42
0.0839403136880411
 10
371.7500000000001
 20
213.8464037858454
 42
0.1011848951010513
  0
LWPOLYLINE
  5
58A
330
1E
100
AcDbEntity
  8
PEF-L125A
100
AcDbPolyline
 90
       16
 70
     1
 43
0.0
 10
371.25
 20
214.1418038876051
 42
0.1100374112988379
 10
370.9166054913282
 20
215.6383753116495
 42
0.1025479257535734
 10
369.9319805153393
 20
216.9532173722708
 42
0.0934739426362013
 10
368.4967822636756
 20
217.8081446411208
 42
0.0879343631042792
 10
366.75
 20
218.1177429670581
 42
0.0879343631042764
 10
365.0032177363244
 20
217.8081446411208
 42
0.0934739426361925
 10
363.5680194846604
 20
216.9532173722708
 42
0.1025479257535752
 10
362.5833945086717
 20
215.6383753116499
 42
0.1100374112988643
 10
362.25
 20
214.1418038876051
 42
0.1100374112988765
 10
362.5833945086717
 20
212.6452324635601
 42
0.1025479257535735
 10
363.5680194846604
 20
211.3303904029392
 42
0.0934739426361999
 10
365.0032177363244
 20
210.4754631340893
 42
0.0879343631042844
 10
366.75
 20
210.1658648081519
 42
0.0879343631042895
 10
368.4967822636757
 20
210.4754631340893
 42
0.0934739426361984
 10
369.9319805153393
 20
211.3303904029392
 42
0.1025479257535805
 10
370.9166054913281
 20
212.6452324635601
 42
0.1100374112988664
  0
LWPOLYLINE
  5
59C
330
1E
100
AcDbEntity
  8
PEF-L125A
100
AcDbPolyline
 90
        6
 70
     1
 43
0.0
 10
364.25
 20
214.1418038876051
 10
365.5000000000001
 20
211.9767403781439
 10
367.9999999999999
 20
211.9767403781439
 10
369.2500000000001
 20
214.1418038876051
 10
367.9999999999999
 20
216.306867397066
 10
365.5000000000001
 20
216.306867397066
  0
LWPOLYLINE
  5
5A4
330
1E
100
AcDbEntity
  8
PEF-L125A
100
AcDbPolyline
 90
       16
 70
     1
 43
0.0
 10
371.7500000000001
 20
214.1418038876051
 42
0.1082535630563452
 10
371.3779534673732
 20
215.8400693798501
 42
0.1020133445945677
 10
370.2855339059327
 20
217.3237844029445
 42
0.0942731609262599
 10
368.6870241782028
 20
218.2924917776246
 42
0.0894458167924258
 10
366.75
 20
218.6418038876049
 42
0.089445816792418
 10
364.8129758217968
 20
218.2924917776246
 42
0.094273160926236
 10
363.2144660940672
 20
217.3237844029445
 42
0.1020133445945803
 10
362.1220465326266
 20
215.8400693798501
 42
0.1082535630563614
 10
361.7500000000001
 20
214.1418038876051
 42
0.108253563056347
 10
362.1220465326266
 20
212.4435383953596
 42
0.1020133445945723
 10
363.2144660940672
 20
210.9598233722654
 42
0.0942731609262402
 10
364.812975821797
 20
209.9911159975852
 42
0.0894458167924043
 10
366.75
 20
209.6418038876048
 42
0.089445816792418
 10
368.6870241782031
 20
209.9911159975853
 42
0.0942731609262365
 10
370.2855339059327
 20
210.9598233722654
 42
0.1020133445945594
 10
371.3779534673735
 20
212.4435383953596
 42
0.1082535630563308
  0
LINE
  5
5B6
330
1E
100
AcDbEntity
  8
PEF-L125A
100
AcDbLine
 10
326.7499999999999
 20
221.3222326165602
 30
0.0
 11
326.7499999999999
 21
198.0915227010648
 31
0.0
  0
LINE
  5
5B7
330
1E
100
AcDbEntity
  8
PEF-L125A
100
AcDbLine
 10
376.75
 20
221.3222326165602
 30
0.0
 11
376.75
 21
198.0915227010651
 31
0.0
  0
LINE
  5
5B8
330
1E
100
AcDbEntity
  8
PEF-L125A
100
AcDbLine
 10
353.7499999999998
 20
159.4544896495022
 30
0.0
 11
382.2499999999999
 21
159.4544896495022
 31
0.0
  0
LINE
  5
5B9
330
1E
100
AcDbEntity
  8
PEF-L125A
100
AcDbLine
 10
353.7499999999998
 20
198.0915227010651
 30
0.0
 11
382.2499999999999
 21
198.0915227010651
 31
0.0
  0
LINE
  5
5BA
330
1E
100
AcDbEntity
  8
PEF-L125A
100
AcDbLine
 10
326.7499999999999
 20
203.4509192108686
 30
0.0
 11
376.75
 21
203.4509192108686
 31
0.0
  0
LINE
  5
5BB
330
1E
100
AcDbEntity
  8
PEF-L125A
100
AcDbLine
 10
326.7499999999999
 20
204.6156049138299
 30
0.0
 11
376.75
 21
204.6156049138299
 31
0.0
  0
LINE
  5
5BC
330
1E
100
AcDbEntity
  8
PEF-L125A
100
AcDbLine
 10
321.25
 20
198.0915227010651
 30
0.0
 11
321.25
 21
159.4544896495022
 31
0.0
  0
LINE
  5
5BD
330
1E
100
AcDbEntity
  8
PEF-L125A
100
AcDbLine
 10
350.7499999999998
 20
197.0915227010649
 30
0.0
 11
350.7499999999998
 21
160.4544896495022
 31
0.0
  0
LINE
  5
5BE
330
1E
100
AcDbEntity
  8
PEF-L125A
100
AcDbLine
 10
352.7499999999998
 20
197.0915227010649
 30
0.0
 11
352.7499999999998
 21
160.4544896495022
 31
0.0
  0
LINE
  5
5BF
330
1E
100
AcDbEntity
  8
PEF-L125A
100
AcDbLine
 10
321.25
 20
159.4544896495022
 30
0.0
 11
349.7499999999999
 21
159.4544896495022
 31
0.0
  0
ARC
  5
5C0
330
1E
100
AcDbEntity
  8
PEF-L125A
100
AcDbCircle
 10
349.7499999999999
 20
160.4544896495022
 30
0.0
 40
1.0
100
AcDbArc
 50
270.0
 51
0.0
  0
ARC
  5
5C1
330
1E
100
AcDbEntity
  8
PEF-L125A
100
AcDbCircle
 10
353.7499999999998
 20
160.4544896495022
 30
0.0
 40
1.0
100
AcDbArc
 50
180.0
 51
270.0
  0
LINE
  5
5C2
330
1E
100
AcDbEntity
  8
PEF-L125A
100
AcDbLine
 10
321.25
 20
198.0915227010648
 30
0.0
 11
349.7499999999999
 21
198.0915227010651
 31
0.0
  0
ARC
  5
5C3
330
1E
100
AcDbEntity
  8
PEF-L125A
100
AcDbCircle
 10
353.7499999999998
 20
197.0915227010649
 30
0.0
 40
1.0
100
AcDbArc
 50
90.0
 51
180.0
  0
ARC
  5
5C4
330
1E
100
AcDbEntity
  8
PEF-L125A
100
AcDbCircle
 10
349.7499999999999
 20
197.0915227010649
 30
0.0
 40
1.0
100
AcDbArc
 50
0.0
 51
90.0
  0
LINE
  5
5C5
330
1E
100
AcDbEntity
  8
PEF-L125A
100
AcDbLine
 10
382.2499999999999
 20
198.0915227010651
 30
0.0
 11
382.2499999999999
 21
159.4544896495022
 31
0.0
  0
ARC
  5
5C6
330
1E
100
AcDbEntity
  8
PEF-L125A
100
AcDbCircle
 10
382.2499999999999
 20
206.4544896495022
 30
0.0
 40
2.0
100
AcDbArc
 50
270.0
 51
0.0
  0
LINE
  5
5C8
330
1E
100
AcDbEntity
  8
PEF-L125A
100
AcDbLine
 10
326.7499999999999
 20
221.3222326165602
 30
0.0
 11
376.75
 21
221.3222326165602
 31
0.0
  0
LINE
  5
5C9
330
1E
100
AcDbEntity
  8
PEF-L125A
100
AcDbLine
 10
326.7499999999999
 20
231.5831762438105
 30
0.0
 11
376.75
 21
231.5831762438105
 31
0.0
  0
LINE
  5
5CA
330
1E
100
AcDbEntity
  8
PEF-L125A
100
AcDbLine
 10
326.7499999999999
 20
232.7478619467718
 30
0.0
 11
376.75
 21
232.7478619467718
 31
0.0
  0
LINE
  5
5CB
330
1E
100
AcDbEntity
  8
PEF-L125A
100
AcDbLine
 10
326.7499999999999
 20
249.454489649502
 30
0.0
 11
376.75
 21
249.454489649502
 31
0.0
  0
LINE
  5
5CC
330
1E
100
AcDbEntity
  8
PEF-L125A
100
AcDbLine
 10
324.2499999999998
 20
252.4999999999999
 30
0.0
 11
379.25
 21
252.4999999999999
 31
0.0
  0
LWPOLYLINE
  5
5CD
330
1E
100
AcDbEntity
  8
PEF-L125A
100
AcDbPolyline
 90
        9
 70
     0
 43
0.0
 10
331.7499999999999
 20
240.3915175184864
 42
0.108253563056347
 10
332.1220465326267
 20
238.6932520262411
 42
0.1020133445945723
 10
333.2144660940672
 20
237.209537003147
 42
0.0942731609262402
 10
334.8129758217969
 20
236.2408296284665
 42
0.0894458167924043
 10
336.7499999999999
 20
235.8915175184864
 42
0.089445816792418
 10
338.6870241782028
 20
236.2408296284667
 42
0.0942731609262365
 10
340.2855339059326
 20
237.209537003147
 42
0.1020133445945594
 10
341.3779534673732
 20
238.6932520262411
 42
0.1082535630563308
 10
341.7499999999999
 20
240.3915175184864
 42
0.1082535630563452
  0
LWPOLYLINE
  5
5D8
330
1E
100
AcDbEntity
  8
PEF-L125A
100
AcDbPolyline
 90
       10
 70
     0
 43
0.0
 10
331.4999999999998
 20
240.5
 42
0.1056825270815721
 10
331.8930578647404
 20
238.6611535409043
 42
0.1011848951010407
 10
333.0376893987706
 20
237.0674487195445
 42
0.0954125384354193
 10
334.722195717856
 20
236.0206793993575
 42
0.0916968476521026
 10
336.7499999999999
 20
235.6456394256388
 42
0.0916968476521044
 10
338.7778042821439
 20
236.0206793993575
 42
0.0954125384354102
 10
340.4623106012293
 20
237.0674487195445
 42
0.1011848951010554
 10
341.6069421352597
 20
238.6611535409046
 42
0.1056825270815566
 10
341.9999999999999
 20
240.5
 42
0.0839403136880411
 10
341.7499999999999
 20
241.9786608187874
 42
0.1011848951010513
  0
LWPOLYLINE
  5
5E4
330
1E
100
AcDbEntity
  8
PEF-L125A
100
AcDbPolyline
 90
       16
 70
     1
 43
0.0
 10
341.25
 20
242.2740609205469
 42
0.1100374112988379
 10
340.9166054913283
 20
243.7706323445914
 42
0.1025479257535734
 10
339.9319805153393
 20
245.0854744052127
 42
0.0934739426362013
 10
338.4967822636756
 20
245.9404016740625
 42
0.0879343631042792
 10
336.7499999999999
 20
246.2499999999999
 42
0.0879343631042764
 10
335.0032177363243
 20
245.9404016740625
 42
0.0934739426361925
 10
333.5680194846604
 20
245.0854744052127
 42
0.1025479257535752
 10
332.5833945086718
 20
243.7706323445915
 42
0.1100374112988643
 10
332.2500000000001
 20
242.2740609205469
 42
0.1100374112988765
 10
332.5833945086718
 20
240.7774894965019
 42
0.1025479257535735
 10
333.5680194846604
 20
239.4626474358809
 42
0.0934739426361999
 10
335.0032177363243
 20
238.607720167031
 42
0.0879343631042844
 10
336.7499999999999
 20
238.2981218410937
 42
0.0879343631042895
 10
338.4967822636757
 20
238.6077201670312
 42
0.0934739426361984
 10
339.9319805153393
 20
239.4626474358809
 42
0.1025479257535805
 10
340.9166054913281
 20
240.7774894965019
 42
0.1100374112988664
  0
LWPOLYLINE
  5
5F6
330
1E
100
AcDbEntity
  8
PEF-L125A
100
AcDbPolyline
 90
       16
 70
     1
 43
0.0
 10
341.7499999999999
 20
242.2740609205469
 42
0.1082535630563452
 10
341.3779534673732
 20
243.9723264127921
 42
0.1020133445945677
 10
340.2855339059326
 20
245.4560414358863
 42
0.0942731609262599
 10
338.6870241782028
 20
246.4247488105665
 42
0.0894458167924258
 10
336.7499999999999
 20
246.7740609205469
 42
0.089445816792418
 10
334.8129758217968
 20
246.4247488105665
 42
0.094273160926236
 10
333.2144660940672
 20
245.4560414358863
 42
0.1020133445945803
 10
332.1220465326267
 20
243.9723264127921
 42
0.1082535630563614
 10
331.7499999999999
 20
242.2740609205469
 42
0.108253563056347
 10
332.1220465326267
 20
240.5757954283016
 42
0.1020133445945723
 10
333.2144660940672
 20
239.0920804052075
 42
0.0942731609262402
 10
334.8129758217969
 20
238.1233730305269
 42
0.0894458167924043
 10
336.7499999999999
 20
237.7740609205468
 42
0.089445816792418
 10
338.6870241782028
 20
238.1233730305272
 42
0.0942731609262365
 10
340.2855339059326
 20
239.0920804052075
 42
0.1020133445945594
 10
341.3779534673732
 20
240.5757954283016
 42
0.1082535630563308
  0
LINE
  5
608
330
1E
100
AcDbEntity
  8
PEF-L125A
100
AcDbLine
 10
326.7499999999999
 20
249.454489649502
 30
0.0
 11
326.7499999999999
 21
231.5831762438105
 31
0.0
  0
LINE
  5
609
330
1E
100
AcDbEntity
  8
PEF-L125A
100
AcDbLine
 10
324.2499999999998
 20
252.4999999999999
 30
0.0
 11
324.2499999999998
 21
228.5
 31
0.0
  0
LINE
  5
60A
330
1E
100
AcDbEntity
  8
PEF-L125A
100
AcDbLine
 10
326.7499999999999
 20
231.5831762438105
 30
0.0
 11
326.7499999999999
 21
221.3222326165602
 31
0.0
  0
LWPOLYLINE
  5
60B
330
1E
100
AcDbEntity
  8
PEF-L125A
100
AcDbPolyline
 90
        2
 70
     0
 43
0.0
 10
331.7499999999999
 20
213.8464037858454
 42
0.0839403136880476
 10
331.4999999999998
 20
212.3677429670581
 42
0.1056825270815721
  0
LINE
  5
60F
330
1E
100
AcDbEntity
  8
PEF-L125A
100
AcDbLine
 10
331.7499999999999
 20
212.2592604855445
 30
0.0
 11
331.7499999999999
 21
214.1418038876049
 31
0.0
  0
LWPOLYLINE
  5
610
330
1E
100
AcDbEntity
  8
PEF-L125A
100
AcDbPolyline
 90
        4
 70
     0
 43
0.0
 10
339.1056624327027
 20
213.8918038876049
 10
337.9999999999999
 20
215.806867397066
 10
335.4999999999998
 20
215.806867397066
 10
334.3943375672973
 20
213.8918038876049
  0
LINE
  5
616
330
1E
100
AcDbEntity
  8
PEF-L125A
100
AcDbLine
 10
326.7499999999999
 20
231.5831762438105
 30
0.0
 11
324.2499999999998
 21
231.5831762438105
 31
0.0
  0
LINE
  5
617
330
1E
100
AcDbEntity
  8
PEF-L125A
100
AcDbLine
 10
324.2499999999998
 20
228.5
 30
0.0
 11
326.7499999999999
 21
228.5
 31
0.0
  0
LINE
  5
618
330
1E
100
AcDbEntity
  8
PEF-L125A
100
AcDbLine
 10
341.7499999999999
 20
212.2592604855445
 30
0.0
 11
341.7499999999999
 21
214.1418038876049
 31
0.0
  0
LWPOLYLINE
  5
619
330
1E
100
AcDbEntity
  8
PEF-L125A
100
AcDbPolyline
 90
        6
 70
     1
 43
0.0
 10
334.2499999999998
 20
242.2740609205469
 10
335.4999999999998
 20
240.1089974110858
 10
337.9999999999999
 20
240.1089974110858
 10
339.2499999999998
 20
242.2740609205469
 10
337.9999999999999
 20
244.4391244300081
 10
335.4999999999998
 20
244.4391244300081
  0
LINE
  5
621
330
1E
100
AcDbEntity
  8
PEF-L125A
100
AcDbLine
 10
321.25
 20
249.454489649502
 30
0.0
 11
323.5000000000001
 21
249.454489649502
 31
0.0
  0
LINE
  5
622
330
1E
100
AcDbEntity
  8
PEF-L125A
100
AcDbLine
 10
331.7499999999999
 20
240.3915175184864
 30
0.0
 11
331.7499999999999
 21
242.2740609205469
 31
0.0
  0
LWPOLYLINE
  5
623
330
1E
100
AcDbEntity
  8
PEF-L125A
100
AcDbPolyline
 90
        2
 70
     0
 43
0.0
 10
331.7499999999999
 20
241.9786608187874
 42
0.0839403136880476
 10
331.4999999999998
 20
240.5
 42
0.1056825270815721
  0
LWPOLYLINE
  5
627
330
1E
100
AcDbEntity
  8
PEF-L125A
100
AcDbPolyline
 90
        4
 70
     0
 43
0.0
 10
339.1056624327027
 20
242.0240609205469
 10
337.9999999999999
 20
243.9391244300079
 10
335.4999999999998
 20
243.9391244300079
 10
334.3943375672973
 20
242.0240609205469
  0
LINE
  5
62F
330
1E
100
AcDbEntity
  8
PEF-L125A
100
AcDbLine
 10
341.7499999999999
 20
240.3915175184864
 30
0.0
 11
341.7499999999999
 21
242.2740609205469
 31
0.0
  0
LWPOLYLINE
  5
630
330
1E
100
AcDbEntity
  8
PEF-L125A
100
AcDbPolyline
 90
       10
 70
     0
 43
0.0
 10
361.4999999999998
 20
240.5
 42
0.1056825270815721
 10
361.8930578647404
 20
238.6611535409043
 42
0.1011848951010407
 10
363.0376893987706
 20
237.0674487195445
 42
0.0954125384354193
 10
364.7221957178562
 20
236.0206793993575
 42
0.0916968476521026
 10
366.75
 20
235.6456394256388
 42
0.0916968476521044
 10
368.7778042821439
 20
236.0206793993575
 42
0.0954125384354102
 10
370.4623106012293
 20
237.0674487195445
 42
0.1011848951010554
 10
371.6069421352596
 20
238.6611535409046
 42
0.1056825270815566
 10
371.9999999999998
 20
240.5
 42
0.0839403136880411
 10
371.7500000000001
 20
241.9786608187874
 42
0.1011848951010513
  0
LWPOLYLINE
  5
63C
330
1E
100
AcDbEntity
  8
PEF-L125A
100
AcDbPolyline
 90
        9
 70
     0
 43
0.0
 10
361.7500000000001
 20
240.3915175184864
 42
0.108253563056347
 10
362.1220465326266
 20
238.6932520262411
 42
0.1020133445945723
 10
363.2144660940672
 20
237.209537003147
 42
0.0942731609262402
 10
364.812975821797
 20
236.2408296284665
 42
0.0894458167924043
 10
366.75
 20
235.8915175184864
 42
0.089445816792418
 10
368.6870241782031
 20
236.2408296284667
 42
0.0942731609262365
 10
370.2855339059327
 20
237.209537003147
 42
0.1020133445945594
 10
371.3779534673735
 20
238.6932520262411
 42
0.1082535630563308
 10
371.7500000000001
 20
240.3915175184864
 42
0.1082535630563452
  0
LWPOLYLINE
  5
647
330
1E
100
AcDbEntity
  8
PEF-L125A
100
AcDbPolyline
 90
       16
 70
     1
 43
0.0
 10
371.25
 20
242.2740609205469
 42
0.1100374112988379
 10
370.9166054913282
 20
243.7706323445914
 42
0.1025479257535734
 10
369.9319805153393
 20
245.0854744052127
 42
0.0934739426362013
 10
368.4967822636756
 20
245.9404016740625
 42
0.0879343631042792
 10
366.75
 20
246.2499999999999
 42
0.0879343631042764
 10
365.0032177363244
 20
245.9404016740625
 42
0.0934739426361925
 10
363.5680194846604
 20
245.0854744052127
 42
0.1025479257535752
 10
362.5833945086717
 20
243.7706323445915
 42
0.1100374112988643
 10
362.25
 20
242.2740609205469
 42
0.1100374112988765
 10
362.5833945086717
 20
240.7774894965019
 42
0.1025479257535735
 10
363.5680194846604
 20
239.4626474358809
 42
0.0934739426361999
 10
365.0032177363244
 20
238.607720167031
 42
0.0879343631042844
 10
366.75
 20
238.2981218410937
 42
0.0879343631042895
 10
368.4967822636757
 20
238.6077201670312
 42
0.0934739426361984
 10
369.9319805153393
 20
239.4626474358809
 42
0.1025479257535805
 10
370.9166054913281
 20
240.7774894965019
 42
0.1100374112988664
  0
LWPOLYLINE
  5
659
330
1E
100
AcDbEntity
  8
PEF-L125A
100
AcDbPolyline
 90
       16
 70
     1
 43
0.0
 10
371.7500000000001
 20
242.2740609205469
 42
0.1082535630563452
 10
371.3779534673732
 20
243.9723264127921
 42
0.1020133445945677
 10
370.2855339059327
 20
245.4560414358863
 42
0.0942731609262599
 10
368.6870241782028
 20
246.4247488105665
 42
0.0894458167924258
 10
366.75
 20
246.7740609205469
 42
0.089445816792418
 10
364.8129758217968
 20
246.4247488105665
 42
0.094273160926236
 10
363.2144660940672
 20
245.4560414358863
 42
0.1020133445945803
 10
362.1220465326266
 20
243.9723264127921
 42
0.1082535630563614
 10
361.7500000000001
 20
242.2740609205469
 42
0.108253563056347
 10
362.1220465326266
 20
240.5757954283016
 42
0.1020133445945723
 10
363.2144660940672
 20
239.0920804052075
 42
0.0942731609262402
 10
364.812975821797
 20
238.1233730305269
 42
0.0894458167924043
 10
366.75
 20
237.7740609205468
 42
0.089445816792418
 10
368.6870241782031
 20
238.1233730305272
 42
0.0942731609262365
 10
370.2855339059327
 20
239.0920804052075
 42
0.1020133445945594
 10
371.3779534673735
 20
240.5757954283016
 42
0.1082535630563308
  0
LINE
  5
66B
330
1E
100
AcDbEntity
  8
PEF-L125A
100
AcDbLine
 10
376.75
 20
249.454489649502
 30
0.0
 11
376.75
 21
231.5831762438105
 31
0.0
  0
LINE
  5
66C
330
1E
100
AcDbEntity
  8
PEF-L125A
100
AcDbLine
 10
379.25
 20
252.4999999999999
 30
0.0
 11
379.25
 21
228.5
 31
0.0
  0
LINE
  5
66D
330
1E
100
AcDbEntity
  8
PEF-L125A
100
AcDbLine
 10
376.7499999999998
 20
228.5
 30
0.0
 11
379.25
 21
228.5
 31
0.0
  0
LINE
  5
66E
330
1E
100
AcDbEntity
  8
PEF-L125A
100
AcDbLine
 10
376.75
 20
231.5831762438105
 30
0.0
 11
379.25
 21
231.5831762438105
 31
0.0
  0
LINE
  5
66F
330
1E
100
AcDbEntity
  8
PEF-L125A
100
AcDbLine
 10
376.75
 20
231.5831762438105
 30
0.0
 11
376.75
 21
221.3222326165602
 31
0.0
  0
LWPOLYLINE
  5
670
330
1E
100
AcDbEntity
  8
PEF-L125A
100
AcDbPolyline
 90
        4
 70
     0
 43
0.0
 10
369.1056624327027
 20
213.8918038876049
 10
367.9999999999999
 20
215.806867397066
 10
365.5000000000001
 20
215.806867397066
 10
364.3943375672975
 20
213.8918038876049
  0
LINE
  5
676
330
1E
100
AcDbEntity
  8
PEF-L125A
100
AcDbLine
 10
361.75
 20
212.2592604855445
 30
0.0
 11
361.75
 21
214.1418038876049
 31
0.0
  0
LWPOLYLINE
  5
677
330
1E
100
AcDbEntity
  8
PEF-L125A
100
AcDbPolyline
 90
        2
 70
     0
 43
0.0
 10
361.7500000000001
 20
213.8464037858454
 42
0.0839403136880476
 10
361.4999999999998
 20
212.3677429670581
 42
0.1056825270815721
  0
LINE
  5
67B
330
1E
100
AcDbEntity
  8
PEF-L125A
100
AcDbLine
 10
371.75
 20
212.2592604855445
 30
0.0
 11
371.75
 21
214.1418038876049
 31
0.0
  0
ARC
  5
67C
330
1E
100
AcDbEntity
  8
PEF-L125A
100
AcDbCircle
 10
382.2499999999999
 20
218.4544896495022
 30
0.0
 40
2.0
100
AcDbArc
 50
0.0
 51
90.0
  0
LWPOLYLINE
  5
67E
330
1E
100
AcDbEntity
  8
PEF-L125A
100
AcDbPolyline
 90
        4
 70
     0
 43
0.0
 10
369.1056624327027
 20
242.0240609205469
 10
367.9999999999999
 20
243.9391244300079
 10
365.5000000000001
 20
243.9391244300079
 10
364.3943375672975
 20
242.0240609205469
  0
LWPOLYLINE
  5
684
330
1E
100
AcDbEntity
  8
PEF-L125A
100
AcDbPolyline
 90
        6
 70
     1
 43
0.0
 10
364.25
 20
242.2740609205469
 10
365.5000000000001
 20
240.1089974110858
 10
367.9999999999999
 20
240.1089974110858
 10
369.2500000000001
 20
242.2740609205469
 10
367.9999999999999
 20
244.4391244300081
 10
365.5000000000001
 20
244.4391244300081
  0
LWPOLYLINE
  5
68C
330
1E
100
AcDbEntity
  8
PEF-L125A
100
AcDbPolyline
 90
        2
 70
     0
 43
0.0
 10
361.7500000000001
 20
241.9786608187874
 42
0.0839403136880476
 10
361.4999999999998
 20
240.5
 42
0.1056825270815721
  0
LINE
  5
690
330
1E
100
AcDbEntity
  8
PEF-L125A
100
AcDbLine
 10
361.75
 20
240.3915175184864
 30
0.0
 11
361.75
 21
242.2740609205469
 31
0.0
  0
LINE
  5
691
330
1E
100
AcDbEntity
  8
PEF-L125A
100
AcDbLine
 10
371.75
 20
240.3915175184864
 30
0.0
 11
371.75
 21
242.2740609205469
 31
0.0
  0
LINE
  5
692
330
1E
100
AcDbEntity
  8
PEF-L125A
100
AcDbLine
 10
382.2499999999999
 20
249.454489649502
 30
0.0
 11
379.9999999999998
 21
249.454489649502
 31
0.0
  0
LWPOLYLINE
  5
694
330
1E
100
AcDbEntity
  8
PEF-L125A
100
AcDbPolyline
 90
        2
 70
     0
 43
0.0
 10
422.0320017708298
 20
166.5307067677676
 10
416.9343744470341
 20
163.9818931058699
  0
LINE
  5
69D
330
1E
100
AcDbEntity
  8
PEF-L125A
100
AcDbLine
 10
240.8827253634173
 20
119.5
 30
0.0
 11
237.9030007814872
 21
130.6204835323257
 31
0.0
  0
LINE
  5
69E
330
1E
100
AcDbEntity
  8
PEF-L125A
100
AcDbLine
 10
240.2615596551713
 20
119.5
 30
0.0
 11
237.5071556292104
 21
129.7795757694585
 31
0.0
  0
ENDSEC
  0
SECTION
  2
OBJECTS
  0
DICTIONARY
  5
C
330
0
100
AcDbDictionary
281
     1
  3
ACAD_COLOR
350
91D
  3
ACAD_GROUP
350
D
  3
ACAD_LAYOUT
350
19
  3
ACAD_MATERIAL
350
91C
  3
ACAD_MLINESTYLE
350
16
  3
ACAD_PLOTSETTINGS
350
18
  3
ACAD_PLOTSTYLENAME
350
E
  3
ACAD_TABLESTYLE
350
91E
  3
ACDBHEADERROUNDTRIPXREC
350
99E
  3
AcDbVariableDictionary
350
998
  3
AcmDictionary
350
985
  3
AMG
350
923
  3
AMGSNAPSETTINGS
350
991
  3
DWGPROPS
350
99D
  0
DICTIONARY
  5
8E6
330
1E
100
AcDbDictionary
280
     1
281
     1
  3
ACAD_LAYOUTSELFREF
360
917
  0
DICTIONARY
  5
8E4
330
1A
100
AcDbDictionary
280
     1
281
     1
  3
ACAD_LAYOUTSELFREF
360
916
  0
DICTIONARY
  5
91D
102
{ACAD_REACTORS
330
C
102
}
330
C
100
AcDbDictionary
281
     1
  0
DICTIONARY
  5
D
102
{ACAD_REACTORS
330
C
102
}
330
C
100
AcDbDictionary
281
     1
  0
DICTIONARY
  5
19
102
{ACAD_REACTORS
330
C
102
}
330
C
100
AcDbDictionary
281
     1
  3
Model
350
920
  3
배치1
350
921
  0
DICTIONARY
  5
91C
102
{ACAD_REACTORS
330
C
102
}
330
C
100
AcDbDictionary
281
     1
  0
DICTIONARY
  5
16
102
{ACAD_REACTORS
330
C
102
}
330
C
100
AcDbDictionary
281
     1
  3
STANDARD
350
17
  0
DICTIONARY
  5
18
102
{ACAD_REACTORS
330
C
102
}
330
C
100
AcDbDictionary
281
     1
  0
ACDBDICTIONARYWDFLT
  5
E
102
{ACAD_REACTORS
330
C
102
}
330
C
100
AcDbDictionary
281
     1
  3
Normal
350
F
100
AcDbDictionaryWithDefault
340
F
  0
DICTIONARY
  5
91E
102
{ACAD_REACTORS
330
C
102
}
330
C
100
AcDbDictionary
281
     1
  3
Standard
350
91F
  0
DICTIONARY
  5
99E
102
{ACAD_REACTORS
330
C
102
}
330
C
100
AcDbDictionary
281
     1
  0
DICTIONARY
  5
998
102
{ACAD_REACTORS
330
C
102
}
330
C
100
AcDbDictionary
281
     1
  3
CTABLESTYLE
350
999
  3
DIMASSOC
350
99A
  3
PROJECTNAME
350
99B
  0
DICTIONARY
  5
985
102
{ACAD_REACTORS
330
C
102
}
330
C
100
AcDbDictionary
281
     1
  0
DICTIONARY
  5
923
102
{ACAD_REACTORS
330
C
102
}
330
C
100
AcDbDictionary
281
     1
  0
DICTIONARY
  5
991
102
{ACAD_REACTORS
330
C
102
}
330
C
100
AcDbDictionary
281
     1
  0
XRECORD
  5
99D
102
{ACAD_REACTORS
330
C
102
}
330
C
100
AcDbXrecord
280
     1
  1
DWGPROPS COOKIE
  2

  3

  4

  6

  7

  8
한신
  9

300
=
301
=
302
=
303
=
304
=
305
=
306
=
307
=
308
=
309
=
 40
0.0136440393518519
 41
2450389.679576389
 42
2453733.367537234
  1

 90
        0
  0
XRECORD
  5
917
102
{ACAD_REACTORS
330
8E6
102
}
330
8E6
100
AcDbXrecord
280
     1
340
1E
  0
XRECORD
  5
916
102
{ACAD_REACTORS
330
8E4
102
}
330
8E4
100
AcDbXrecord
280
     1
340
1A
  0
LAYOUT
  5
920
102
{ACAD_XDICTIONARY
360
99F
102
}
102
{ACAD_REACTORS
330
19
102
}
330
19
100
AcDbPlotSettings
  1

  2
DESIGN2-KHK에서 자동 HP LaserJet 5100 PCL 6
  4

  6

 40
0.0
 41
0.0
 42
0.0
 43
0.0
 44
0.0
 45
0.0
 46
0.0
 47
0.0
 48
0.0
 49
0.0
140
0.0
141
0.0
142
1.0
143
1.0
 70
  1712
 72
     0
 73
     0
 74
     0
  7
C:\Documents and Settings\DESIGN-JW\Application Data\Autodesk\Mechanical Desktop 2005\R16.1\kor\Plot Styles\HANSHIN.ctb
 75
     0
147
1.0
148
0.0
149
0.0
100
AcDbLayout
  1
Model
 70
     1
 71
     0
 10
0.0
 20
0.0
 11
12.0
 21
9.0
 12
0.0
 22
0.0
 32
0.0
 14
0.0
 24
0.0
 34
0.0
 15
0.0
 25
0.0
 35
0.0
146
0.0
 13
0.0
 23
0.0
 33
0.0
 16
1.0
 26
0.0
 36
0.0
 17
0.0
 27
1.0
 37
0.0
 76
     0
330
1E
  0
LAYOUT
  5
921
102
{ACAD_XDICTIONARY
360
9A1
102
}
102
{ACAD_REACTORS
330
19
102
}
330
19
100
AcDbPlotSettings
  1

  2
DESIGN2-KHK에서 자동 HP LaserJet 5100 PCL 6
  4

  6

 40
0.0
 41
0.0
 42
0.0
 43
0.0
 44
0.0
 45
0.0
 46
0.0
 47
0.0
 48
0.0
 49
0.0
140
0.0
141
0.0
142
1.0
143
1.0
 70
   688
 72
     0
 73
     0
 74
     5
  7
C:\Documents and Settings\DESIGN-JW\Application Data\Autodesk\Mechanical Desktop 2005\R16.1\kor\Plot Styles\HANSHIN.ctb
 75
    16
147
1.0
148
0.0
149
0.0
100
AcDbLayout
  1
배치1
 70
     1
 71
     1
 10
0.0
 20
0.0
 11
12.0
 21
9.0
 12
0.0
 22
0.0
 32
0.0
 14
1.000000000000000E+20
 24
1.000000000000000E+20
 34
1.000000000000000E+20
 15
-1.000000000000000E+20
 25
-1.000000000000000E+20
 35
-1.000000000000000E+20
146
0.0
 13
0.0
 23
0.0
 33
0.0
 16
1.0
 26
0.0
 36
0.0
 17
0.0
 27
1.0
 37
0.0
 76
     0
330
1A
  0
MLINESTYLE
  5
17
102
{ACAD_REACTORS
330
16
102
}
330
16
100
AcDbMlineStyle
  2
STANDARD
 70
     0
  3

 62
   256
 51
90.0
 52
90.0
 71
     2
 49
0.5
 62
   256
  6
BYLAYER
 49
-0.5
 62
   256
  6
BYLAYER
  0
ACDBPLACEHOLDER
  5
F
102
{ACAD_REACTORS
330
E
102
}
330
E
  0
TABLESTYLE
  5
91F
102
{ACAD_REACTORS
330
91E
102
}
330
91E
100
AcDbTableStyle
  3
Standard
 70
     0
 71
     0
 40
0.06
 41
0.06
280
     0
281
     0
  7
STANDARD
140
0.18
170
     2
 62
     0
 63
     7
283
     0
274
    -2
284
     1
 64
     0
275
    -2
285
     1
 65
     0
276
    -2
286
     1
 66
     0
277
    -2
287
     1
 67
     0
278
    -2
288
     1
 68
     0
279
    -2
289
     1
 69
     0
  7
STANDARD
140
0.25
170
     5
 62
     0
 63
     7
283
     0
274
    -2
284
     1
 64
     0
275
    -2
285
     1
 65
     0
276
    -2
286
     1
 66
     0
277
    -2
287
     1
 67
     0
278
    -2
288
     1
 68
     0
279
    -2
289
     1
 69
     0
  7
STANDARD
140
0.18
170
     5
 62
     0
 63
     7
283
     0
274
    -2
284
     1
 64
     0
275
    -2
285
     1
 65
     0
276
    -2
286
     1
 66
     0
277
    -2
287
     1
 67
     0
278
    -2
288
     1
 68
     0
279
    -2
289
     1
 69
     0
  0
DICTIONARYVAR
  5
999
102
{ACAD_REACTORS
330
998
102
}
330
998
100
DictionaryVariables
280
     0
  1
STANDARD
  0
DICTIONARYVAR
  5
99A
102
{ACAD_REACTORS
330
998
102
}
330
998
100
DictionaryVariables
280
     0
  1
0
  0
DICTIONARYVAR
  5
99B
102
{ACAD_REACTORS
330
998
102
}
330
998
100
DictionaryVariables
280
     0
  1

  0
DICTIONARY
  5
99F
330
920
100
AcDbDictionary
280
     1
281
     1
  3
ACAD_XREC_ROUNDTRIP
360
9A0
  0
DICTIONARY
  5
9A1
330
921
100
AcDbDictionary
280
     1
281
     1
  3
ACAD_XREC_ROUNDTRIP
360
9A2
  0
XRECORD
  5
9A0
102
{ACAD_REACTORS
330
99F
102
}
330
99F
100
AcDbXrecord
280
     1
102
SHADEPLOT
 70
     0
102
SHADEPLOTRESLEVEL
 70
     2
102
SHADEPLOTCUSTOMDPI
 70
   300
  0
XRECORD
  5
9A2
102
{ACAD_REACTORS
330
9A1
102
}
330
9A1
100
AcDbXrecord
280
     1
102
SHADEPLOT
 70
     0
102
SHADEPLOTRESLEVEL
 70
     2
102
SHADEPLOTCUSTOMDPI
 70
   300
  0
ENDSEC
  0
EOF
