  0
SECTION
  2
HEADER
  9
$ACADVER
  1
AC1014
  9
$ACADMAINTVER
 70
     9
  9
$DWGCODEPAGE
  3
ANSI_949
  9
$INSBASE
 10
384.0
 20
277.0
 30
0.0
  9
$EXTMIN
 10
48.46893413978273
 20
85.98298724179972
 30
-0.000000000000013
  9
$EXTMAX
 10
343.0123910249822
 20
191.5300146068096
 30
0.0000000000000023
  9
$LIMMIN
 10
0.0
 20
0.0
  9
$LIMMAX
 10
420.0
 20
297.0
  9
$ORTHOMODE
 70
     0
  9
$REGENMODE
 70
     1
  9
$FILLMODE
 70
     1
  9
$QTEXTMODE
 70
     0
  9
$MIRRTEXT
 70
     1
  9
$DRAGMODE
 70
     2
  9
$LTSCALE
 40
4.0
  9
$OSMODE
 70
    37
  9
$ATTMODE
 70
     1
  9
$TEXTSIZE
 40
3.0
  9
$TRACEWID
 40
0.05
  9
$TEXTSTYLE
  7
STANDARD
  9
$CLAYER
  8
0
  9
$CELTYPE
  6
BYLAYER
  9
$CECOLOR
 62
   256
  9
$CELTSCALE
 40
1.0
  9
$DELOBJ
 70
     1
  9
$DISPSILH
 70
     0
  9
$DIMSCALE
 40
1.0
  9
$DIMASZ
 40
3.0
  9
$DIMEXO
 40
1.0
  9
$DIMDLI
 40
0.38
  9
$DIMRND
 40
0.0
  9
$DIMDLE
 40
0.0
  9
$DIMEXE
 40
1.0
  9
$DIMTP
 40
0.0
  9
$DIMTM
 40
0.0
  9
$DIMTXT
 40
3.0
  9
$DIMCEN
 40
0.09
  9
$DIMTSZ
 40
0.0
  9
$DIMTOL
 70
     0
  9
$DIMLIM
 70
     0
  9
$DIMTIH
 70
     0
  9
$DIMTOH
 70
     1
  9
$DIMSE1
 70
     0
  9
$DIMSE2
 70
     0
  9
$DIMTAD
 70
     1
  9
$DIMZIN
 70
     8
  9
$DIMBLK
  1

  9
$DIMASO
 70
     0
  9
$DIMSHO
 70
     1
  9
$DIMPOST
  1

  9
$DIMAPOST
  1

  9
$DIMALT
 70
     0
  9
$DIMALTD
 70
     2
  9
$DIMALTF
 40
25.4
  9
$DIMLFAC
 40
1.0
  9
$DIMTOFL
 70
     0
  9
$DIMTVP
 40
0.0
  9
$DIMTIX
 70
     1
  9
$DIMSOXD
 70
     0
  9
$DIMSAH
 70
     0
  9
$DIMBLK1
  1

  9
$DIMBLK2
  1

  9
$DIMSTYLE
  2
STANDARD
  9
$DIMCLRD
 70
     5
  9
$DIMCLRE
 70
     5
  9
$DIMCLRT
 70
     3
  9
$DIMTFAC
 40
1.0
  9
$DIMGAP
 40
0.09
  9
$DIMJUST
 70
     0
  9
$DIMSD1
 70
     0
  9
$DIMSD2
 70
     0
  9
$DIMTOLJ
 70
     1
  9
$DIMTZIN
 70
     8
  9
$DIMALTZ
 70
     8
  9
$DIMALTTZ
 70
     8
  9
$DIMFIT
 70
     3
  9
$DIMUPT
 70
     0
  9
$DIMUNIT
 70
     2
  9
$DIMDEC
 70
     4
  9
$DIMTDEC
 70
     4
  9
$DIMALTU
 70
     2
  9
$DIMALTTD
 70
     2
  9
$DIMTXSTY
  7
STANDARD
  9
$DIMAUNIT
 70
     0
  9
$LUNITS
 70
     2
  9
$LUPREC
 70
     4
  9
$SKETCHINC
 40
0.1
  9
$FILLETRAD
 40
1.0
  9
$AUNITS
 70
     0
  9
$AUPREC
 70
     0
  9
$MENU
  1
acad
  9
$ELEVATION
 40
0.0
  9
$PELEVATION
 40
0.0
  9
$THICKNESS
 40
0.0
  9
$LIMCHECK
 70
     0
  9
$BLIPMODE
 70
     0
  9
$CHAMFERA
 40
0.5
  9
$CHAMFERB
 40
0.5
  9
$CHAMFERC
 40
0.0
  9
$CHAMFERD
 40
0.0
  9
$SKPOLY
 70
     0
  9
$TDCREATE
 40
2450389.679198842
  9
$TDUPDATE
 40
2452761.636038773
  9
$TDINDWG
 40
0.0173797569
  9
$TDUSRTIMER
 40
0.0173797569
  9
$USRTIMER
 70
     1
  9
$ANGBASE
 50
0.0
  9
$ANGDIR
 70
     0
  9
$PDMODE
 70
     0
  9
$PDSIZE
 40
0.0
  9
$PLINEWID
 40
0.0
  9
$COORDS
 70
     2
  9
$SPLFRAME
 70
     0
  9
$SPLINETYPE
 70
     6
  9
$SPLINESEGS
 70
     8
  9
$ATTDIA
 70
     0
  9
$ATTREQ
 70
     1
  9
$HANDLING
 70
 12289
  9
$HANDSEED
  5
8A2
  9
$SURFTAB1
 70
     6
  9
$SURFTAB2
 70
     6
  9
$SURFTYPE
 70
     6
  9
$SURFU
 70
     6
  9
$SURFV
 70
     6
  9
$UCSNAME
  2

  9
$UCSORG
 10
0.0
 20
0.0
 30
0.0
  9
$UCSXDIR
 10
1.0
 20
0.0
 30
0.0
  9
$UCSYDIR
 10
0.0
 20
1.0
 30
0.0
  9
$PUCSNAME
  2

  9
$PUCSORG
 10
0.0
 20
0.0
 30
0.0
  9
$PUCSXDIR
 10
1.0
 20
0.0
 30
0.0
  9
$PUCSYDIR
 10
0.0
 20
1.0
 30
0.0
  9
$USERI1
 70
     0
  9
$USERI2
 70
     0
  9
$USERI3
 70
     0
  9
$USERI4
 70
     0
  9
$USERI5
 70
     0
  9
$USERR1
 40
0.0
  9
$USERR2
 40
0.0
  9
$USERR3
 40
0.0
  9
$USERR4
 40
0.0
  9
$USERR5
 40
0.0
  9
$WORLDVIEW
 70
     1
  9
$SHADEDGE
 70
     3
  9
$SHADEDIF
 70
    70
  9
$TILEMODE
 70
     1
  9
$MAXACTVP
 70
    16
  9
$PINSBASE
 10
0.0
 20
0.0
 30
0.0
  9
$PLIMCHECK
 70
     0
  9
$PEXTMIN
 10
1.000000000000000E+20
 20
1.000000000000000E+20
 30
1.000000000000000E+20
  9
$PEXTMAX
 10
-1.000000000000000E+20
 20
-1.000000000000000E+20
 30
-1.000000000000000E+20
  9
$PLIMMIN
 10
0.0
 20
0.0
  9
$PLIMMAX
 10
12.0
 20
9.0
  9
$UNITMODE
 70
     0
  9
$VISRETAIN
 70
     0
  9
$PLINEGEN
 70
     0
  9
$PSLTSCALE
 70
     1
  9
$TREEDEPTH
 70
  3020
  9
$PICKSTYLE
 70
     1
  9
$CMLSTYLE
  2
STANDARD
  9
$CMLJUST
 70
     0
  9
$CMLSCALE
 40
1.0
  9
$PROXYGRAPHICS
 70
     1
  9
$MEASUREMENT
 70
     0
  0
ENDSEC
  0
SECTION
  2
CLASSES
  0
CLASS
  1
ACDBDICTIONARYWDFLT
  2
AcDbDictionaryWithDefault
  3
AutoCAD 2000
 90
        0
280
     0
281
     0
  0
CLASS
  1
ACDBPLACEHOLDER
  2
AcDbPlaceHolder
  3
AutoCAD 2000
 90
        0
280
     0
281
     0
  0
CLASS
  1
LAYOUT
  2
AcDbLayout
  3
AutoCAD 2000
 90
        0
280
     0
281
     0
  0
CLASS
  1
LONG_TRANSACTION
  2
AcDbLongTransaction
  3
AutoCAD 2000
 90
        0
280
     0
281
     0
  0
CLASS
  1
LWPOLYLINE
  2
AcDbPolyline
  3
AutoCAD 2000
 90
        0
280
     0
281
     1
  0
CLASS
  1
HATCH
  2
AcDbHatch
  3
AutoCAD 2000
 90
        0
280
     0
281
     1
  0
CLASS
  1
XRECORD
  2
AcDbXrecord
  3
AutoCAD 2000
 90
        0
280
     0
281
     0
  0
CLASS
  1
LONG_TRANSACTION
  2
AcDbLongTransaction
  3
AutoCAD 2000
 90
        0
280
     0
281
     0
  0
CLASS
  1
LWPOLYLINE
  2
AcDbPolyline
  3
AutoCAD 2000
 90
        0
280
     0
281
     1
  0
CLASS
  1
HATCH
  2
AcDbHatch
  3
AutoCAD 2000
 90
        0
280
     0
281
     1
  0
CLASS
  1
XRECORD
  2
AcDbXrecord
  3
AutoCAD 2000
 90
        0
280
     0
281
     0
  0
ENDSEC
  0
SECTION
  2
TABLES
  0
TABLE
  2
VPORT
  5
8
330
0
100
AcDbSymbolTable
 70
     2
  0
VPORT
  5
87F
330
8
100
AcDbSymbolTableRecord
100
AcDbViewportTableRecord
  2
*ACTIVE
 70
     0
 10
0.0
 20
0.0
 11
1.0
 21
1.0
 12
195.7406625823824
 22
138.7565009243047
 13
0.0
 23
0.0
 14
0.25
 24
0.25
 15
5.0
 25
5.0
 16
0.0
 26
0.0
 36
1.0
 17
0.0
 27
0.0
 37
0.0
 40
199.7286820415125
 41
1.481743227326266
 42
50.0
 43
0.0
 44
0.0
 50
0.0
 51
0.0
 71
     0
 72
   100
 73
     1
 74
     1
 75
     1
 76
     0
 77
     0
 78
     0
  0
ENDTAB
  0
TABLE
  2
LTYPE
  5
5
330
0
100
AcDbSymbolTable
 70
     4
  0
LTYPE
  5
13
330
5
100
AcDbSymbolTableRecord
100
AcDbLinetypeTableRecord
  2
BYBLOCK
 70
     0
  3

 72
    65
 73
     0
 40
0.0
  0
LTYPE
  5
14
330
5
100
AcDbSymbolTableRecord
100
AcDbLinetypeTableRecord
  2
BYLAYER
 70
     0
  3

 72
    65
 73
     0
 40
0.0
  0
LTYPE
  5
15
330
5
100
AcDbSymbolTableRecord
100
AcDbLinetypeTableRecord
  2
CONTINUOUS
 70
     0
  3
Solid line
 72
    65
 73
     0
 40
0.0
  0
LTYPE
  5
27
330
5
100
AcDbSymbolTableRecord
100
AcDbLinetypeTableRecord
  2
CENTER
 70
     0
  3
____ _ ____ _ ____ _ ____ _ ____ _ ____ _ ____ 
 72
    65
 73
     4
 40
2.0
 49
1.25
 74
     0
 49
-0.25
 74
     0
 49
0.25
 74
     0
 49
-0.25
 74
     0
  0
LTYPE
  5
28
330
5
100
AcDbSymbolTableRecord
100
AcDbLinetypeTableRecord
  2
DASHED
 70
     0
  3
__ __ __ __ __ __ __ __ __ __ __ __ __ __ __ __
 72
    65
 73
     2
 40
0.75
 49
0.5
 74
     0
 49
-0.25
 74
     0
  0
LTYPE
  5
29
330
5
100
AcDbSymbolTableRecord
100
AcDbLinetypeTableRecord
  2
PHANTOM
 70
     0
  3
______  __  __  ______  __  __  ______  __  __ 
 72
    65
 73
     6
 40
2.5
 49
1.25
 74
     0
 49
-0.25
 74
     0
 49
0.25
 74
     0
 49
-0.25
 74
     0
 49
0.25
 74
     0
 49
-0.25
 74
     0
  0
ENDTAB
  0
TABLE
  2
LAYER
  5
2
330
0
100
AcDbSymbolTable
 70
     2
  0
LAYER
  5
10
330
2
100
AcDbSymbolTableRecord
100
AcDbLayerTableRecord
  2
0
 70
     0
 62
     7
  6
CONTINUOUS
  0
LAYER
  5
87E
330
2
100
AcDbSymbolTableRecord
100
AcDbLayerTableRecord
  2
PEF-L15A
 70
     0
 62
     7
  6
CONTINUOUS
  0
ENDTAB
  0
TABLE
  2
STYLE
  5
3
330
0
100
AcDbSymbolTable
 70
     1
  0
STYLE
  5
11
330
3
100
AcDbSymbolTableRecord
100
AcDbTextStyleTableRecord
  2
STANDARD
 70
     0
 40
3.0
 41
1.0
 50
0.0
 71
     0
 42
3.0
  3
txt.shx
  4
whgtxt.shx
  0
ENDTAB
  0
TABLE
  2
VIEW
  5
6
330
0
100
AcDbSymbolTable
 70
     0
  0
ENDTAB
  0
TABLE
  2
UCS
  5
7
330
0
100
AcDbSymbolTable
 70
     0
  0
ENDTAB
  0
TABLE
  2
APPID
  5
9
330
0
100
AcDbSymbolTable
 70
     2
  0
APPID
  5
12
330
9
100
AcDbSymbolTableRecord
100
AcDbRegAppTableRecord
  2
ACAD
 70
     0
  0
APPID
  5
6DF
330
9
100
AcDbSymbolTableRecord
100
AcDbRegAppTableRecord
  2
DCO15
 70
     0
  0
ENDTAB
  0
TABLE
  2
DIMSTYLE
  5
A
330
0
100
AcDbSymbolTable
 70
     1
  0
DIMSTYLE
105
57C
330
A
100
AcDbSymbolTableRecord
100
AcDbDimStyleTableRecord
  2
STANDARD
 70
     0
  3

  4

  5

  6

  7

 40
1.0
 41
0.18
 42
0.0625
 43
0.38
 44
0.18
 45
0.0
 46
0.0
 47
0.0
 48
0.0
140
0.18
141
0.09
142
0.0
143
25.4
144
1.0
145
0.0
146
1.0
147
0.09
 71
     0
 72
     0
 73
     1
 74
     1
 75
     0
 76
     0
 77
     0
 78
     0
170
     0
171
     2
172
     0
173
     0
174
     0
175
     0
176
     0
177
     0
178
     0
270
     2
271
     4
272
     4
273
     2
274
     2
340
11
275
     0
280
     0
281
     0
282
     0
283
     1
284
     0
285
     0
286
     0
287
     3
288
     0
  0
ENDTAB
  0
TABLE
  2
BLOCK_RECORD
  5
1
330
0
100
AcDbSymbolTable
 70
     0
  0
BLOCK_RECORD
  5
1E
102
{ACAD_XDICTIONARY
360
873
102
}
330
1
100
AcDbSymbolTableRecord
100
AcDbBlockTableRecord
  2
*MODEL_SPACE
  0
BLOCK_RECORD
  5
1A
102
{ACAD_XDICTIONARY
360
871
102
}
330
1
100
AcDbSymbolTableRecord
100
AcDbBlockTableRecord
  2
*PAPER_SPACE
  0
ENDTAB
  0
ENDSEC
  0
SECTION
  2
BLOCKS
  0
BLOCK
  5
2F
330
1E
100
AcDbEntity
  8
0
100
AcDbBlockBegin
  2
*MODEL_SPACE
 70
     0
 10
0.0
 20
0.0
 30
0.0
  3
*MODEL_SPACE
  1

  0
ENDBLK
  5
30
330
1E
100
AcDbEntity
  8
0
100
AcDbBlockEnd
  0
BLOCK
  5
2D
330
1A
100
AcDbEntity
 67
     1
  8
0
100
AcDbBlockBegin
  2
*PAPER_SPACE
 70
     0
 10
0.0
 20
0.0
 30
0.0
  3
*PAPER_SPACE
  1

  0
ENDBLK
  5
2E
330
1A
100
AcDbEntity
 67
     1
  8
0
100
AcDbBlockEnd
  0
ENDSEC
  0
SECTION
  2
ENTITIES
  0
ARC
  5
1BE
330
1E
100
AcDbEntity
  8
PEF-L15A
100
AcDbCircle
 10
183.4999999999999
 20
109.0
 30
0.0
 40
5.0
100
AcDbArc
 50
270.0
 51
0.0
  0
LINE
  5
1BF
330
1E
100
AcDbEntity
  8
PEF-L15A
100
AcDbLine
 10
188.4999999999998
 20
121.4197432719606
 30
0.0
 11
188.9966317998059
 21
119.5662881624303
 31
0.0
  0
LINE
  5
1C0
330
1E
100
AcDbEntity
  8
PEF-L15A
100
AcDbLine
 10
190.5656388761
 20
127.2336356043126
 30
0.0
 11
188.4999999999999
 21
126.6801493356072
 31
0.0
  0
LINE
  5
1C1
330
1E
100
AcDbEntity
  8
PEF-L15A
100
AcDbLine
 10
188.7724879317639
 20
118.4709528135899
 30
0.0
 11
188.4999999999999
 21
118.3979398923264
 31
0.0
  0
LINE
  5
1C2
330
1E
100
AcDbEntity
  8
PEF-L15A
100
AcDbLine
 10
188.4999999999999
 20
119.4878916193824
 30
0.0
 11
188.7724879317639
 21
118.4709528135899
 31
0.0
  0
LINE
  5
1C3
330
1E
100
AcDbEntity
  8
PEF-L15A
  6
CENTER
100
AcDbLine
 10
188.4999999999999
 20
123.0566827041718
 30
0.0
 11
193.9790052825631
 21
124.5247777449605
 31
0.0
  0
LINE
  5
1C4
330
1E
100
AcDbEntity
  8
PEF-L15A
100
AcDbLine
 10
213.5
 20
114.0
 30
0.0
 11
188.4999999999999
 21
114.0
 31
0.0
  0
LINE
  5
1C5
330
1E
100
AcDbEntity
  8
PEF-L15A
100
AcDbLine
 10
213.5
 20
104.0
 30
0.0
 11
48.5
 21
104.0
 31
0.0
  0
LINE
  5
1C7
330
1E
100
AcDbEntity
  8
PEF-L15A
100
AcDbLine
 10
66.80137916136607
 20
147.6598473482658
 30
0.0
 11
63.5
 21
159.9807621135331
 31
0.0
  0
LINE
  5
1C8
330
1E
100
AcDbEntity
  8
PEF-L15A
100
AcDbLine
 10
188.4999999999999
 20
130.0
 30
0.0
 11
183.3236190979496
 21
149.3185165257813
 31
0.0
  0
LINE
  5
1C9
330
1E
100
AcDbEntity
  8
PEF-L15A
100
AcDbLine
 10
187.3408890084531
 20
129.6894171458769
 30
0.0
 11
182.1645081064026
 21
149.0079336716583
 31
0.0
  0
LINE
  5
1D2
330
1E
100
AcDbEntity
  8
PEF-L15A
100
AcDbLine
 10
68.5
 20
114.0
 30
0.0
 11
48.5
 21
114.0
 31
0.0
  0
LINE
  5
1D5
330
1E
100
AcDbEntity
  8
PEF-L15A
  6
DASHED
100
AcDbLine
 10
55.0
 20
104.0
 30
0.0
 11
55.0
 21
114.0
 31
0.0
  0
LINE
  5
1D6
330
1E
100
AcDbEntity
  8
PEF-L15A
100
AcDbLine
 10
48.5
 20
104.0
 30
0.0
 11
48.5
 21
114.0
 31
0.0
  0
LINE
  5
1D8
330
1E
100
AcDbEntity
  8
PEF-L15A
  6
CENTER
100
AcDbLine
 10
58.5
 20
99.50000000000001
 30
0.0
 11
58.5
 21
119.0
 31
0.0
  0
CIRCLE
  5
1DC
330
1E
100
AcDbEntity
  8
PEF-L15A
100
AcDbCircle
 10
88.49999999999999
 20
109.0
 30
0.0
 40
2.5
  0
LINE
  5
1DD
330
1E
100
AcDbEntity
  8
PEF-L15A
  6
CENTER
100
AcDbLine
 10
94.74999999999999
 20
109.0
 30
0.0
 11
82.24999999999999
 21
109.0
 31
0.0
  0
LINE
  5
1E0
330
1E
100
AcDbEntity
  8
PEF-L15A
  6
CENTER
100
AcDbLine
 10
64.27091194912581
 20
117.4219555433772
 30
0.0
 11
74.19134295108991
 21
120.0801270189221
 31
0.0
  0
ARC
  5
1E1
330
1E
100
AcDbEntity
  8
PEF-L15A
100
AcDbCircle
 10
88.49999999999999
 20
109.0
 30
0.0
 40
2.0
100
AcDbArc
 50
277.1250163489018
 51
180.0
  0
LINE
  5
1E2
330
1E
100
AcDbEntity
  8
PEF-L15A
  6
CENTER
100
AcDbLine
 10
93.75
 20
109.0
 30
0.0
 11
83.25000000000001
 21
109.0
 31
0.0
  0
LINE
  5
1E6
330
1E
100
AcDbEntity
  8
PEF-L15A
100
AcDbLine
 10
77.50700580844955
 20
107.7059047744873
 30
0.0
 11
72.59892577166247
 21
126.0231088393906
 31
0.0
  0
LINE
  5
1EA
330
1E
100
AcDbEntity
  8
PEF-L15A
100
AcDbLine
 10
68.5
 20
114.0
 30
0.0
 11
68.5
 21
126.0
 31
0.0
  0
LINE
  5
1EB
330
1E
100
AcDbEntity
  8
PEF-L15A
  6
DASHED
100
AcDbLine
 10
73.67370486088486
 20
122.0119786715002
 30
0.0
 11
68.5
 21
120.6256886321492
 31
0.0
  0
LINE
  5
1EC
330
1E
100
AcDbEntity
  8
PEF-L15A
  6
DASHED
100
AcDbLine
 10
73.86781914471173
 20
121.2875343017835
 30
0.0
 11
68.5
 21
119.8492314968417
 31
0.0
  0
LINE
  5
1ED
330
1E
100
AcDbEntity
  8
PEF-L15A
  6
DASHED
100
AcDbLine
 10
74.51486675746808
 20
118.8727197360607
 30
0.0
 11
68.5
 21
117.2610410458164
 31
0.0
  0
LINE
  5
1EE
330
1E
100
AcDbEntity
  8
PEF-L15A
  6
DASHED
100
AcDbLine
 10
74.70898104129496
 20
118.148275366344
 30
0.0
 11
68.5
 21
116.4845839105089
 31
0.0
  0
LINE
  5
1EF
330
1E
100
AcDbEntity
  8
PEF-L15A
  6
DASHED
100
AcDbLine
 10
62.0
 20
104.0
 30
0.0
 11
62.0
 21
114.0
 31
0.0
  0
LINE
  5
1F0
330
1E
100
AcDbEntity
  8
PEF-L15A
  6
CENTER
100
AcDbLine
 10
88.49999999999999
 20
102.75
 30
0.0
 11
88.49999999999999
 21
115.25
 31
0.0
  0
LINE
  5
1F1
330
1E
100
AcDbEntity
  8
PEF-L15A
  6
CENTER
100
AcDbLine
 10
88.49999999999999
 20
104.4999999999999
 30
0.0
 11
88.49999999999999
 21
113.7499999999999
 31
0.0
  0
ARC
  5
1F2
330
1E
100
AcDbEntity
  8
PEF-L15A
100
AcDbCircle
 10
82.3366349398948
 20
109.0
 30
0.0
 40
5.0
100
AcDbArc
 50
195.0
 51
270.0
  0
CIRCLE
  5
1F3
330
1E
100
AcDbEntity
  8
PEF-L15A
100
AcDbCircle
 10
88.49999999999999
 20
109.0
 30
0.0
 40
1.25
  0
LINE
  5
1FA
330
1E
100
AcDbEntity
  8
PEF-L15A
100
AcDbLine
 10
72.60511776651523
 20
126.0
 30
0.0
 11
68.5
 21
126.0
 31
0.0
  0
LINE
  5
1FB
330
1E
100
AcDbEntity
  8
PEF-L15A
100
AcDbLine
 10
72.28834291753947
 20
127.1822198309376
 30
0.0
 11
67.1119620154891
 21
146.5007363567189
 31
0.0
  0
LINE
  5
1FC
330
1E
100
AcDbEntity
  8
PEF-L15A
100
AcDbLine
 10
73.44745390908633
 20
127.4928026850606
 30
0.0
 11
68.27107300703596
 21
146.8113192108419
 31
0.0
  0
LINE
  5
1FD
330
1E
100
AcDbEntity
  8
PEF-L15A
  6
DASHED
100
AcDbLine
 10
73.44745390908633
 20
127.4928026850606
 30
0.0
 11
72.28834291753947
 21
127.1822198309376
 31
0.0
  0
ARC
  5
1FE
330
1E
100
AcDbEntity
  8
PEF-L15A
  6
DASHED
100
AcDbCircle
 10
73.02318984037447
 20
126.7579557622257
 30
0.0
 40
0.6
100
AcDbArc
 50
284.9999999999998
 51
105.0000000000002
  0
LINE
  5
1FF
330
1E
100
AcDbEntity
  8
PEF-L15A
  6
DASHED
100
AcDbLine
 10
73.17848126743604
 20
126.1784002664521
 30
0.0
 11
72.59892577166247
 21
126.0231088393906
 31
0.0
  0
LINE
  5
200
330
1E
100
AcDbEntity
  8
PEF-L15A
100
AcDbLine
 10
68.27107300703596
 20
146.8113192108419
 30
0.0
 11
67.1119620154891
 21
146.5007363567189
 31
0.0
  0
ARC
  5
201
330
1E
100
AcDbEntity
  8
PEF-L15A
100
AcDbCircle
 10
67.53622608420108
 20
147.2355832795539
 30
0.0
 40
0.6
100
AcDbArc
 50
284.9999999999996
 51
105.0000000000009
  0
LINE
  5
202
330
1E
100
AcDbEntity
  8
PEF-L15A
100
AcDbLine
 10
67.38093465713951
 20
147.8151387753273
 30
0.0
 11
66.80137916136607
 21
147.6598473482658
 31
0.0
  0
LINE
  5
209
330
1E
100
AcDbEntity
  8
PEF-L15A
  6
CENTER
100
AcDbLine
 10
108.4999999999999
 20
122.75
 30
0.0
 11
108.4999999999999
 21
145.25
 31
0.0
  0
CIRCLE
  5
20F
330
1E
100
AcDbEntity
  8
PEF-L15A
  6
PHANTOM
100
AcDbCircle
 10
108.4999999999999
 20
134.0
 30
0.0
 40
8.5
  0
LINE
  5
210
330
1E
100
AcDbEntity
  8
PEF-L15A
  6
CENTER
100
AcDbLine
 10
119.75
 20
134.0
 30
0.0
 11
97.25000000000001
 21
134.0
 31
0.0
  0
CIRCLE
  5
211
330
1E
100
AcDbEntity
  8
PEF-L15A
  6
PHANTOM
100
AcDbCircle
 10
108.4999999999999
 20
134.0
 30
0.0
 40
5.0
  0
LINE
  5
21F
330
1E
100
AcDbEntity
  8
PEF-L15A
100
AcDbLine
 10
188.4999999999999
 20
109.0
 30
0.0
 11
188.4999999999999
 21
128.757668583508
 31
0.0
  0
CIRCLE
  5
222
330
1E
100
AcDbEntity
  8
PEF-L15A
100
AcDbCircle
 10
173.5
 20
109.0
 30
0.0
 40
2.5
  0
LINE
  5
223
330
1E
100
AcDbEntity
  8
PEF-L15A
  6
CENTER
100
AcDbLine
 10
179.75
 20
109.0
 30
0.0
 11
167.25
 21
109.0
 31
0.0
  0
LINE
  5
228
330
1E
100
AcDbEntity
  8
PEF-L15A
  6
CENTER
100
AcDbLine
 10
178.75
 20
109.0
 30
0.0
 11
168.25
 21
109.0
 31
0.0
  0
ARC
  5
229
330
1E
100
AcDbEntity
  8
PEF-L15A
100
AcDbCircle
 10
173.5
 20
109.0
 30
0.0
 40
2.0
100
AcDbArc
 50
277.1250163489018
 51
180.0
  0
LINE
  5
22A
330
1E
100
AcDbEntity
  8
PEF-L15A
  6
CENTER
100
AcDbLine
 10
173.5
 20
102.75
 30
0.0
 11
173.5
 21
115.25
 31
0.0
  0
LINE
  5
22B
330
1E
100
AcDbEntity
  8
PEF-L15A
  6
CENTER
100
AcDbLine
 10
173.5
 20
104.4999999999999
 30
0.0
 11
173.5
 21
113.7499999999999
 31
0.0
  0
CIRCLE
  5
22C
330
1E
100
AcDbEntity
  8
PEF-L15A
100
AcDbCircle
 10
173.5
 20
109.0
 30
0.0
 40
1.25
  0
LINE
  5
234
330
1E
100
AcDbEntity
  8
PEF-L15A
  6
DASHED
100
AcDbLine
 10
187.3408890084531
 20
129.6894171458769
 30
0.0
 11
188.4999999999999
 21
129.9999999999999
 31
0.0
  0
ARC
  5
235
330
1E
100
AcDbEntity
  8
PEF-L15A
  6
DASHED
100
AcDbCircle
 10
188.075735931288
 20
129.265153077165
 30
0.0
 40
0.6
100
AcDbArc
 50
105.0000000000002
 51
284.9999999999996
  0
LINE
  5
236
330
1E
100
AcDbEntity
  8
PEF-L15A
  6
DASHED
100
AcDbLine
 10
188.2310273583495
 20
128.6855975813917
 30
0.0
 11
188.4999999999999
 21
128.757668583508
 31
0.0
  0
LINE
  5
239
330
1E
100
AcDbEntity
  8
PEF-L15A
100
AcDbLine
 10
56.94532857203046
 20
173.886794400144
 30
0.0
 11
57.29888196262375
 21
174.4991668358399
 31
0.0
  0
LINE
  5
23A
330
1E
100
AcDbEntity
  8
PEF-L15A
100
AcDbLine
 10
56.94532857203046
 20
173.886794400144
 30
0.0
 11
58.49824284264558
 21
168.0912394424096
 31
0.0
  0
LINE
  5
23B
330
1E
100
AcDbEntity
  8
PEF-L15A
  6
CENTER
100
AcDbLine
 10
54.84006271204208
 20
170.2168615718771
 30
0.0
 11
63.5
 21
172.5372847746896
 31
0.0
  0
LINE
  5
243
330
1E
100
AcDbEntity
  8
PEF-L15A
100
AcDbLine
 10
171.5338546309801
 20
179.0
 30
0.0
 11
68.5
 21
179.0
 31
0.0
  0
LINE
  5
245
330
1E
100
AcDbEntity
  8
PEF-L15A
100
AcDbLine
 10
63.88328319084457
 20
181.0
 30
0.0
 11
170.309674537001
 21
181.0
 31
0.0
  0
LINE
  5
248
330
1E
100
AcDbEntity
  8
PEF-L15A
100
AcDbLine
 10
62.49135567035311
 20
168.6435527096753
 30
0.0
 11
60.6796223546355
 21
175.4050334936986
 31
0.0
  0
LINE
  5
249
330
1E
100
AcDbEntity
  8
PEF-L15A
100
AcDbLine
 10
59.1106152783414
 20
167.7376860518164
 30
0.0
 11
57.29888196262375
 21
174.4991668358399
 31
0.0
  0
LINE
  5
24A
330
1E
100
AcDbEntity
  8
PEF-L15A
100
AcDbLine
 10
63.5
 20
159.9807621135331
 30
0.0
 11
63.5
 21
174.0
 31
0.0
  0
LINE
  5
24B
330
1E
100
AcDbEntity
  8
PEF-L15A
100
AcDbLine
 10
60.90428061998942
 20
176.4984490856354
 30
0.0
 11
63.23365202591219
 21
167.8051166490339
 31
0.0
  0
LINE
  5
24C
330
1E
100
AcDbEntity
  8
PEF-L15A
100
AcDbLine
 10
64.04353955542887
 20
177.3396109822187
 30
0.0
 11
64.23789246146203
 21
176.6142760623043
 31
0.0
  0
LINE
  5
254
330
1E
100
AcDbEntity
  8
PEF-L15A
  6
CENTER
100
AcDbLine
 10
65.39149541760417
 20
152.9216051127506
 30
0.0
 11
58.18396425428102
 21
150.990352958116
 31
0.0
  0
LINE
  5
257
330
1E
100
AcDbEntity
  8
PEF-L15A
100
AcDbLine
 10
64.48562875974537
 20
156.3023455047623
 30
0.0
 11
62.32950804551696
 21
155.7246147006008
 31
0.0
  0
LINE
  5
258
330
1E
100
AcDbEntity
  8
PEF-L15A
100
AcDbLine
 10
64.14124136123461
 20
148.9631339165773
 30
0.0
 11
66.29736207546303
 21
149.5408647207388
 31
0.0
  0
LINE
  5
25B
330
1E
100
AcDbEntity
  8
PEF-L15A
100
AcDbLine
 10
61.97595465492367
 20
155.112242264905
 30
0.0
 11
63.52886892553879
 21
149.3166873071706
 31
0.0
  0
LINE
  5
25C
330
1E
100
AcDbEntity
  8
PEF-L15A
100
AcDbLine
 10
64.14124136123461
 20
148.9631339165773
 30
0.0
 11
62.32950804551696
 21
155.7246147006008
 31
0.0
  0
LINE
  5
25D
330
1E
100
AcDbEntity
  8
PEF-L15A
100
AcDbLine
 10
63.52886892553879
 20
149.3166873071706
 30
0.0
 11
64.14124136123461
 21
148.9631339165773
 31
0.0
  0
LINE
  5
25E
330
1E
100
AcDbEntity
  8
PEF-L15A
100
AcDbLine
 10
61.97595465492367
 20
155.112242264905
 30
0.0
 11
62.32950804551696
 21
155.7246147006008
 31
0.0
  0
LINE
  5
26A
330
1E
100
AcDbEntity
  8
PEF-L15A
100
AcDbLine
 10
63.23365202591219
 20
167.8051166490339
 30
0.0
 11
63.49999999999998
 21
167.8764843735964
 31
0.0
  0
LINE
  5
26B
330
1E
100
AcDbEntity
  8
PEF-L15A
100
AcDbLine
 10
59.1106152783414
 20
167.7376860518164
 30
0.0
 11
62.49135567035311
 21
168.6435527096753
 31
0.0
  0
LINE
  5
26C
330
1E
100
AcDbEntity
  8
PEF-L15A
100
AcDbLine
 10
58.49824284264558
 20
168.0912394424096
 30
0.0
 11
59.1106152783414
 21
167.7376860518164
 31
0.0
  0
LINE
  5
26D
330
1E
100
AcDbEntity
  8
PEF-L15A
100
AcDbLine
 10
62.97431858349765
 20
168.7729622322265
 30
0.0
 11
62.49135567035311
 21
168.6435527096753
 31
0.0
  0
ARC
  5
278
330
1E
100
AcDbEntity
  8
PEF-L15A
100
AcDbCircle
 10
68.5
 20
174.0
 30
0.0
 40
5.0
100
AcDbArc
 50
90.0
 51
180.0
  0
LINE
  5
279
330
1E
100
AcDbEntity
  8
PEF-L15A
100
AcDbLine
 10
64.81628021646011
 20
177.5466662183008
 30
0.0
 11
64.04353955542887
 21
177.3396109822187
 31
0.0
  0
LINE
  5
27A
330
1E
100
AcDbEntity
  8
PEF-L15A
100
AcDbLine
 10
64.04353955542894
 20
177.3396109822187
 30
0.0
 11
60.90428061998942
 21
176.4984490856354
 31
0.0
  0
LINE
  5
27D
330
1E
100
AcDbEntity
  8
PEF-L15A
100
AcDbLine
 10
60.6796223546355
 20
175.4050334936986
 30
0.0
 11
61.16258526777999
 21
175.53444301625
 31
0.0
  0
LINE
  5
27E
330
1E
100
AcDbEntity
  8
PEF-L15A
100
AcDbLine
 10
60.6796223546355
 20
175.4050334936986
 30
0.0
 11
57.29888196262375
 21
174.4991668358399
 31
0.0
  0
LINE
  5
285
330
1E
100
AcDbEntity
  8
PEF-L15A
  6
CENTER
100
AcDbLine
 10
98.50967453700114
 20
184.75
 30
0.0
 11
98.50967453700112
 21
179.0
 31
0.0
  0
LINE
  5
286
330
1E
100
AcDbEntity
  8
PEF-L15A
  6
DASHED
100
AcDbLine
 10
96.75967453700108
 20
179.0
 30
0.0
 11
96.7596745370011
 21
181.0
 31
0.0
  0
LINE
  5
287
330
1E
100
AcDbEntity
  8
PEF-L15A
  6
DASHED
100
AcDbLine
 10
96.00967453700114
 20
181.0
 30
0.0
 11
96.00967453700114
 21
179.0
 31
0.0
  0
LINE
  5
288
330
1E
100
AcDbEntity
  8
PEF-L15A
  6
DASHED
100
AcDbLine
 10
100.259674537001
 20
179.0
 30
0.0
 11
100.259674537001
 21
181.0
 31
0.0
  0
LINE
  5
289
330
1E
100
AcDbEntity
  8
PEF-L15A
  6
DASHED
100
AcDbLine
 10
101.009674537001
 20
181.0
 30
0.0
 11
101.009674537001
 21
179.0
 31
0.0
  0
LINE
  5
28F
330
1E
100
AcDbEntity
  8
PEF-L15A
  6
CENTER
100
AcDbLine
 10
183.3725658454278
 20
176.9976137888368
 30
0.0
 11
176.4071235925503
 21
175.1312291622527
 31
0.0
  0
LINE
  5
290
330
1E
100
AcDbEntity
  8
PEF-L15A
  6
CENTER
100
AcDbLine
 10
148.5096745370011
 20
184.75
 30
0.0
 11
148.5096745370011
 21
179.0
 31
0.0
  0
LINE
  5
292
330
1E
100
AcDbEntity
  8
PEF-L15A
  6
DASHED
100
AcDbLine
 10
146.0096745370011
 20
181.0
 30
0.0
 11
146.0096745370011
 21
179.0
 31
0.0
  0
LINE
  5
293
330
1E
100
AcDbEntity
  8
PEF-L15A
  6
DASHED
100
AcDbLine
 10
146.7596745370011
 20
179.0
 30
0.0
 11
146.7596745370011
 21
181.0
 31
0.0
  0
LINE
  5
294
330
1E
100
AcDbEntity
  8
PEF-L15A
  6
DASHED
100
AcDbLine
 10
150.2596745370011
 20
179.0
 30
0.0
 11
150.2596745370011
 21
181.0
 31
0.0
  0
LINE
  5
295
330
1E
100
AcDbEntity
  8
PEF-L15A
  6
DASHED
100
AcDbLine
 10
151.0096745370011
 20
181.0
 30
0.0
 11
151.0096745370011
 21
179.0
 31
0.0
  0
LINE
  5
297
330
1E
100
AcDbEntity
  8
PEF-L15A
100
AcDbLine
 10
183.0130362438266
 20
150.4776275173281
 30
0.0
 11
176.3634837624254
 21
175.2940952255126
 31
0.0
  0
LINE
  5
298
330
1E
100
AcDbEntity
  8
PEF-L15A
100
AcDbLine
 10
177.4861480514929
 20
171.7968862632047
 30
0.0
 11
177.0031851383484
 21
171.6674767406534
 31
0.0
  0
LINE
  5
299
330
1E
100
AcDbEntity
  8
PEF-L15A
100
AcDbLine
 10
174.9326327775284
 20
179.3948833509659
 30
0.0
 11
177.262004183451
 21
170.7015509143643
 31
0.0
  0
LINE
  5
29D
330
1E
100
AcDbEntity
  8
PEF-L15A
100
AcDbLine
 10
170.8455729218633
 20
179.0
 30
0.0
 11
170.309674537001
 21
181.0
 31
0.0
  0
LINE
  5
2A7
330
1E
100
AcDbEntity
  8
PEF-L15A
100
AcDbLine
 10
184.084013325708
 20
160.6962794063869
 30
0.0
 11
180.7032729336963
 21
159.790412748528
 31
0.0
  0
LINE
  5
2A8
330
1E
100
AcDbEntity
  8
PEF-L15A
100
AcDbLine
 10
184.084013325708
 20
160.6962794063869
 30
0.0
 11
185.8957466414257
 21
153.9347986223635
 31
0.0
  0
LINE
  5
2A9
330
1E
100
AcDbEntity
  8
PEF-L15A
100
AcDbLine
 10
186.249300032019
 20
154.5471710580592
 30
0.0
 11
184.6963857614039
 21
160.3427260157936
 31
0.0
  0
LINE
  5
2B4
330
1E
100
AcDbEntity
  8
PEF-L15A
100
AcDbLine
 10
186.249300032019
 20
154.5471710580592
 30
0.0
 11
185.8957466414257
 21
153.9347986223635
 31
0.0
  0
LINE
  5
2B6
330
1E
100
AcDbEntity
  8
PEF-L15A
100
AcDbLine
 10
182.5150062494139
 20
153.0289319645045
 30
0.0
 11
185.8957466414257
 21
153.9347986223635
 31
0.0
  0
LINE
  5
2B7
330
1E
100
AcDbEntity
  8
PEF-L15A
100
AcDbLine
 10
182.433480748053
 20
150.3223360902666
 30
0.0
 11
183.0130362438266
 21
150.4776275173281
 31
0.0
  0
LINE
  5
2B8
330
1E
100
AcDbEntity
  8
PEF-L15A
100
AcDbLine
 10
182.1645081064026
 20
149.0079336716583
 30
0.0
 11
183.3236190979496
 21
149.3185165257813
 31
0.0
  0
ARC
  5
2B9
330
1E
100
AcDbEntity
  8
PEF-L15A
100
AcDbCircle
 10
182.5887721751145
 20
149.7427805944933
 30
0.0
 40
0.6
100
AcDbArc
 50
105.0000000000009
 51
285.0000000000001
  0
LINE
  5
2BC
330
1E
100
AcDbEntity
  8
PEF-L15A
100
AcDbLine
 10
184.6963857614039
 20
160.3427260157936
 30
0.0
 11
184.084013325708
 21
160.6962794063869
 31
0.0
  0
ARC
  5
2BD
330
1E
100
AcDbEntity
  8
PEF-L15A
100
AcDbCircle
 10
171.5338546309801
 20
174.0
 30
0.0
 40
5.0
100
AcDbArc
 50
14.99999999999998
 51
90.0
  0
LINE
  5
2BE
330
1E
100
AcDbEntity
  8
PEF-L15A
100
AcDbLine
 10
172.8255113527426
 20
178.8302818668402
 30
0.0
 11
174.9326327775284
 21
179.3948833509659
 31
0.0
  0
LINE
  5
2C1
330
1E
100
AcDbEntity
  8
PEF-L15A
100
AcDbLine
 10
177.4861480514929
 20
171.7968862632047
 30
0.0
 11
180.8668884435048
 21
172.7027529210635
 31
0.0
  0
LINE
  5
2C2
330
1E
100
AcDbEntity
  8
PEF-L15A
100
AcDbLine
 10
181.220441834098
 20
173.3151253567593
 30
0.0
 11
179.6675275634829
 21
179.1106803144936
 31
0.0
  0
LINE
  5
2C3
330
1E
100
AcDbEntity
  8
PEF-L15A
100
AcDbLine
 10
179.055155127787
 20
179.464233705087
 30
0.0
 11
180.8668884435048
 21
172.7027529210635
 31
0.0
  0
LINE
  5
2C4
330
1E
100
AcDbEntity
  8
PEF-L15A
100
AcDbLine
 10
175.6744147357754
 20
178.5583670472282
 30
0.0
 11
177.4861480514929
 21
171.7968862632047
 31
0.0
  0
LINE
  5
2C5
330
1E
100
AcDbEntity
  8
PEF-L15A
100
AcDbLine
 10
179.055155127787
 20
179.464233705087
 30
0.0
 11
175.6744147357754
 21
178.5583670472282
 31
0.0
  0
LINE
  5
2C6
330
1E
100
AcDbEntity
  8
PEF-L15A
100
AcDbLine
 10
175.1914518226309
 20
178.4289575246768
 30
0.0
 11
175.6744147357754
 21
178.5583670472282
 31
0.0
  0
LINE
  5
2C7
330
1E
100
AcDbEntity
  8
PEF-L15A
100
AcDbLine
 10
179.6675275634829
 20
179.1106803144936
 30
0.0
 11
179.055155127787
 21
179.464233705087
 31
0.0
  0
LINE
  5
2C8
330
1E
100
AcDbEntity
  8
PEF-L15A
100
AcDbLine
 10
181.220441834098
 20
173.3151253567593
 30
0.0
 11
180.8668884435048
 21
172.7027529210635
 31
0.0
  0
LINE
  5
2D7
330
1E
100
AcDbEntity
  8
PEF-L15A
100
AcDbLine
 10
299.0
 20
129.9999999999999
 30
0.0
 11
299.0
 21
149.3185165257813
 31
0.0
  0
LINE
  5
2D8
330
1E
100
AcDbEntity
  8
PEF-L15A
100
AcDbLine
 10
298.0
 20
129.9999999999999
 30
0.0
 11
298.0
 21
149.3185165257813
 31
0.0
  0
LINE
  5
2D9
330
1E
100
AcDbEntity
  8
PEF-L15A
  6
CENTER
100
AcDbLine
 10
298.4999999999999
 20
100.0
 30
0.0
 11
298.4999999999999
 21
184.9999999999999
 31
0.0
  0
LINE
  5
2DA
330
1E
100
AcDbEntity
  8
PEF-L15A
100
AcDbLine
 10
283.75
 20
104.0
 30
0.0
 11
283.75
 21
179.0
 31
0.0
  0
LINE
  5
2DB
330
1E
100
AcDbEntity
  8
PEF-L15A
100
AcDbLine
 10
313.25
 20
104.0
 30
0.0
 11
313.25
 21
179.0
 31
0.0
  0
TEXT
  5
2DC
330
1E
100
AcDbEntity
  8
PEF-L15A
100
AcDbText
 10
219.0
 20
175.75
 30
0.0
 40
3.0
  1
PEF-L25A
100
AcDbText
  0
LWPOLYLINE
  5
2E3
330
1E
100
AcDbEntity
  8
PEF-L15A
100
AcDbPolyline
 90
       16
 70
     1
 43
0.0
 10
307.5
 20
123.982304734852
 42
0.1151257636849413
 10
307.2805317542368
 20
124.9228388931022
 42
0.1038970668979465
 10
306.6213203435596
 20
125.7625841297994
 42
0.091165108145368
 10
305.6706839301745
 20
126.30232427768
 42
0.0838340827757829
 10
304.4999999999999
 20
126.5
 42
0.0838340827757791
 10
303.3293160698253
 20
126.30232427768
 42
0.0911651081453645
 10
302.3786796564403
 20
125.7625841297994
 42
0.1038970668979273
 10
301.7194682457631
 20
124.9228388931022
 42
0.1151257636849124
 10
301.5
 20
123.982304734852
 42
0.1151257636849214
 10
301.7194682457631
 20
123.0417705766019
 42
0.103897066897942
 10
302.3786796564403
 20
122.2020253399047
 42
0.0911651081453737
 10
303.3293160698253
 20
121.6622851920241
 42
0.0838340827757888
 10
304.4999999999999
 20
121.4646094697042
 42
0.0838340827757792
 10
305.6706839301745
 20
121.662285192024
 42
0.0911651081453643
 10
306.6213203435596
 20
122.2020253399047
 42
0.1038970668979196
 10
307.2805317542368
 20
123.0417705766017
 42
0.1151257636849319
  0
LWPOLYLINE
  5
2F5
330
1E
100
AcDbEntity
  8
PEF-L15A
100
AcDbPolyline
 90
       16
 70
     1
 43
0.0
 10
308.0
 20
123.982304734852
 42
0.1124346172583229
 10
307.7422203030061
 20
125.1141668340672
 42
0.1032155147599072
 10
306.9748737341528
 20
126.1161375203927
 42
0.0923908212345656
 10
305.862082614389
 20
126.7640738413902
 42
0.08596492940907
 10
304.4999999999999
 20
127.0
 42
0.0859649294090601
 10
303.1379173856108
 20
126.7640738413902
 42
0.0923908212345645
 10
302.025126265847
 20
126.1161375203927
 42
0.1032155147599119
 10
301.2577796969936
 20
125.1141668340671
 42
0.1124346172583244
 10
301.0
 20
123.982304734852
 42
0.1124346172583075
 10
301.2577796969936
 20
122.8504426356368
 42
0.1032155147599062
 10
302.025126265847
 20
121.8484719493114
 42
0.0923908212345785
 10
303.1379173856109
 20
121.2005356283138
 42
0.0859649294090668
 10
304.4999999999999
 20
120.9646094697042
 42
0.0859649294090637
 10
305.8620826143889
 20
121.2005356283138
 42
0.0923908212345758
 10
306.9748737341528
 20
121.8484719493114
 42
0.1032155147599153
 10
307.7422203030061
 20
122.8504426356368
 42
0.1124346172583276
  0
LWPOLYLINE
  5
307
330
1E
100
AcDbEntity
  8
PEF-L15A
100
AcDbPolyline
 90
        9
 70
     0
 43
0.0
 10
301.0
 20
122.732304734852
 42
0.1124346172583075
 10
301.2577796969936
 20
121.6004426356368
 42
0.1032155147599062
 10
302.025126265847
 20
120.5984719493114
 42
0.0923908212345785
 10
303.1379173856109
 20
119.9505356283139
 42
0.0859649294090668
 10
304.4999999999999
 20
119.7146094697042
 42
0.0859649294090637
 10
305.8620826143889
 20
119.9505356283139
 42
0.0923908212345758
 10
306.9748737341528
 20
120.5984719493114
 42
0.1032155147599153
 10
307.7422203030061
 20
121.6004426356368
 42
0.1124346172583276
 10
308.0
 20
122.732304734852
 42
0.1124346172583229
  0
LWPOLYLINE
  5
312
330
1E
100
AcDbEntity
  8
PEF-L15A
100
AcDbPolyline
 90
       10
 70
     0
 43
0.0
 10
301.0008746237671
 20
123.9146926455257
 42
0.1064788517345288
 10
300.75
 20
122.75
 42
0.1119247190749177
 10
301.0265420175333
 20
121.5300829947878
 42
0.1030783360639784
 10
301.8483495705504
 20
120.4519029611436
 42
0.0926219775485476
 10
303.0414032635218
 20
119.7538757686139
 42
0.0863780754328234
 10
304.4999999999999
 20
119.5
 42
0.0863780754328282
 10
305.9585967364781
 20
119.7538757686139
 42
0.0926219775485525
 10
307.1516504294494
 20
120.4519029611436
 42
0.1030783360639587
 10
307.9734579824665
 20
121.5300829947878
 42
0.1119247190749101
 10
308.25
 20
122.75
 42
0.1119247190749275
  0
LINE
  5
31E
330
1E
100
AcDbEntity
  8
PEF-L15A
100
AcDbLine
 10
285.5
 20
128.4490892900133
 30
0.0
 11
311.5
 21
128.4490892900132
 31
0.0
  0
LINE
  5
31F
330
1E
100
AcDbEntity
  8
PEF-L15A
100
AcDbLine
 10
286.5
 20
127.1642852501914
 30
0.0
 11
310.4999999999999
 21
127.1642852501914
 31
0.0
  0
LINE
  5
320
330
1E
100
AcDbEntity
  8
PEF-L15A
100
AcDbLine
 10
313.25
 20
129.9999999999999
 30
0.0
 11
299.0
 21
129.9999999999999
 31
0.0
  0
LINE
  5
321
330
1E
100
AcDbEntity
  8
PEF-L15A
100
AcDbLine
 10
286.5
 20
118.4709528135899
 30
0.0
 11
310.4999999999999
 21
118.4709528135899
 31
0.0
  0
LINE
  5
322
330
1E
100
AcDbEntity
  8
PEF-L15A
100
AcDbLine
 10
286.5
 20
117.6297909170066
 30
0.0
 11
310.4999999999999
 21
117.6297909170066
 31
0.0
  0
LINE
  5
323
330
1E
100
AcDbEntity
  8
PEF-L15A
100
AcDbLine
 10
286.5
 20
116.853333781699
 30
0.0
 11
310.4999999999999
 21
116.853333781699
 31
0.0
  0
LINE
  5
324
330
1E
100
AcDbEntity
  8
PEF-L15A
100
AcDbLine
 10
285.0
 20
114.0
 30
0.0
 11
312.0
 21
114.0
 31
0.0
  0
LINE
  5
325
330
1E
100
AcDbEntity
  8
PEF-L15A
100
AcDbLine
 10
283.75
 20
104.0
 30
0.0
 11
313.25
 21
104.0
 31
0.0
  0
LINE
  5
32A
330
1E
100
AcDbEntity
  8
PEF-L15A
  6
CENTER
100
AcDbLine
 10
203.5
 20
99.50000000000001
 30
0.0
 11
203.5
 21
119.0
 31
0.0
  0
LINE
  5
333
330
1E
100
AcDbEntity
  8
PEF-L15A
100
AcDbLine
 10
192.7309255824108
 20
121.0845272559849
 30
0.0
 11
191.1780113117958
 21
126.8800822137192
 31
0.0
  0
LINE
  5
334
330
1E
100
AcDbEntity
  8
PEF-L15A
100
AcDbLine
 10
190.5656388761
 20
127.2336356043126
 30
0.0
 11
192.3773721918177
 21
120.4721548202891
 31
0.0
  0
LINE
  5
335
330
1E
100
AcDbEntity
  8
PEF-L15A
  6
DASHED
100
AcDbLine
 10
200.0
 20
104.0
 30
0.0
 11
200.0
 21
114.0
 31
0.0
  0
LINE
  5
336
330
1E
100
AcDbEntity
  8
PEF-L15A
100
AcDbLine
 10
188.9966317998059
 20
119.5662881624303
 30
0.0
 11
188.5136688866614
 21
119.4368786398789
 31
0.0
  0
LINE
  5
337
330
1E
100
AcDbEntity
  8
PEF-L15A
100
AcDbLine
 10
192.7309255824108
 20
121.0845272559849
 30
0.0
 11
192.3773721918177
 21
120.4721548202891
 31
0.0
  0
LINE
  5
338
330
1E
100
AcDbEntity
  8
PEF-L15A
100
AcDbLine
 10
188.9966317998059
 20
119.5662881624303
 30
0.0
 11
192.3773721918177
 21
120.4721548202891
 31
0.0
  0
LINE
  5
339
330
1E
100
AcDbEntity
  8
PEF-L15A
  6
DASHED
100
AcDbLine
 10
207.0
 20
104.0
 30
0.0
 11
207.0
 21
114.0
 31
0.0
  0
LINE
  5
33A
330
1E
100
AcDbEntity
  8
PEF-L15A
100
AcDbLine
 10
213.5
 20
104.0
 30
0.0
 11
213.5
 21
114.0
 31
0.0
  0
LINE
  5
33B
330
1E
100
AcDbEntity
  8
PEF-L15A
100
AcDbLine
 10
191.1780113117958
 20
126.8800822137192
 30
0.0
 11
190.5656388761
 21
127.2336356043126
 31
0.0
  0
ARC
  5
34F
330
1E
100
AcDbEntity
  8
PEF-L15A
100
AcDbCircle
 10
283.75
 20
127.0
 30
0.0
 40
1.5
100
AcDbArc
 50
180.0
 51
270.0
  0
LWPOLYLINE
  5
350
330
1E
100
AcDbEntity
  8
PEF-L15A
100
AcDbPolyline
 90
       16
 70
     1
 43
0.0
 10
295.5
 20
123.982304734852
 42
0.1151257636849413
 10
295.2805317542368
 20
124.9228388931022
 42
0.1038970668979465
 10
294.6213203435596
 20
125.7625841297994
 42
0.091165108145368
 10
293.6706839301745
 20
126.30232427768
 42
0.0838340827757829
 10
292.5
 20
126.5
 42
0.0838340827757791
 10
291.3293160698253
 20
126.30232427768
 42
0.0911651081453645
 10
290.3786796564403
 20
125.7625841297994
 42
0.1038970668979273
 10
289.7194682457631
 20
124.9228388931022
 42
0.1151257636849124
 10
289.4999999999999
 20
123.982304734852
 42
0.1151257636849214
 10
289.7194682457631
 20
123.0417705766019
 42
0.103897066897942
 10
290.3786796564403
 20
122.2020253399047
 42
0.0911651081453737
 10
291.3293160698253
 20
121.6622851920241
 42
0.0838340827757888
 10
292.5
 20
121.4646094697042
 42
0.0838340827757792
 10
293.6706839301745
 20
121.662285192024
 42
0.0911651081453643
 10
294.6213203435596
 20
122.2020253399047
 42
0.1038970668979196
 10
295.2805317542368
 20
123.0417705766017
 42
0.1151257636849319
  0
LWPOLYLINE
  5
362
330
1E
100
AcDbEntity
  8
PEF-L15A
100
AcDbPolyline
 90
       16
 70
     1
 43
0.0
 10
296.0
 20
123.982304734852
 42
0.1124346172583229
 10
295.7422203030061
 20
125.1141668340672
 42
0.1032155147599072
 10
294.9748737341528
 20
126.1161375203927
 42
0.0923908212345656
 10
293.8620826143889
 20
126.7640738413902
 42
0.08596492940907
 10
292.5
 20
127.0
 42
0.0859649294090601
 10
291.137917385611
 20
126.7640738413902
 42
0.0923908212345645
 10
290.0251262658469
 20
126.1161375203927
 42
0.1032155147599119
 10
289.2577796969936
 20
125.1141668340671
 42
0.1124346172583244
 10
289.0
 20
123.982304734852
 42
0.1124346172583075
 10
289.2577796969936
 20
122.8504426356368
 42
0.1032155147599062
 10
290.0251262658469
 20
121.8484719493114
 42
0.0923908212345785
 10
291.137917385611
 20
121.2005356283138
 42
0.0859649294090668
 10
292.5
 20
120.9646094697042
 42
0.0859649294090637
 10
293.8620826143889
 20
121.2005356283138
 42
0.0923908212345758
 10
294.9748737341528
 20
121.8484719493114
 42
0.1032155147599153
 10
295.7422203030061
 20
122.8504426356368
 42
0.1124346172583276
  0
LWPOLYLINE
  5
374
330
1E
100
AcDbEntity
  8
PEF-L15A
100
AcDbPolyline
 90
        6
 70
     1
 43
0.0
 10
290.75
 20
123.982304734852
 10
291.625
 20
122.4667602782292
 10
293.3749999999998
 20
122.4667602782292
 10
294.2499999999999
 20
123.982304734852
 10
293.3749999999998
 20
125.4978491914747
 10
291.625
 20
125.4978491914747
  0
LINE
  5
37C
330
1E
100
AcDbEntity
  8
PEF-L15A
100
AcDbLine
 10
286.5
 20
116.853333781699
 30
0.0
 11
286.5
 21
127.1642852501914
 31
0.0
  0
LINE
  5
37D
330
1E
100
AcDbEntity
  8
PEF-L15A
100
AcDbLine
 10
285.0
 20
104.0
 30
0.0
 11
285.0
 21
129.9999999999999
 31
0.0
  0
LINE
  5
37E
330
1E
100
AcDbEntity
  8
PEF-L15A
  6
CENTER
100
AcDbLine
 10
277.0
 20
109.0
 30
0.0
 11
289.0
 21
109.0
 31
0.0
  0
ARC
  5
380
330
1E
100
AcDbEntity
  8
PEF-L15A
100
AcDbCircle
 10
284.2472851201232
 20
109.0
 30
0.0
 40
3.000001228428538
100
AcDbArc
 50
99.54148246481407
 51
260.4585175351858
  0
LWPOLYLINE
  5
381
330
1E
100
AcDbEntity
  8
PEF-L15A
100
AcDbPolyline
 90
       10
 70
     0
 43
0.0
 10
289.0008746237671
 20
123.9146926455257
 42
0.1064788517345288
 10
288.75
 20
122.75
 42
0.1119247190749177
 10
289.0265420175333
 20
121.5300829947878
 42
0.1030783360639784
 10
289.8483495705503
 20
120.4519029611436
 42
0.0926219775485476
 10
291.0414032635218
 20
119.7538757686139
 42
0.0863780754328234
 10
292.5
 20
119.5
 42
0.0863780754328282
 10
293.9585967364781
 20
119.7538757686139
 42
0.0926219775485525
 10
295.1516504294494
 20
120.4519029611436
 42
0.1030783360639587
 10
295.9734579824665
 20
121.5300829947878
 42
0.1119247190749101
 10
296.25
 20
122.75
 42
0.1119247190749275
  0
LWPOLYLINE
  5
38D
330
1E
100
AcDbEntity
  8
PEF-L15A
100
AcDbPolyline
 90
        9
 70
     0
 43
0.0
 10
289.0
 20
122.732304734852
 42
0.1124346172583075
 10
289.2577796969936
 20
121.6004426356368
 42
0.1032155147599062
 10
290.0251262658469
 20
120.5984719493114
 42
0.0923908212345785
 10
291.137917385611
 20
119.9505356283139
 42
0.0859649294090668
 10
292.5
 20
119.7146094697042
 42
0.0859649294090637
 10
293.8620826143889
 20
119.9505356283139
 42
0.0923908212345758
 10
294.9748737341528
 20
120.5984719493114
 42
0.1032155147599153
 10
295.7422203030061
 20
121.6004426356368
 42
0.1124346172583276
 10
296.0
 20
122.732304734852
 42
0.1124346172583229
  0
LINE
  5
398
330
1E
100
AcDbEntity
  8
PEF-L15A
100
AcDbLine
 10
289.0
 20
123.982304734852
 30
0.0
 11
289.0
 21
122.732304734852
 31
0.0
  0
LINE
  5
399
330
1E
100
AcDbEntity
  8
PEF-L15A
100
AcDbLine
 10
297.25
 20
114.0
 30
0.0
 11
297.25
 21
116.853333781699
 31
0.0
  0
LINE
  5
39A
330
1E
100
AcDbEntity
  8
PEF-L15A
100
AcDbLine
 10
299.75
 20
114.0
 30
0.0
 11
299.75
 21
116.853333781699
 31
0.0
  0
LWPOLYLINE
  5
39B
330
1E
100
AcDbEntity
  8
PEF-L15A
100
AcDbPolyline
 90
        2
 70
     0
 43
0.0
 10
296.25
 20
122.75
 42
0.1064788517345336
 10
295.9991253762327
 20
123.9146926455255
 42
0.1030783360639631
  0
LINE
  5
39F
330
1E
100
AcDbEntity
  8
PEF-L15A
100
AcDbLine
 10
296.0
 20
123.982304734852
 30
0.0
 11
296.0
 21
122.732304734852
 31
0.0
  0
LINE
  5
3A0
330
1E
100
AcDbEntity
  8
PEF-L15A
100
AcDbLine
 10
301.0
 20
123.982304734852
 30
0.0
 11
301.0
 21
122.732304734852
 31
0.0
  0
LINE
  5
3A1
330
1E
100
AcDbEntity
  8
PEF-L15A
  6
CENTER
100
AcDbLine
 10
288.5
 20
134.0
 30
0.0
 11
278.0
 21
134.0
 31
0.0
  0
LINE
  5
3A2
330
1E
100
AcDbEntity
  8
PEF-L15A
100
AcDbLine
 10
283.75
 20
129.9999999999999
 30
0.0
 11
298.0
 21
129.9999999999999
 31
0.0
  0
LINE
  5
3A3
330
1E
100
AcDbEntity
  8
PEF-L15A
100
AcDbLine
 10
282.25
 20
127.0
 30
0.0
 11
282.25
 21
141.0
 31
0.0
  0
LINE
  5
3A4
330
1E
100
AcDbEntity
  8
PEF-L15A
100
AcDbLine
 10
285.5
 20
128.4490892900133
 30
0.0
 11
285.5
 21
129.9999999999999
 31
0.0
  0
ARC
  5
3A5
330
1E
100
AcDbEntity
  8
PEF-L15A
100
AcDbCircle
 10
283.75
 20
141.0
 30
0.0
 40
1.5
100
AcDbArc
 50
90.0
 51
180.0
  0
LINE
  5
3A6
330
1E
100
AcDbEntity
  8
PEF-L15A
100
AcDbLine
 10
286.5
 20
127.1642852501914
 30
0.0
 11
286.5
 21
128.4490892900133
 31
0.0
  0
ARC
  5
3AD
330
1E
100
AcDbEntity
  8
PEF-L15A
100
AcDbCircle
 10
313.25
 20
127.0
 30
0.0
 40
1.5
100
AcDbArc
 50
270.0
 51
0.0
  0
LWPOLYLINE
  5
3AE
330
1E
100
AcDbEntity
  8
PEF-L15A
100
AcDbPolyline
 90
        6
 70
     1
 43
0.0
 10
302.7499999999998
 20
123.982304734852
 10
303.6249999999999
 20
122.4667602782292
 10
305.3749999999999
 20
122.4667602782292
 10
306.25
 20
123.982304734852
 10
305.3749999999999
 20
125.4978491914747
 10
303.6249999999999
 20
125.4978491914747
  0
LINE
  5
3B6
330
1E
100
AcDbEntity
  8
PEF-L15A
100
AcDbLine
 10
310.4999999999999
 20
116.853333781699
 30
0.0
 11
310.4999999999999
 21
127.1642852501914
 31
0.0
  0
LINE
  5
3B7
330
1E
100
AcDbEntity
  8
PEF-L15A
100
AcDbLine
 10
312.0
 20
104.0
 30
0.0
 11
312.0
 21
129.9999999999999
 31
0.0
  0
LINE
  5
3B8
330
1E
100
AcDbEntity
  8
PEF-L15A
  6
CENTER
100
AcDbLine
 10
307.75
 20
109.0
 30
0.0
 11
319.75
 21
109.0
 31
0.0
  0
ARC
  5
3B9
330
1E
100
AcDbEntity
  8
PEF-L15A
100
AcDbCircle
 10
312.7527148798768
 20
109.0
 30
0.0
 40
3.000001228428538
100
AcDbArc
 50
279.5414824648141
 51
80.4585175351859
  0
LINE
  5
3BA
330
1E
100
AcDbEntity
  8
PEF-L15A
100
AcDbLine
 10
308.0
 20
123.982304734852
 30
0.0
 11
308.0
 21
122.732304734852
 31
0.0
  0
LWPOLYLINE
  5
3BB
330
1E
100
AcDbEntity
  8
PEF-L15A
100
AcDbPolyline
 90
        2
 70
     0
 43
0.0
 10
308.25
 20
122.75
 42
0.1064788517345336
 10
307.9991253762329
 20
123.9146926455255
 42
0.1030783360639631
  0
LINE
  5
3BF
330
1E
100
AcDbEntity
  8
PEF-L15A
  6
CENTER
100
AcDbLine
 10
308.4999999999999
 20
134.0
 30
0.0
 11
319.0
 21
134.0
 31
0.0
  0
LINE
  5
3C0
330
1E
100
AcDbEntity
  8
PEF-L15A
100
AcDbLine
 10
314.7499999999999
 20
127.0
 30
0.0
 11
314.7499999999999
 21
141.0
 31
0.0
  0
LINE
  5
3C1
330
1E
100
AcDbEntity
  8
PEF-L15A
100
AcDbLine
 10
310.4999999999999
 20
127.1642852501914
 30
0.0
 11
310.4999999999999
 21
128.4490892900133
 31
0.0
  0
LINE
  5
3C2
330
1E
100
AcDbEntity
  8
PEF-L15A
100
AcDbLine
 10
311.5
 20
128.4490892900132
 30
0.0
 11
311.5
 21
129.9999999999999
 31
0.0
  0
ARC
  5
3C3
330
1E
100
AcDbEntity
  8
PEF-L15A
100
AcDbCircle
 10
313.25
 20
141.0
 30
0.0
 40
1.5
100
AcDbArc
 50
0.0
 51
90.0
  0
LWPOLYLINE
  5
3C5
330
1E
100
AcDbEntity
  8
PEF-L15A
100
AcDbPolyline
 90
       16
 70
     1
 43
0.0
 10
307.5
 20
176.2129028356264
 42
0.1151257636849413
 10
307.2805317542368
 20
177.1534369938765
 42
0.1038970668979465
 10
306.6213203435596
 20
177.9931822305738
 42
0.091165108145368
 10
305.6706839301745
 20
178.5329223784545
 42
0.0838340827757829
 10
304.4999999999999
 20
178.7305981007744
 42
0.0838340827757791
 10
303.3293160698253
 20
178.5329223784545
 42
0.0911651081453645
 10
302.3786796564403
 20
177.9931822305738
 42
0.1038970668979273
 10
301.7194682457631
 20
177.1534369938765
 42
0.1151257636849124
 10
301.5
 20
176.2129028356264
 42
0.1151257636849214
 10
301.7194682457631
 20
175.2723686773763
 42
0.103897066897942
 10
302.3786796564403
 20
174.432623440679
 42
0.0911651081453737
 10
303.3293160698253
 20
173.8928832927985
 42
0.0838340827757888
 10
304.4999999999999
 20
173.6952075704786
 42
0.0838340827757792
 10
305.6706839301745
 20
173.8928832927985
 42
0.0911651081453643
 10
306.6213203435596
 20
174.432623440679
 42
0.1038970668979196
 10
307.2805317542368
 20
175.2723686773761
 42
0.1151257636849319
  0
LWPOLYLINE
  5
3D7
330
1E
100
AcDbEntity
  8
PEF-L15A
100
AcDbPolyline
 90
       16
 70
     1
 43
0.0
 10
308.0
 20
176.2129028356264
 42
0.1124346172583229
 10
307.7422203030061
 20
177.3447649348416
 42
0.1032155147599072
 10
306.9748737341528
 20
178.3467356211671
 42
0.0923908212345656
 10
305.862082614389
 20
178.9946719421646
 42
0.08596492940907
 10
304.4999999999999
 20
179.2305981007744
 42
0.0859649294090601
 10
303.1379173856108
 20
178.9946719421646
 42
0.0923908212345645
 10
302.025126265847
 20
178.3467356211671
 42
0.1032155147599119
 10
301.2577796969936
 20
177.3447649348415
 42
0.1124346172583244
 10
301.0
 20
176.2129028356264
 42
0.1124346172583075
 10
301.2577796969936
 20
175.0810407364113
 42
0.1032155147599062
 10
302.025126265847
 20
174.0790700500859
 42
0.0923908212345785
 10
303.1379173856109
 20
173.4311337290884
 42
0.0859649294090668
 10
304.4999999999999
 20
173.1952075704786
 42
0.0859649294090637
 10
305.8620826143889
 20
173.4311337290884
 42
0.0923908212345758
 10
306.9748737341528
 20
174.0790700500859
 42
0.1032155147599153
 10
307.7422203030061
 20
175.0810407364113
 42
0.1124346172583276
  0
LWPOLYLINE
  5
3E9
330
1E
100
AcDbEntity
  8
PEF-L15A
100
AcDbPolyline
 90
        9
 70
     0
 43
0.0
 10
301.0
 20
174.9629028356264
 42
0.1124346172583075
 10
301.2577796969936
 20
173.8310407364113
 42
0.1032155147599062
 10
302.025126265847
 20
172.8290700500858
 42
0.0923908212345785
 10
303.1379173856109
 20
172.1811337290884
 42
0.0859649294090668
 10
304.4999999999999
 20
171.9452075704785
 42
0.0859649294090637
 10
305.8620826143889
 20
172.1811337290884
 42
0.0923908212345758
 10
306.9748737341528
 20
172.8290700500858
 42
0.1032155147599153
 10
307.7422203030061
 20
173.8310407364113
 42
0.1124346172583276
 10
308.0
 20
174.9629028356264
 42
0.1124346172583229
  0
LWPOLYLINE
  5
3F4
330
1E
100
AcDbEntity
  8
PEF-L15A
100
AcDbPolyline
 90
       10
 70
     0
 43
0.0
 10
301.0008746237671
 20
176.1452907463
 42
0.1064788517345288
 10
300.75
 20
174.9805981007744
 42
0.1119247190749177
 10
301.0265420175333
 20
173.7606810955621
 42
0.1030783360639784
 10
301.8483495705504
 20
172.6825010619181
 42
0.0926219775485476
 10
303.0414032635218
 20
171.9844738693883
 42
0.0863780754328234
 10
304.4999999999999
 20
171.7305981007744
 42
0.0863780754328282
 10
305.9585967364781
 20
171.9844738693883
 42
0.0926219775485525
 10
307.1516504294494
 20
172.6825010619181
 42
0.1030783360639587
 10
307.9734579824665
 20
173.7606810955621
 42
0.1119247190749101
 10
308.25
 20
174.9805981007744
 42
0.1119247190749275
  0
LWPOLYLINE
  5
400
330
1E
100
AcDbEntity
  8
PEF-L15A
100
AcDbPolyline
 90
       16
 70
     1
 43
0.0
 10
307.5
 20
157.4449485369264
 42
0.1151257636849413
 10
307.2805317542368
 20
158.3854826951766
 42
0.1038970668979465
 10
306.6213203435596
 20
159.2252279318738
 42
0.091165108145368
 10
305.6706839301745
 20
159.7649680797544
 42
0.0838340827757829
 10
304.4999999999999
 20
159.9626438020743
 42
0.0838340827757791
 10
303.3293160698253
 20
159.7649680797544
 42
0.0911651081453645
 10
302.3786796564403
 20
159.2252279318738
 42
0.1038970668979273
 10
301.7194682457631
 20
158.3854826951766
 42
0.1151257636849124
 10
301.5
 20
157.4449485369264
 42
0.1151257636849214
 10
301.7194682457631
 20
156.5044143786763
 42
0.103897066897942
 10
302.3786796564403
 20
155.664669141979
 42
0.0911651081453737
 10
303.3293160698253
 20
155.1249289940984
 42
0.0838340827757888
 10
304.4999999999999
 20
154.9272532717785
 42
0.0838340827757792
 10
305.6706839301745
 20
155.1249289940984
 42
0.0911651081453643
 10
306.6213203435596
 20
155.664669141979
 42
0.1038970668979196
 10
307.2805317542368
 20
156.5044143786761
 42
0.1151257636849319
  0
LWPOLYLINE
  5
412
330
1E
100
AcDbEntity
  8
PEF-L15A
100
AcDbPolyline
 90
       10
 70
     0
 43
0.0
 10
301.0008746237671
 20
157.3773364476
 42
0.1064788517345288
 10
300.75
 20
156.2126438020743
 42
0.1119247190749177
 10
301.0265420175333
 20
154.992726796862
 42
0.1030783360639784
 10
301.8483495705504
 20
153.914546763218
 42
0.0926219775485476
 10
303.0414032635218
 20
153.2165195706882
 42
0.0863780754328234
 10
304.4999999999999
 20
152.9626438020743
 42
0.0863780754328282
 10
305.9585967364781
 20
153.2165195706882
 42
0.0926219775485525
 10
307.1516504294494
 20
153.914546763218
 42
0.1030783360639587
 10
307.9734579824665
 20
154.992726796862
 42
0.1119247190749101
 10
308.25
 20
156.2126438020743
 42
0.1119247190749275
  0
LWPOLYLINE
  5
41E
330
1E
100
AcDbEntity
  8
PEF-L15A
100
AcDbPolyline
 90
        9
 70
     0
 43
0.0
 10
301.0
 20
156.1949485369264
 42
0.1124346172583075
 10
301.2577796969936
 20
155.0630864377113
 42
0.1032155147599062
 10
302.025126265847
 20
154.0611157513858
 42
0.0923908212345785
 10
303.1379173856109
 20
153.4131794303883
 42
0.0859649294090668
 10
304.4999999999999
 20
153.1772532717785
 42
0.0859649294090637
 10
305.8620826143889
 20
153.4131794303883
 42
0.0923908212345758
 10
306.9748737341528
 20
154.0611157513858
 42
0.1032155147599153
 10
307.7422203030061
 20
155.0630864377113
 42
0.1124346172583276
 10
308.0
 20
156.1949485369264
 42
0.1124346172583229
  0
LWPOLYLINE
  5
429
330
1E
100
AcDbEntity
  8
PEF-L15A
100
AcDbPolyline
 90
       16
 70
     1
 43
0.0
 10
308.0
 20
157.4449485369264
 42
0.1124346172583229
 10
307.7422203030061
 20
158.5768106361415
 42
0.1032155147599072
 10
306.9748737341528
 20
159.5787813224669
 42
0.0923908212345656
 10
305.862082614389
 20
160.2267176434645
 42
0.08596492940907
 10
304.4999999999999
 20
160.4626438020743
 42
0.0859649294090601
 10
303.1379173856108
 20
160.2267176434645
 42
0.0923908212345645
 10
302.025126265847
 20
159.5787813224669
 42
0.1032155147599119
 10
301.2577796969936
 20
158.5768106361415
 42
0.1124346172583244
 10
301.0
 20
157.4449485369264
 42
0.1124346172583075
 10
301.2577796969936
 20
156.3130864377113
 42
0.1032155147599062
 10
302.025126265847
 20
155.3111157513858
 42
0.0923908212345785
 10
303.1379173856109
 20
154.6631794303883
 42
0.0859649294090668
 10
304.4999999999999
 20
154.4272532717785
 42
0.0859649294090637
 10
305.8620826143889
 20
154.6631794303883
 42
0.0923908212345758
 10
306.9748737341528
 20
155.3111157513858
 42
0.1032155147599153
 10
307.7422203030061
 20
156.3130864377113
 42
0.1124346172583276
  0
LINE
  5
43B
330
1E
100
AcDbEntity
  8
PEF-L15A
100
AcDbLine
 10
286.5
 20
169.0839318824735
 30
0.0
 11
310.4999999999999
 21
169.0839318824735
 31
0.0
  0
LINE
  5
43C
330
1E
100
AcDbEntity
  8
PEF-L15A
100
AcDbLine
 10
286.5
 20
169.860389017781
 30
0.0
 11
310.4999999999999
 21
169.860389017781
 31
0.0
  0
LINE
  5
43D
330
1E
100
AcDbEntity
  8
PEF-L15A
100
AcDbLine
 10
286.5
 20
170.7015509143643
 30
0.0
 11
310.4999999999999
 21
170.7015509143643
 31
0.0
  0
LINE
  5
43E
330
1E
100
AcDbEntity
  8
PEF-L15A
100
AcDbLine
 10
286.5
 20
179.3948833509659
 30
0.0
 11
310.4999999999999
 21
179.3948833509659
 31
0.0
  0
LINE
  5
43F
330
1E
100
AcDbEntity
  8
PEF-L15A
100
AcDbLine
 10
286.5
 20
150.3159775837735
 30
0.0
 11
310.4999999999999
 21
150.3159775837735
 31
0.0
  0
LINE
  5
440
330
1E
100
AcDbEntity
  8
PEF-L15A
100
AcDbLine
 10
286.5
 20
151.092434719081
 30
0.0
 11
310.4999999999999
 21
151.092434719081
 31
0.0
  0
LINE
  5
441
330
1E
100
AcDbEntity
  8
PEF-L15A
100
AcDbLine
 10
286.5
 20
151.9335966156641
 30
0.0
 11
310.4999999999999
 21
151.9335966156641
 31
0.0
  0
LINE
  5
442
330
1E
100
AcDbEntity
  8
PEF-L15A
100
AcDbLine
 10
286.5
 20
160.6269290522659
 30
0.0
 11
310.4999999999999
 21
160.6269290522659
 31
0.0
  0
LINE
  5
443
330
1E
100
AcDbEntity
  8
PEF-L15A
100
AcDbLine
 10
313.25
 20
149.3185165257813
 30
0.0
 11
299.0
 21
149.3185165257813
 31
0.0
  0
LINE
  5
444
330
1E
100
AcDbEntity
  8
PEF-L15A
100
AcDbLine
 10
285.9999999999999
 20
180.9999999999999
 30
0.0
 11
311.0
 21
181.0
 31
0.0
  0
LINE
  5
445
330
1E
100
AcDbEntity
  8
PEF-L15A
100
AcDbLine
 10
221.2499999999999
 20
187.25
 30
0.0
 11
236.0
 21
187.25
 31
0.0
  0
LINE
  5
446
330
1E
100
AcDbEntity
  8
PEF-L15A
100
AcDbLine
 10
221.2499999999999
 20
187.7499999999999
 30
0.0
 11
236.0
 21
187.7499999999999
 31
0.0
  0
LINE
  5
447
330
1E
100
AcDbEntity
  8
PEF-L15A
100
AcDbLine
 10
221.2499999999999
 20
187.25
 30
0.0
 11
221.2499999999999
 21
187.7499999999999
 31
0.0
  0
LINE
  5
448
330
1E
100
AcDbEntity
  8
PEF-L15A
100
AcDbLine
 10
239.25
 20
187.5
 30
0.0
 11
236.0
 21
186.7499999999999
 31
0.0
  0
LINE
  5
449
330
1E
100
AcDbEntity
  8
PEF-L15A
100
AcDbLine
 10
236.0
 20
188.25
 30
0.0
 11
239.25
 21
187.5
 31
0.0
  0
TEXT
  5
44C
330
1E
100
AcDbEntity
  8
PEF-L15A
100
AcDbText
 10
221.225
 20
188.9625
 30
0.0
 40
2.549999999999998
  1
이송방향
100
AcDbText
  0
LINE
  5
44D
330
1E
100
AcDbEntity
  8
PEF-L15A
100
AcDbLine
 10
236.0
 20
186.7499999999999
 30
0.0
 11
236.0
 21
187.25
 31
0.0
  0
LINE
  5
44E
330
1E
100
AcDbEntity
  8
PEF-L15A
100
AcDbLine
 10
236.0
 20
187.7499999999999
 30
0.0
 11
236.0
 21
188.25
 31
0.0
  0
LWPOLYLINE
  5
452
330
1E
100
AcDbEntity
  8
PEF-L15A
100
AcDbPolyline
 90
       10
 70
     0
 43
0.0
 10
289.0008746237671
 20
176.1452907463
 42
0.1064788517345288
 10
288.75
 20
174.9805981007744
 42
0.1119247190749177
 10
289.0265420175333
 20
173.7606810955621
 42
0.1030783360639784
 10
289.8483495705503
 20
172.6825010619181
 42
0.0926219775485476
 10
291.0414032635218
 20
171.9844738693883
 42
0.0863780754328234
 10
292.5
 20
171.7305981007744
 42
0.0863780754328282
 10
293.9585967364781
 20
171.9844738693883
 42
0.0926219775485525
 10
295.1516504294494
 20
172.6825010619181
 42
0.1030783360639587
 10
295.9734579824665
 20
173.7606810955621
 42
0.1119247190749101
 10
296.25
 20
174.9805981007744
 42
0.1119247190749275
  0
LINE
  5
45E
330
1E
100
AcDbEntity
  8
PEF-L15A
100
AcDbLine
 10
286.0
 20
167.0
 30
0.0
 11
286.0
 21
181.0
 31
0.0
  0
LINE
  5
45F
330
1E
100
AcDbEntity
  8
PEF-L15A
100
AcDbLine
 10
286.5
 20
169.0839318824735
 30
0.0
 11
286.5
 21
179.3948833509659
 31
0.0
  0
LINE
  5
460
330
1E
100
AcDbEntity
  8
PEF-L15A
100
AcDbLine
 10
285.0
 20
149.3185165257813
 30
0.0
 11
285.0
 21
179.0
 31
0.0
  0
LINE
  5
461
330
1E
100
AcDbEntity
  8
PEF-L15A
100
AcDbLine
 10
283.75
 20
149.3185165257813
 30
0.0
 11
298.0
 21
149.3185165257813
 31
0.0
  0
LWPOLYLINE
  5
462
330
1E
100
AcDbEntity
  8
PEF-L15A
100
AcDbPolyline
 90
       16
 70
     1
 43
0.0
 10
296.0
 20
157.4449485369264
 42
0.1124346172583229
 10
295.7422203030061
 20
158.5768106361415
 42
0.1032155147599072
 10
294.9748737341528
 20
159.5787813224669
 42
0.0923908212345656
 10
293.8620826143889
 20
160.2267176434645
 42
0.08596492940907
 10
292.5
 20
160.4626438020743
 42
0.0859649294090601
 10
291.137917385611
 20
160.2267176434645
 42
0.0923908212345645
 10
290.0251262658469
 20
159.5787813224669
 42
0.1032155147599119
 10
289.2577796969936
 20
158.5768106361415
 42
0.1124346172583244
 10
289.0
 20
157.4449485369264
 42
0.1124346172583075
 10
289.2577796969936
 20
156.3130864377113
 42
0.1032155147599062
 10
290.0251262658469
 20
155.3111157513858
 42
0.0923908212345785
 10
291.137917385611
 20
154.6631794303883
 42
0.0859649294090668
 10
292.5
 20
154.4272532717785
 42
0.0859649294090637
 10
293.8620826143889
 20
154.6631794303883
 42
0.0923908212345758
 10
294.9748737341528
 20
155.3111157513858
 42
0.1032155147599153
 10
295.7422203030061
 20
156.3130864377113
 42
0.1124346172583276
  0
LINE
  5
474
330
1E
100
AcDbEntity
  8
PEF-L15A
100
AcDbLine
 10
286.5
 20
150.3159775837735
 30
0.0
 11
286.5
 21
160.6269290522659
 31
0.0
  0
LWPOLYLINE
  5
475
330
1E
100
AcDbEntity
  8
PEF-L15A
100
AcDbPolyline
 90
        9
 70
     0
 43
0.0
 10
289.0
 20
156.1949485369264
 42
0.1124346172583075
 10
289.2577796969936
 20
155.0630864377113
 42
0.1032155147599062
 10
290.0251262658469
 20
154.0611157513858
 42
0.0923908212345785
 10
291.137917385611
 20
153.4131794303883
 42
0.0859649294090668
 10
292.5
 20
153.1772532717785
 42
0.0859649294090637
 10
293.8620826143889
 20
153.4131794303883
 42
0.0923908212345758
 10
294.9748737341528
 20
154.0611157513858
 42
0.1032155147599153
 10
295.7422203030061
 20
155.0630864377113
 42
0.1124346172583276
 10
296.0
 20
156.1949485369264
 42
0.1124346172583229
  0
LWPOLYLINE
  5
480
330
1E
100
AcDbEntity
  8
PEF-L15A
100
AcDbPolyline
 90
       10
 70
     0
 43
0.0
 10
289.0008746237671
 20
157.3773364476
 42
0.1064788517345288
 10
288.75
 20
156.2126438020743
 42
0.1119247190749177
 10
289.0265420175333
 20
154.992726796862
 42
0.1030783360639784
 10
289.8483495705503
 20
153.914546763218
 42
0.0926219775485476
 10
291.0414032635218
 20
153.2165195706882
 42
0.0863780754328234
 10
292.5
 20
152.9626438020743
 42
0.0863780754328282
 10
293.9585967364781
 20
153.2165195706882
 42
0.0926219775485525
 10
295.1516504294494
 20
153.914546763218
 42
0.1030783360639587
 10
295.9734579824665
 20
154.992726796862
 42
0.1119247190749101
 10
296.25
 20
156.2126438020743
 42
0.1119247190749275
  0
LWPOLYLINE
  5
48C
330
1E
100
AcDbEntity
  8
PEF-L15A
100
AcDbPolyline
 90
        6
 70
     1
 43
0.0
 10
290.75
 20
157.4449485369264
 10
291.625
 20
155.9294040803035
 10
293.3749999999998
 20
155.9294040803035
 10
294.2499999999999
 20
157.4449485369264
 10
293.3749999999998
 20
158.9604929935491
 10
291.625
 20
158.9604929935491
  0
LWPOLYLINE
  5
494
330
1E
100
AcDbEntity
  8
PEF-L15A
100
AcDbPolyline
 90
       16
 70
     1
 43
0.0
 10
295.5
 20
157.4449485369264
 42
0.1151257636849413
 10
295.2805317542368
 20
158.3854826951766
 42
0.1038970668979465
 10
294.6213203435596
 20
159.2252279318738
 42
0.091165108145368
 10
293.6706839301745
 20
159.7649680797544
 42
0.0838340827757829
 10
292.5
 20
159.9626438020743
 42
0.0838340827757791
 10
291.3293160698253
 20
159.7649680797544
 42
0.0911651081453645
 10
290.3786796564403
 20
159.2252279318738
 42
0.1038970668979273
 10
289.7194682457631
 20
158.3854826951766
 42
0.1151257636849124
 10
289.4999999999999
 20
157.4449485369264
 42
0.1151257636849214
 10
289.7194682457631
 20
156.5044143786763
 42
0.103897066897942
 10
290.3786796564403
 20
155.664669141979
 42
0.0911651081453737
 10
291.3293160698253
 20
155.1249289940984
 42
0.0838340827757888
 10
292.5
 20
154.9272532717785
 42
0.0838340827757792
 10
293.6706839301745
 20
155.1249289940984
 42
0.0911651081453643
 10
294.6213203435596
 20
155.664669141979
 42
0.1038970668979196
 10
295.2805317542368
 20
156.5044143786761
 42
0.1151257636849319
  0
LINE
  5
4A6
330
1E
100
AcDbEntity
  8
PEF-L15A
100
AcDbLine
 10
289.0
 20
157.4449485369264
 30
0.0
 11
289.0
 21
156.1949485369264
 31
0.0
  0
LINE
  5
4A7
330
1E
100
AcDbEntity
  8
PEF-L15A
100
AcDbLine
 10
296.0
 20
157.4449485369264
 30
0.0
 11
296.0
 21
156.1949485369264
 31
0.0
  0
LWPOLYLINE
  5
4A8
330
1E
100
AcDbEntity
  8
PEF-L15A
100
AcDbPolyline
 90
        2
 70
     0
 43
0.0
 10
296.25
 20
156.2126438020743
 42
0.1064788517345336
 10
295.9991253762327
 20
157.3773364476
 42
0.1030783360639631
  0
LINE
  5
4AC
330
1E
100
AcDbEntity
  8
PEF-L15A
100
AcDbLine
 10
301.0
 20
157.4449485369264
 30
0.0
 11
301.0
 21
156.1949485369264
 31
0.0
  0
LINE
  5
4AD
330
1E
100
AcDbEntity
  8
PEF-L15A
100
AcDbLine
 10
286.5
 20
169.0839318824735
 30
0.0
 11
286.5
 21
160.6269290522659
 31
0.0
  0
LINE
  5
4AE
330
1E
100
AcDbEntity
  8
PEF-L15A
100
AcDbLine
 10
286.0
 20
167.0
 30
0.0
 11
286.5
 21
167.0
 31
0.0
  0
LINE
  5
4AF
330
1E
100
AcDbEntity
  8
PEF-L15A
100
AcDbLine
 10
283.75
 20
179.0
 30
0.0
 11
285.0
 21
179.0
 31
0.0
  0
LWPOLYLINE
  5
4B1
330
1E
100
AcDbEntity
  8
PEF-L15A
100
AcDbPolyline
 90
       16
 70
     1
 43
0.0
 10
295.5
 20
176.2129028356264
 42
0.1151257636849413
 10
295.2805317542368
 20
177.1534369938765
 42
0.1038970668979465
 10
294.6213203435596
 20
177.9931822305738
 42
0.091165108145368
 10
293.6706839301745
 20
178.5329223784545
 42
0.0838340827757829
 10
292.5
 20
178.7305981007744
 42
0.0838340827757791
 10
291.3293160698253
 20
178.5329223784545
 42
0.0911651081453645
 10
290.3786796564403
 20
177.9931822305738
 42
0.1038970668979273
 10
289.7194682457631
 20
177.1534369938765
 42
0.1151257636849124
 10
289.4999999999999
 20
176.2129028356264
 42
0.1151257636849214
 10
289.7194682457631
 20
175.2723686773763
 42
0.103897066897942
 10
290.3786796564403
 20
174.432623440679
 42
0.0911651081453737
 10
291.3293160698253
 20
173.8928832927985
 42
0.0838340827757888
 10
292.5
 20
173.6952075704786
 42
0.0838340827757792
 10
293.6706839301745
 20
173.8928832927985
 42
0.0911651081453643
 10
294.6213203435596
 20
174.432623440679
 42
0.1038970668979196
 10
295.2805317542368
 20
175.2723686773761
 42
0.1151257636849319
  0
LWPOLYLINE
  5
4C3
330
1E
100
AcDbEntity
  8
PEF-L15A
100
AcDbPolyline
 90
        6
 70
     1
 43
0.0
 10
290.75
 20
176.2129028356264
 10
291.625
 20
174.6973583790036
 10
293.3749999999998
 20
174.6973583790036
 10
294.2499999999999
 20
176.2129028356264
 10
293.3749999999998
 20
177.7284472922491
 10
291.625
 20
177.7284472922491
  0
LWPOLYLINE
  5
4CB
330
1E
100
AcDbEntity
  8
PEF-L15A
100
AcDbPolyline
 90
        9
 70
     0
 43
0.0
 10
289.0
 20
174.9629028356264
 42
0.1124346172583075
 10
289.2577796969936
 20
173.8310407364113
 42
0.1032155147599062
 10
290.0251262658469
 20
172.8290700500858
 42
0.0923908212345785
 10
291.137917385611
 20
172.1811337290884
 42
0.0859649294090668
 10
292.5
 20
171.9452075704785
 42
0.0859649294090637
 10
293.8620826143889
 20
172.1811337290884
 42
0.0923908212345758
 10
294.9748737341528
 20
172.8290700500858
 42
0.1032155147599153
 10
295.7422203030061
 20
173.8310407364113
 42
0.1124346172583276
 10
296.0
 20
174.9629028356264
 42
0.1124346172583229
  0
LWPOLYLINE
  5
4D6
330
1E
100
AcDbEntity
  8
PEF-L15A
100
AcDbPolyline
 90
       16
 70
     1
 43
0.0
 10
296.0
 20
176.2129028356264
 42
0.1124346172583229
 10
295.7422203030061
 20
177.3447649348416
 42
0.1032155147599072
 10
294.9748737341528
 20
178.3467356211671
 42
0.0923908212345656
 10
293.8620826143889
 20
178.9946719421646
 42
0.08596492940907
 10
292.5
 20
179.2305981007744
 42
0.0859649294090601
 10
291.137917385611
 20
178.9946719421646
 42
0.0923908212345645
 10
290.0251262658469
 20
178.3467356211671
 42
0.1032155147599119
 10
289.2577796969936
 20
177.3447649348415
 42
0.1124346172583244
 10
289.0
 20
176.2129028356264
 42
0.1124346172583075
 10
289.2577796969936
 20
175.0810407364113
 42
0.1032155147599062
 10
290.0251262658469
 20
174.0790700500859
 42
0.0923908212345785
 10
291.137917385611
 20
173.4311337290884
 42
0.0859649294090668
 10
292.5
 20
173.1952075704786
 42
0.0859649294090637
 10
293.8620826143889
 20
173.4311337290884
 42
0.0923908212345758
 10
294.9748737341528
 20
174.0790700500859
 42
0.1032155147599153
 10
295.7422203030061
 20
175.0810407364113
 42
0.1124346172583276
  0
LINE
  5
4E8
330
1E
100
AcDbEntity
  8
PEF-L15A
100
AcDbLine
 10
289.0
 20
176.2129028356264
 30
0.0
 11
289.0
 21
174.9629028356264
 31
0.0
  0
LWPOLYLINE
  5
4E9
330
1E
100
AcDbEntity
  8
PEF-L15A
100
AcDbPolyline
 90
        2
 70
     0
 43
0.0
 10
296.25
 20
174.9805981007744
 42
0.1064788517345336
 10
295.9991253762327
 20
176.1452907463
 42
0.1030783360639631
  0
LINE
  5
4ED
330
1E
100
AcDbEntity
  8
PEF-L15A
100
AcDbLine
 10
296.0
 20
176.2129028356264
 30
0.0
 11
296.0
 21
174.9629028356264
 31
0.0
  0
LINE
  5
4EE
330
1E
100
AcDbEntity
  8
PEF-L15A
100
AcDbLine
 10
301.0
 20
176.2129028356264
 30
0.0
 11
301.0
 21
174.9629028356264
 31
0.0
  0
LINE
  5
4F1
330
1E
100
AcDbEntity
  8
PEF-L15A
100
AcDbLine
 10
311.0
 20
167.0
 30
0.0
 11
311.0
 21
181.0
 31
0.0
  0
LINE
  5
4F2
330
1E
100
AcDbEntity
  8
PEF-L15A
100
AcDbLine
 10
310.4999999999999
 20
169.0839318824735
 30
0.0
 11
310.4999999999999
 21
179.3948833509659
 31
0.0
  0
LINE
  5
4F3
330
1E
100
AcDbEntity
  8
PEF-L15A
100
AcDbLine
 10
312.0
 20
149.3185165257813
 30
0.0
 11
312.0
 21
179.0
 31
0.0
  0
LINE
  5
4F4
330
1E
100
AcDbEntity
  8
PEF-L15A
100
AcDbLine
 10
310.4999999999999
 20
150.3159775837735
 30
0.0
 11
310.4999999999999
 21
160.6269290522659
 31
0.0
  0
LWPOLYLINE
  5
4F5
330
1E
100
AcDbEntity
  8
PEF-L15A
100
AcDbPolyline
 90
        6
 70
     1
 43
0.0
 10
302.7499999999998
 20
157.4449485369264
 10
303.6249999999999
 20
155.9294040803035
 10
305.3749999999999
 20
155.9294040803035
 10
306.25
 20
157.4449485369264
 10
305.3749999999999
 20
158.9604929935491
 10
303.6249999999999
 20
158.9604929935491
  0
LWPOLYLINE
  5
4FD
330
1E
100
AcDbEntity
  8
PEF-L15A
100
AcDbPolyline
 90
        2
 70
     0
 43
0.0
 10
308.25
 20
156.2126438020743
 42
0.1064788517345336
 10
307.9991253762329
 20
157.3773364476
 42
0.1030783360639631
  0
LINE
  5
501
330
1E
100
AcDbEntity
  8
PEF-L15A
100
AcDbLine
 10
308.0
 20
157.4449485369264
 30
0.0
 11
308.0
 21
156.1949485369264
 31
0.0
  0
LINE
  5
502
330
1E
100
AcDbEntity
  8
PEF-L15A
100
AcDbLine
 10
310.4999999999999
 20
169.0839318824735
 30
0.0
 11
310.4999999999999
 21
160.6269290522659
 31
0.0
  0
LINE
  5
503
330
1E
100
AcDbEntity
  8
PEF-L15A
100
AcDbLine
 10
310.4999999999999
 20
167.0
 30
0.0
 11
311.0
 21
167.0
 31
0.0
  0
LWPOLYLINE
  5
505
330
1E
100
AcDbEntity
  8
PEF-L15A
100
AcDbPolyline
 90
        6
 70
     1
 43
0.0
 10
302.7499999999998
 20
176.2129028356264
 10
303.6249999999999
 20
174.6973583790036
 10
305.3749999999999
 20
174.6973583790036
 10
306.25
 20
176.2129028356264
 10
305.3749999999999
 20
177.7284472922491
 10
303.6249999999999
 20
177.7284472922491
  0
LINE
  5
50D
330
1E
100
AcDbEntity
  8
PEF-L15A
100
AcDbLine
 10
308.0
 20
176.2129028356264
 30
0.0
 11
308.0
 21
174.9629028356264
 31
0.0
  0
LWPOLYLINE
  5
50E
330
1E
100
AcDbEntity
  8
PEF-L15A
100
AcDbPolyline
 90
        2
 70
     0
 43
0.0
 10
308.25
 20
174.9805981007744
 42
0.1064788517345336
 10
307.9991253762329
 20
176.1452907463
 42
0.1030783360639631
  0
LINE
  5
512
330
1E
100
AcDbEntity
  8
PEF-L15A
100
AcDbLine
 10
312.0
 20
179.0
 30
0.0
 11
313.25
 21
179.0
 31
0.0
  0
LINE
  5
514
330
1E
100
AcDbEntity
  8
PEF-L15A
100
AcDbLine
 10
203.5
 20
93.49999999999999
 30
0.0
 11
203.5
 21
93.49999999999999
 31
0.0
  0
LINE
  5
515
330
1E
100
AcDbEntity
  8
PEF-L15A
100
AcDbLine
 10
213.5
 20
93.49999999999999
 30
0.0
 11
213.5
 21
93.49999999999999
 31
0.0
  0
LWPOLYLINE
  5
51E
330
1E
100
AcDbEntity
  8
PEF-L15A
100
AcDbPolyline
 90
        4
 70
     0
 43
0.0
 10
306.1056624327026
 20
175.9629028356265
 10
305.3749999999999
 20
177.2284472922491
 10
303.6249999999999
 20
177.2284472922491
 10
302.8943375672974
 20
175.9629028356265
  0
LWPOLYLINE
  5
524
330
1E
100
AcDbEntity
  8
PEF-L15A
100
AcDbPolyline
 90
        4
 70
     0
 43
0.0
 10
294.1056624327026
 20
175.9629028356265
 10
293.3749999999998
 20
177.2284472922491
 10
291.625
 20
177.2284472922491
 10
290.8943375672973
 20
175.9629028356265
  0
LWPOLYLINE
  5
52A
330
1E
100
AcDbEntity
  8
PEF-L15A
100
AcDbPolyline
 90
        4
 70
     0
 43
0.0
 10
294.1056624327026
 20
157.1949485369264
 10
293.3749999999998
 20
158.4604929935492
 10
291.625
 20
158.4604929935492
 10
290.8943375672973
 20
157.1949485369264
  0
LWPOLYLINE
  5
530
330
1E
100
AcDbEntity
  8
PEF-L15A
100
AcDbPolyline
 90
        4
 70
     0
 43
0.0
 10
306.1056624327026
 20
157.1949485369264
 10
305.3749999999999
 20
158.4604929935492
 10
303.6249999999999
 20
158.4604929935492
 10
302.8943375672974
 20
157.1949485369264
  0
LWPOLYLINE
  5
536
330
1E
100
AcDbEntity
  8
PEF-L15A
100
AcDbPolyline
 90
        4
 70
     0
 43
0.0
 10
294.1056624327024
 20
123.732304734852
 10
293.3749999999998
 20
124.9978491914748
 10
291.625
 20
124.9978491914748
 10
290.8943375672973
 20
123.732304734852
  0
LWPOLYLINE
  5
53C
330
1E
100
AcDbEntity
  8
PEF-L15A
100
AcDbPolyline
 90
        4
 70
     0
 43
0.0
 10
306.1056624327024
 20
123.732304734852
 10
305.3749999999999
 20
124.9978491914748
 10
303.6249999999999
 20
124.9978491914748
 10
302.8943375672974
 20
123.732304734852
  0
LINE
  5
542
330
1E
100
AcDbEntity
  8
PEF-L15A
100
AcDbLine
 10
314.7499999999999
 20
136.7499999999999
 30
0.0
 11
326.8334415663448
 21
135.0153366360071
 31
0.0
  0
LINE
  5
543
330
1E
100
AcDbEntity
  8
PEF-L15A
100
AcDbLine
 10
332.3333613226604
 20
130.8808884053472
 30
0.0
 11
338.1653034719016
 21
113.7650206356534
 31
0.0
  0
LINE
  5
544
330
1E
100
AcDbEntity
  8
PEF-L15A
100
AcDbLine
 10
338.5679398765036
 20
112.1677365128293
 30
0.0
 11
339.5
 21
100.75
 31
0.0
  0
LINE
  5
545
330
1E
100
AcDbEntity
  8
PEF-L15A
100
AcDbLine
 10
339.5
 20
100.75
 30
0.0
 11
334.0
 21
100.75
 31
0.0
  0
LINE
  5
546
330
1E
100
AcDbEntity
  8
PEF-L15A
100
AcDbLine
 10
334.0
 20
100.75
 30
0.0
 11
332.8270288962239
 21
112.2451168170039
 31
0.0
  0
LINE
  5
547
330
1E
100
AcDbEntity
  8
PEF-L15A
100
AcDbLine
 10
332.4524745067705
 20
113.6980405802691
 30
0.0
 11
328.3927124144735
 21
127.069020873735
 31
0.0
  0
LINE
  5
548
330
1E
100
AcDbEntity
  8
PEF-L15A
100
AcDbLine
 10
324.3540482743103
 20
130.07696229161
 30
0.0
 11
314.7499999999999
 21
131.25
 31
0.0
  0
ARC
  5
549
330
1E
100
AcDbEntity
  8
PEF-L15A
100
AcDbCircle
 10
325.9202599783451
 20
128.0751565672094
 30
0.0
 40
7.0
100
AcDbArc
 50
23.62937773065588
 51
82.50414236027024
  0
ARC
  5
54A
330
1E
100
AcDbEntity
  8
PEF-L15A
100
AcDbCircle
 10
323.7930960912708
 20
125.1085286704027
 30
0.0
 40
5.0
100
AcDbArc
 50
23.08513367280784
 51
83.55839990066481
  0
ARC
  5
54B
330
1E
100
AcDbEntity
  8
PEF-L15A
100
AcDbCircle
 10
327.8528581835677
 20
111.7375483769369
 30
0.0
 40
5.0
100
AcDbArc
 50
5.826342029555845
 51
11.50966375348352
  0
ARC
  5
54C
330
1E
100
AcDbEntity
  8
PEF-L15A
100
AcDbCircle
 10
333.5845167973906
 20
111.7609264655549
 30
0.0
 40
5.0
100
AcDbArc
 50
4.666858371438985
 51
5.979045346230584
  0
LINE
  5
54D
330
1E
100
AcDbEntity
  8
PEF-L15A
100
AcDbLine
 10
331.4539171530118
 20
91.8469664452032
 30
0.0
 11
330.4998721761291
 21
86.93883052796484
 31
0.0
  0
LINE
  5
54E
330
1E
100
AcDbEntity
  8
PEF-L15A
100
AcDbLine
 10
330.4998721761291
 20
86.93883052796484
 30
0.0
 11
331.9723129513005
 21
86.65261703490003
 31
0.0
  0
LINE
  5
54F
330
1E
100
AcDbEntity
  8
PEF-L15A
100
AcDbLine
 10
335.4080080933674
 20
85.98478555108215
 30
0.0
 11
336.3620530702501
 21
90.89292146832049
 31
0.0
  0
LINE
  5
550
330
1E
100
AcDbEntity
  8
PEF-L15A
100
AcDbLine
 10
335.7689394291968
 20
91.7722486024386
 30
0.0
 11
332.3332442871298
 21
92.44008008625653
 31
0.0
  0
LINE
  5
551
330
1E
100
AcDbEntity
  8
PEF-L15A
100
AcDbLine
 10
333.9355673181958
 20
86.27099904414697
 30
0.0
 11
335.4080080933674
 21
85.98478555108215
 31
0.0
  0
LINE
  5
552
330
1E
100
AcDbEntity
  8
PEF-L15A
100
AcDbLine
 10
335.5235326333348
 20
91.81995085128273
 30
0.0
 11
336.3821731125292
 21
96.23727317679723
 31
0.0
  0
LINE
  5
553
330
1E
100
AcDbEntity
  8
PEF-L15A
100
AcDbLine
 10
336.3821731125292
 20
96.23727317679723
 30
0.0
 11
333.4372915621863
 21
96.8097001629269
 31
0.0
  0
LINE
  5
554
330
1E
100
AcDbEntity
  8
PEF-L15A
100
AcDbLine
 10
333.4372915621863
 20
96.8097001629269
 30
0.0
 11
332.5786510829918
 21
92.39237783741236
 31
0.0
  0
LINE
  5
555
330
1E
100
AcDbEntity
  8
PEF-L15A
100
AcDbLine
 10
333.9281051539101
 20
96.71429566523862
 30
0.0
 11
334.7125666100895
 21
100.75
 31
0.0
  0
LINE
  5
556
330
1E
100
AcDbEntity
  8
PEF-L15A
100
AcDbLine
 10
336.75
 20
100.75
 30
0.0
 11
335.8913595208055
 21
96.3326776744855
 31
0.0
  0
ARC
  5
557
330
1E
100
AcDbEntity
  8
PEF-L15A
100
AcDbCircle
 10
333.574069369722
 20
89.65209638572842
 30
0.0
 40
1.0
100
AcDbArc
 50
349.0
 51
169.0
  0
LINE
  5
558
330
1E
100
AcDbEntity
  8
PEF-L15A
100
AcDbLine
 10
334.5556965531697
 20
89.46128739035186
 30
0.0
 11
333.9355673181958
 21
86.27099904414697
 31
0.0
  0
LINE
  5
559
330
1E
100
AcDbEntity
  8
PEF-L15A
100
AcDbLine
 10
331.9723129513005
 20
86.65261703490003
 30
0.0
 11
332.5924421862743
 21
89.84290538110494
 31
0.0
  0
ARC
  5
55A
330
1E
100
AcDbEntity
  8
PEF-L15A
100
AcDbCircle
 10
335.6258326826643
 20
91.03602821485287
 30
0.0
 40
0.75
100
AcDbArc
 50
349.0
 51
79.00000000000003
  0
ARC
  5
55B
330
1E
100
AcDbEntity
  8
PEF-L15A
100
AcDbCircle
 10
332.1901375405975
 20
91.70385969867076
 30
0.0
 40
0.75
100
AcDbArc
 50
79.00000000000003
 51
169.0
  0
LINE
  5
55C
330
1E
100
AcDbEntity
  8
PEF-L15A
100
AcDbLine
 10
337.6086404791943
 20
96.3326776744855
 30
0.0
 11
336.75
 21
100.75
 31
0.0
  0
LINE
  5
55D
330
1E
100
AcDbEntity
  8
PEF-L15A
100
AcDbLine
 10
338.7874333899103
 20
100.75
 30
0.0
 11
339.5718948460897
 21
96.7142956652386
 31
0.0
  0
ARC
  5
55E
330
1E
100
AcDbEntity
  8
PEF-L15A
100
AcDbCircle
 10
339.9259306302778
 20
89.6520963857284
 30
0.0
 40
1.0
100
AcDbArc
 50
11.0
 51
191.0
  0
LINE
  5
55F
330
1E
100
AcDbEntity
  8
PEF-L15A
100
AcDbLine
 10
340.0627084378136
 20
96.80970016292684
 30
0.0
 11
337.1178268874706
 21
96.23727317679723
 31
0.0
  0
LINE
  5
560
330
1E
100
AcDbEntity
  8
PEF-L15A
100
AcDbLine
 10
341.16675571287
 20
92.4400800862565
 30
0.0
 11
337.7310605708032
 21
91.7722486024386
 31
0.0
  0
ARC
  5
561
330
1E
100
AcDbEntity
  8
PEF-L15A
100
AcDbCircle
 10
337.8741673173355
 20
91.03602821485287
 30
0.0
 40
0.75
100
AcDbArc
 50
101.0
 51
191.0
  0
LINE
  5
562
330
1E
100
AcDbEntity
  8
PEF-L15A
100
AcDbLine
 10
339.564432681804
 20
86.27099904414693
 30
0.0
 11
338.9443034468303
 21
89.46128739035186
 31
0.0
  0
LINE
  5
563
330
1E
100
AcDbEntity
  8
PEF-L15A
100
AcDbLine
 10
338.0919919066324
 20
85.98478555108213
 30
0.0
 11
339.564432681804
 21
86.27099904414693
 31
0.0
  0
LINE
  5
564
330
1E
100
AcDbEntity
  8
PEF-L15A
100
AcDbLine
 10
337.1379469297497
 20
90.89292146832045
 30
0.0
 11
338.0919919066324
 21
85.98478555108213
 31
0.0
  0
LINE
  5
565
330
1E
100
AcDbEntity
  8
PEF-L15A
100
AcDbLine
 10
337.1178268874706
 20
96.23727317679723
 30
0.0
 11
337.976467366665
 21
91.81995085128271
 31
0.0
  0
ARC
  5
566
330
1E
100
AcDbEntity
  8
PEF-L15A
100
AcDbCircle
 10
341.3098624594023
 20
91.70385969867076
 30
0.0
 40
0.75
100
AcDbArc
 50
11.0
 51
101.0
  0
LINE
  5
567
330
1E
100
AcDbEntity
  8
PEF-L15A
100
AcDbLine
 10
340.9075578137255
 20
89.84290538110492
 30
0.0
 11
341.5276870486993
 21
86.65261703490003
 31
0.0
  0
LINE
  5
568
330
1E
100
AcDbEntity
  8
PEF-L15A
100
AcDbLine
 10
341.5276870486993
 20
86.65261703490003
 30
0.0
 11
343.0001278238707
 21
86.93883052796484
 31
0.0
  0
LINE
  5
569
330
1E
100
AcDbEntity
  8
PEF-L15A
100
AcDbLine
 10
343.0001278238707
 20
86.93883052796484
 30
0.0
 11
342.0460828469881
 21
91.8469664452032
 31
0.0
  0
LINE
  5
56A
330
1E
100
AcDbEntity
  8
PEF-L15A
100
AcDbLine
 10
340.921348917008
 20
92.39237783741236
 30
0.0
 11
340.0627084378136
 21
96.80970016292684
 31
0.0
  0
ARC
  5
56B
330
1E
100
AcDbEntity
  8
PEF-L15A
100
AcDbCircle
 10
333.5845167973906
 20
111.7609264655549
 30
0.0
 40
5.0
100
AcDbArc
 50
18.82846289781903
 51
23.62937773065594
  0
LWPOLYLINE
  5
56C
330
1E
100
AcDbEntity
  8
PEF-L15A
100
AcDbPolyline
 90
        6
 70
     0
 43
0.0
 10
338.557317086441
 20
112.2817501259437
 42
-0.0058306375148167
 10
338.3800058468194
 20
112.2240623883086
 42
-0.0923928909017143
 10
336.5
 20
112.0
 42
-0.0843480926476084
 10
334.8095923353998
 20
112.4028264805597
 42
0.0918581156375539
 10
333.25
 20
112.7499999999999
 42
0.0327775986974172
 10
332.7523135056993
 20
112.7352144264921
 42
0.0760387276610354
  0
LWPOLYLINE
  5
574
330
1E
100
AcDbEntity
  8
PEF-L15A
100
AcDbPolyline
 90
        6
 70
     0
 43
0.0
 10
338.3169620522506
 20
113.3746060836184
 42
-0.0144544680203837
 10
337.8800058468193
 20
113.2240623883086
 42
-0.0923928909017161
 10
336.0
 20
113.0
 42
-0.0843480926476004
 10
334.3095923353998
 20
113.4028264805597
 42
0.0918581156375627
 10
332.75
 20
113.7499999999999
 42
0.0205785707360639
 10
332.4372035446713
 20
113.7483360726273
 42
0.0760387276610508
  0
LINE
  5
87D
330
1E
100
AcDbEntity
  8
PEF-L15A
100
AcDbLine
 10
64.84477863442342
 20
177.4116501533176
 30
0.0
 11
63.88328319084457
 21
181.0
 31
0.0
  0
ENDSEC
  0
SECTION
  2
OBJECTS
  0
DICTIONARY
  5
C
330
0
100
AcDbDictionary
  3
ACAD_GROUP
350
D
  3
ACAD_LAYOUT
350
19
  3
ACAD_MLINESTYLE
350
16
  3
ACAD_PLOTSETTINGS
350
18
  3
ACAD_PLOTSTYLENAME
350
E
  3
DWGPROPS
350
84E
  3
ACDBHEADERROUNDTRIPXREC
350
880
  0
DICTIONARY
  5
873
330
1E
100
AcDbDictionary
280
     1
  3
ACAD_LAYOUTSELFREF
360
8A1
  0
DICTIONARY
  5
871
330
1A
100
AcDbDictionary
280
     1
  3
ACAD_LAYOUTSELFREF
360
8A0
  0
DICTIONARY
  5
D
102
{ACAD_REACTORS
330
C
102
}
330
C
100
AcDbDictionary
  0
DICTIONARY
  5
19
102
{ACAD_REACTORS
330
C
102
}
330
C
100
AcDbDictionary
  0
DICTIONARY
  5
16
102
{ACAD_REACTORS
330
C
102
}
330
C
100
AcDbDictionary
  3
STANDARD
350
17
  0
DICTIONARY
  5
18
102
{ACAD_REACTORS
330
C
102
}
330
C
100
AcDbDictionary
  0
ACDBDICTIONARYWDFLT
  5
E
102
{ACAD_REACTORS
330
C
102
}
330
C
100
AcDbDictionary
281
     1
  3
Normal
350
F
100
AcDbDictionaryWithDefault
340
F
  0
XRECORD
  5
84E
102
{ACAD_REACTORS
330
C
102
}
330
C
100
AcDbXrecord
  1
DWGPROPS COOKIE
  2

  3

  4

  6

  7

  8
한신
  9

300
=
301
=
302
=
303
=
304
=
305
=
306
=
307
=
308
=
309
=
 40
0.016128125
 41
2450389.679198841
 42
2451814.651218634
  1

 90
        0
  0
DICTIONARY
  5
880
102
{ACAD_REACTORS
330
C
102
}
330
C
100
AcDbDictionary
  3
TSTACKALIGN
350
881
  3
TSTACKSIZE
350
882
  3
HYPERLINKBASE
350
883
  3
STYLESHEET
350
884
  3
LAYOUTDICT
350
885
  3
PLOTSETDICT
350
886
  3
PLOTSTYLNAMDICT
350
887
  3
LWETCUNION
350
888
  3
INSUNITS
350
889
  3
CEPSNTYPE
350
88A
  3
FINGERPRINTGUID
350
88B
  3
VERSIONGUID
350
88C
  3
PSVPSCALE
350
88D
  3
PUCSORTHOREF
350
88E
  3
PUCSORTHOVIEW
350
88F
  3
PUCSBASE
350
890
  3
PUCSORGTOP
350
891
  3
PUCSORGBOTTOM
350
892
  3
PUCSORGLEFT
350
893
  3
PUCSORGRIGHT
350
894
  3
PUCSORGFRONT
350
895
  3
PUCSORGBACK
350
896
  3
UCSORTHOREF
350
897
  3
UCSORTHOVIEW
350
898
  3
UCSBASE
350
899
  3
UCSORGTOP
350
89A
  3
UCSORGBOTTOM
350
89B
  3
UCSORGLEFT
350
89C
  3
UCSORGRIGHT
350
89D
  3
UCSORGFRONT
350
89E
  3
UCSORGBACK
350
89F
  0
XRECORD
  5
8A1
102
{ACAD_REACTORS
330
873
102
}
330
873
100
AcDbXrecord
340
1E
  0
XRECORD
  5
8A0
102
{ACAD_REACTORS
330
871
102
}
330
871
100
AcDbXrecord
340
1A
  0
MLINESTYLE
  5
17
102
{ACAD_REACTORS
330
16
102
}
330
16
100
AcDbMlineStyle
  2
STANDARD
 70
     0
  3

 62
   256
 51
90.0
 52
90.0
 71
     2
 49
0.5
 62
   256
  6
BYLAYER
 49
-0.5
 62
   256
  6
BYLAYER
  0
ACDBPLACEHOLDER
  5
F
102
{ACAD_REACTORS
330
E
102
}
330
E
100
AcDbPlaceHolder
280
     0
  0
XRECORD
  5
881
102
{ACAD_REACTORS
330
880
102
}
330
880
100
AcDbXrecord
 90
        1
  0
XRECORD
  5
882
102
{ACAD_REACTORS
330
880
102
}
330
880
100
AcDbXrecord
 90
       70
  0
XRECORD
  5
883
102
{ACAD_REACTORS
330
880
102
}
330
880
100
AcDbXrecord
  1

  0
XRECORD
  5
884
102
{ACAD_REACTORS
330
880
102
}
330
880
100
AcDbXrecord
  1

  0
XRECORD
  5
885
102
{ACAD_REACTORS
330
880
102
}
330
880
100
AcDbXrecord
340
19
  0
XRECORD
  5
886
102
{ACAD_REACTORS
330
880
102
}
330
880
100
AcDbXrecord
340
18
  0
XRECORD
  5
887
102
{ACAD_REACTORS
330
880
102
}
330
880
100
AcDbXrecord
340
E
  0
XRECORD
  5
888
102
{ACAD_REACTORS
330
880
102
}
330
880
100
AcDbXrecord
 90
    14877
  0
XRECORD
  5
889
102
{ACAD_REACTORS
330
880
102
}
330
880
100
AcDbXrecord
 90
        0
  0
XRECORD
  5
88A
102
{ACAD_REACTORS
330
880
102
}
330
880
100
AcDbXrecord
 90
        0
  0
XRECORD
  5
88B
102
{ACAD_REACTORS
330
880
102
}
330
880
100
AcDbXrecord
  1
{55359EC1-645D-11D4-BC29-40594FC10001}
  0
XRECORD
  5
88C
102
{ACAD_REACTORS
330
880
102
}
330
880
100
AcDbXrecord
  1
{2B33B739-3F03-49AD-8AE8-F6857A5BAF17}
  0
XRECORD
  5
88D
102
{ACAD_REACTORS
330
880
102
}
330
880
100
AcDbXrecord
 40
0.0
  0
XRECORD
  5
88E
102
{ACAD_REACTORS
330
880
102
}
330
880
100
AcDbXrecord
340
0
  0
XRECORD
  5
88F
102
{ACAD_REACTORS
330
880
102
}
330
880
100
AcDbXrecord
 70
     0
  0
XRECORD
  5
890
102
{ACAD_REACTORS
330
880
102
}
330
880
100
AcDbXrecord
340
0
  0
XRECORD
  5
891
102
{ACAD_REACTORS
330
880
102
}
330
880
100
AcDbXrecord
 10
0.0
 20
0.0
 30
0.0
  0
XRECORD
  5
892
102
{ACAD_REACTORS
330
880
102
}
330
880
100
AcDbXrecord
 10
0.0
 20
0.0
 30
0.0
  0
XRECORD
  5
893
102
{ACAD_REACTORS
330
880
102
}
330
880
100
AcDbXrecord
 10
0.0
 20
0.0
 30
0.0
  0
XRECORD
  5
894
102
{ACAD_REACTORS
330
880
102
}
330
880
100
AcDbXrecord
 10
0.0
 20
0.0
 30
0.0
  0
XRECORD
  5
895
102
{ACAD_REACTORS
330
880
102
}
330
880
100
AcDbXrecord
 10
0.0
 20
0.0
 30
0.0
  0
XRECORD
  5
896
102
{ACAD_REACTORS
330
880
102
}
330
880
100
AcDbXrecord
 10
0.0
 20
0.0
 30
0.0
  0
XRECORD
  5
897
102
{ACAD_REACTORS
330
880
102
}
330
880
100
AcDbXrecord
340
0
  0
XRECORD
  5
898
102
{ACAD_REACTORS
330
880
102
}
330
880
100
AcDbXrecord
 70
     0
  0
XRECORD
  5
899
102
{ACAD_REACTORS
330
880
102
}
330
880
100
AcDbXrecord
340
0
  0
XRECORD
  5
89A
102
{ACAD_REACTORS
330
880
102
}
330
880
100
AcDbXrecord
 10
0.0
 20
0.0
 30
0.0
  0
XRECORD
  5
89B
102
{ACAD_REACTORS
330
880
102
}
330
880
100
AcDbXrecord
 10
0.0
 20
0.0
 30
0.0
  0
XRECORD
  5
89C
102
{ACAD_REACTORS
330
880
102
}
330
880
100
AcDbXrecord
 10
0.0
 20
0.0
 30
0.0
  0
XRECORD
  5
89D
102
{ACAD_REACTORS
330
880
102
}
330
880
100
AcDbXrecord
 10
0.0
 20
0.0
 30
0.0
  0
XRECORD
  5
89E
102
{ACAD_REACTORS
330
880
102
}
330
880
100
AcDbXrecord
 10
0.0
 20
0.0
 30
0.0
  0
XRECORD
  5
89F
102
{ACAD_REACTORS
330
880
102
}
330
880
100
AcDbXrecord
 10
0.0
 20
0.0
 30
0.0
  0
ENDSEC
  0
EOF
