  0
SECTION
  2
HEADER
  9
$ACADVER
  1
AC1014
  9
$ACADMAINTVER
 70
     9
  9
$DWGCODEPAGE
  3
ANSI_949
  9
$INSBASE
 10
419.5
 20
280.25
 30
0.0
  9
$EXTMIN
 10
377.1897995506719
 20
474.2483238806624
 30
-0.0000000000112498
  9
$EXTMAX
 10
991.0702385640824
 20
881.2886058806613
 30
0.0000000000002956
  9
$LIMMIN
 10
0.0
 20
0.0
  9
$LIMMAX
 10
594.0
 20
420.0
  9
$ORTHOMODE
 70
     1
  9
$REGENMODE
 70
     1
  9
$FILLMODE
 70
     1
  9
$QTEXTMODE
 70
     0
  9
$MIRRTEXT
 70
     1
  9
$DRAGMODE
 70
     2
  9
$LTSCALE
 40
4.0
  9
$OSMODE
 70
    37
  9
$ATTMODE
 70
     1
  9
$TEXTSIZE
 40
3.0
  9
$TRACEWID
 40
0.05
  9
$TEXTSTYLE
  7
STANDARD
  9
$CLAYER
  8
0
  9
$CELTYPE
  6
BYLAYER
  9
$CECOLOR
 62
   256
  9
$CELTSCALE
 40
1.0
  9
$DELOBJ
 70
     1
  9
$DISPSILH
 70
     0
  9
$DIMSCALE
 40
1.0
  9
$DIMASZ
 40
5.0
  9
$DIMEXO
 40
1.75
  9
$DIMDLI
 40
0.38
  9
$DIMRND
 40
0.0
  9
$DIMDLE
 40
0.0
  9
$DIMEXE
 40
1.75
  9
$DIMTP
 40
0.0
  9
$DIMTM
 40
0.0
  9
$DIMTXT
 40
5.0
  9
$DIMCEN
 40
0.09
  9
$DIMTSZ
 40
0.0
  9
$DIMTOL
 70
     0
  9
$DIMLIM
 70
     0
  9
$DIMTIH
 70
     0
  9
$DIMTOH
 70
     1
  9
$DIMSE1
 70
     0
  9
$DIMSE2
 70
     0
  9
$DIMTAD
 70
     1
  9
$DIMZIN
 70
     8
  9
$DIMBLK
  1

  9
$DIMASO
 70
     0
  9
$DIMSHO
 70
     1
  9
$DIMPOST
  1

  9
$DIMAPOST
  1

  9
$DIMALT
 70
     0
  9
$DIMALTD
 70
     2
  9
$DIMALTF
 40
25.4
  9
$DIMLFAC
 40
1.0
  9
$DIMTOFL
 70
     1
  9
$DIMTVP
 40
0.0
  9
$DIMTIX
 70
     1
  9
$DIMSOXD
 70
     0
  9
$DIMSAH
 70
     0
  9
$DIMBLK1
  1

  9
$DIMBLK2
  1

  9
$DIMSTYLE
  2
STANDARD
  9
$DIMCLRD
 70
     5
  9
$DIMCLRE
 70
     5
  9
$DIMCLRT
 70
     3
  9
$DIMTFAC
 40
0.6
  9
$DIMGAP
 40
0.09
  9
$DIMJUST
 70
     0
  9
$DIMSD1
 70
     0
  9
$DIMSD2
 70
     0
  9
$DIMTOLJ
 70
     1
  9
$DIMTZIN
 70
     8
  9
$DIMALTZ
 70
     8
  9
$DIMALTTZ
 70
     8
  9
$DIMFIT
 70
     3
  9
$DIMUPT
 70
     0
  9
$DIMUNIT
 70
     2
  9
$DIMDEC
 70
     4
  9
$DIMTDEC
 70
     4
  9
$DIMALTU
 70
     2
  9
$DIMALTTD
 70
     2
  9
$DIMTXSTY
  7
STANDARD
  9
$DIMAUNIT
 70
     0
  9
$LUNITS
 70
     2
  9
$LUPREC
 70
     4
  9
$SKETCHINC
 40
0.1
  9
$FILLETRAD
 40
3.0
  9
$AUNITS
 70
     0
  9
$AUPREC
 70
     0
  9
$MENU
  1
acad
  9
$ELEVATION
 40
0.0
  9
$PELEVATION
 40
0.0
  9
$THICKNESS
 40
0.0
  9
$LIMCHECK
 70
     0
  9
$BLIPMODE
 70
     0
  9
$CHAMFERA
 40
0.5
  9
$CHAMFERB
 40
0.5
  9
$CHAMFERC
 40
0.0
  9
$CHAMFERD
 40
0.0
  9
$SKPOLY
 70
     0
  9
$TDCREATE
 40
2450309.630543981
  9
$TDUPDATE
 40
2452761.631989652
  9
$TDINDWG
 40
0.3422695255
  9
$TDUSRTIMER
 40
0.3422695255
  9
$USRTIMER
 70
     1
  9
$ANGBASE
 50
0.0
  9
$ANGDIR
 70
     0
  9
$PDMODE
 70
     0
  9
$PDSIZE
 40
0.0
  9
$PLINEWID
 40
0.0
  9
$COORDS
 70
     2
  9
$SPLFRAME
 70
     0
  9
$SPLINETYPE
 70
     6
  9
$SPLINESEGS
 70
     8
  9
$ATTDIA
 70
     0
  9
$ATTREQ
 70
     1
  9
$HANDLING
 70
 12289
  9
$HANDSEED
  5
1261
  9
$SURFTAB1
 70
     6
  9
$SURFTAB2
 70
     6
  9
$SURFTYPE
 70
     6
  9
$SURFU
 70
     6
  9
$SURFV
 70
     6
  9
$UCSNAME
  2

  9
$UCSORG
 10
260.7499999999999
 20
335.4999999999999
 30
0.0
  9
$UCSXDIR
 10
1.0
 20
0.0
 30
0.0
  9
$UCSYDIR
 10
0.0
 20
1.0
 30
0.0
  9
$PUCSNAME
  2

  9
$PUCSORG
 10
0.0
 20
0.0
 30
0.0
  9
$PUCSXDIR
 10
1.0
 20
0.0
 30
0.0
  9
$PUCSYDIR
 10
0.0
 20
1.0
 30
0.0
  9
$USERI1
 70
     0
  9
$USERI2
 70
     0
  9
$USERI3
 70
     0
  9
$USERI4
 70
     0
  9
$USERI5
 70
     0
  9
$USERR1
 40
0.0
  9
$USERR2
 40
0.0
  9
$USERR3
 40
0.0
  9
$USERR4
 40
0.0
  9
$USERR5
 40
0.0
  9
$WORLDVIEW
 70
     1
  9
$SHADEDGE
 70
     3
  9
$SHADEDIF
 70
    70
  9
$TILEMODE
 70
     1
  9
$MAXACTVP
 70
    16
  9
$PINSBASE
 10
0.0
 20
0.0
 30
1.0
  9
$PLIMCHECK
 70
     0
  9
$PEXTMIN
 10
1.000000000000000E+20
 20
1.000000000000000E+20
 30
1.000000000000000E+20
  9
$PEXTMAX
 10
-1.000000000000000E+20
 20
-1.000000000000000E+20
 30
-1.000000000000000E+20
  9
$PLIMMIN
 10
0.0
 20
0.0
  9
$PLIMMAX
 10
12.0
 20
9.0
  9
$UNITMODE
 70
     0
  9
$VISRETAIN
 70
     0
  9
$PLINEGEN
 70
     0
  9
$PSLTSCALE
 70
     1
  9
$TREEDEPTH
 70
  3020
  9
$PICKSTYLE
 70
     1
  9
$CMLSTYLE
  2
STANDARD
  9
$CMLJUST
 70
     0
  9
$CMLSCALE
 40
1.0
  9
$PROXYGRAPHICS
 70
     1
  9
$MEASUREMENT
 70
     0
  0
ENDSEC
  0
SECTION
  2
CLASSES
  0
CLASS
  1
ACDBDICTIONARYWDFLT
  2
AcDbDictionaryWithDefault
  3
AutoCAD 2000
 90
        0
280
     0
281
     0
  0
CLASS
  1
ACDBPLACEHOLDER
  2
AcDbPlaceHolder
  3
AutoCAD 2000
 90
        0
280
     0
281
     0
  0
CLASS
  1
LAYOUT
  2
AcDbLayout
  3
AutoCAD 2000
 90
        0
280
     0
281
     0
  0
CLASS
  1
LONG_TRANSACTION
  2
AcDbLongTransaction
  3
AutoCAD 2000
 90
        0
280
     0
281
     0
  0
CLASS
  1
LWPOLYLINE
  2
AcDbPolyline
  3
AutoCAD 2000
 90
        0
280
     0
281
     1
  0
CLASS
  1
HATCH
  2
AcDbHatch
  3
AutoCAD 2000
 90
        0
280
     0
281
     1
  0
CLASS
  1
XRECORD
  2
AcDbXrecord
  3
AutoCAD 2000
 90
        0
280
     0
281
     0
  0
CLASS
  1
LONG_TRANSACTION
  2
AcDbLongTransaction
  3
AutoCAD 2000
 90
        0
280
     0
281
     0
  0
CLASS
  1
LWPOLYLINE
  2
AcDbPolyline
  3
AutoCAD 2000
 90
        0
280
     0
281
     1
  0
CLASS
  1
HATCH
  2
AcDbHatch
  3
AutoCAD 2000
 90
        0
280
     0
281
     1
  0
CLASS
  1
XRECORD
  2
AcDbXrecord
  3
AutoCAD 2000
 90
        0
280
     0
281
     0
  0
ENDSEC
  0
SECTION
  2
TABLES
  0
TABLE
  2
VPORT
  5
8
330
0
100
AcDbSymbolTable
 70
     2
  0
VPORT
  5
123E
330
8
100
AcDbSymbolTableRecord
100
AcDbViewportTableRecord
  2
*ACTIVE
 70
     0
 10
0.0
 20
0.0
 11
1.0
 21
1.0
 12
684.1300190573772
 22
677.7684648806618
 13
0.0
 23
0.0
 14
0.25
 24
0.25
 15
5.0
 25
5.0
 16
0.0
 26
0.0
 36
1.0
 17
0.0
 27
0.0
 37
0.0
 40
416.2697495025382
 41
1.481743227326266
 42
50.0
 43
0.0
 44
0.0
 50
0.0
 51
0.0
 71
     0
 72
  1000
 73
     1
 74
     1
 75
     1
 76
     0
 77
     0
 78
     0
  0
ENDTAB
  0
TABLE
  2
LTYPE
  5
5
330
0
100
AcDbSymbolTable
 70
     4
  0
LTYPE
  5
13
330
5
100
AcDbSymbolTableRecord
100
AcDbLinetypeTableRecord
  2
BYBLOCK
 70
     0
  3

 72
    65
 73
     0
 40
0.0
  0
LTYPE
  5
14
330
5
100
AcDbSymbolTableRecord
100
AcDbLinetypeTableRecord
  2
BYLAYER
 70
     0
  3

 72
    65
 73
     0
 40
0.0
  0
LTYPE
  5
15
330
5
100
AcDbSymbolTableRecord
100
AcDbLinetypeTableRecord
  2
CONTINUOUS
 70
     0
  3
Solid line
 72
    65
 73
     0
 40
0.0
  0
LTYPE
  5
2A
330
5
100
AcDbSymbolTableRecord
100
AcDbLinetypeTableRecord
  2
DASHED
 70
     0
  3
__ __ __ __ __ __ __ __ __ __ __ __ __ __ __ __
 72
    65
 73
     2
 40
0.75
 49
0.5
 74
     0
 49
-0.25
 74
     0
  0
LTYPE
  5
2B
330
5
100
AcDbSymbolTableRecord
100
AcDbLinetypeTableRecord
  2
CENTER
 70
     0
  3
____ _ ____ _ ____ _ ____ _ ____ _ ____ _ ____ 
 72
    65
 73
     4
 40
2.0
 49
1.25
 74
     0
 49
-0.25
 74
     0
 49
0.25
 74
     0
 49
-0.25
 74
     0
  0
LTYPE
  5
2C
330
5
100
AcDbSymbolTableRecord
100
AcDbLinetypeTableRecord
  2
PHANTOM
 70
     0
  3
______  __  __  ______  __  __  ______  __  __ 
 72
    65
 73
     6
 40
2.5
 49
1.25
 74
     0
 49
-0.25
 74
     0
 49
0.25
 74
     0
 49
-0.25
 74
     0
 49
0.25
 74
     0
 49
-0.25
 74
     0
  0
ENDTAB
  0
TABLE
  2
LAYER
  5
2
330
0
100
AcDbSymbolTable
 70
     2
  0
LAYER
  5
10
330
2
100
AcDbSymbolTableRecord
100
AcDbLayerTableRecord
  2
0
 70
     0
 62
     7
  6
CONTINUOUS
  0
LAYER
  5
123D
330
2
100
AcDbSymbolTableRecord
100
AcDbLayerTableRecord
  2
PEF-L200AG
 70
     0
 62
     7
  6
CONTINUOUS
  0
ENDTAB
  0
TABLE
  2
STYLE
  5
3
330
0
100
AcDbSymbolTable
 70
     1
  0
STYLE
  5
11
330
3
100
AcDbSymbolTableRecord
100
AcDbTextStyleTableRecord
  2
STANDARD
 70
     0
 40
5.0
 41
1.0
 50
0.0
 71
     0
 42
3.0
  3
ROMANS
  4
HBRDS
  0
ENDTAB
  0
TABLE
  2
VIEW
  5
6
330
0
100
AcDbSymbolTable
 70
     0
  0
ENDTAB
  0
TABLE
  2
UCS
  5
7
330
0
100
AcDbSymbolTable
 70
     0
  0
ENDTAB
  0
TABLE
  2
APPID
  5
9
330
0
100
AcDbSymbolTable
 70
     3
  0
APPID
  5
12
330
9
100
AcDbSymbolTableRecord
100
AcDbRegAppTableRecord
  2
ACAD
 70
     0
  0
APPID
  5
1018
330
9
100
AcDbSymbolTableRecord
100
AcDbRegAppTableRecord
  2
MCAD_NO_VIS
 70
     0
  0
APPID
  5
1019
330
9
100
AcDbSymbolTableRecord
100
AcDbRegAppTableRecord
  2
ACAD_TEMP_GRAPHIC
 70
     0
  0
ENDTAB
  0
TABLE
  2
DIMSTYLE
  5
A
330
0
100
AcDbSymbolTable
 70
     1
  0
DIMSTYLE
105
1014
330
A
100
AcDbSymbolTableRecord
100
AcDbDimStyleTableRecord
  2
STANDARD
 70
     0
  3

  4

  5

  6

  7

 40
1.0
 41
0.18
 42
0.0625
 43
0.38
 44
0.18
 45
0.0
 46
0.0
 47
0.0
 48
0.0
140
0.18
141
0.09
142
0.0
143
25.4
144
1.0
145
0.0
146
1.0
147
0.09
 71
     0
 72
     0
 73
     1
 74
     1
 75
     0
 76
     0
 77
     0
 78
     0
170
     0
171
     2
172
     0
173
     0
174
     0
175
     0
176
     0
177
     0
178
     0
270
     2
271
     4
272
     4
273
     2
274
     2
340
11
275
     0
280
     0
281
     0
282
     0
283
     1
284
     0
285
     0
286
     0
287
     3
288
     0
  0
ENDTAB
  0
TABLE
  2
BLOCK_RECORD
  5
1
330
0
100
AcDbSymbolTable
 70
     0
  0
BLOCK_RECORD
  5
1E
102
{ACAD_XDICTIONARY
360
1234
102
}
330
1
100
AcDbSymbolTableRecord
100
AcDbBlockTableRecord
  2
*MODEL_SPACE
  0
BLOCK_RECORD
  5
1A
102
{ACAD_XDICTIONARY
360
1232
102
}
330
1
100
AcDbSymbolTableRecord
100
AcDbBlockTableRecord
  2
*PAPER_SPACE
  0
ENDTAB
  0
ENDSEC
  0
SECTION
  2
BLOCKS
  0
BLOCK
  5
33
330
1E
100
AcDbEntity
  8
0
100
AcDbBlockBegin
  2
*MODEL_SPACE
 70
     0
 10
0.0
 20
0.0
 30
0.0
  3
*MODEL_SPACE
  1

  0
ENDBLK
  5
34
330
1E
100
AcDbEntity
  8
0
100
AcDbBlockEnd
  0
BLOCK
  5
31
330
1A
100
AcDbEntity
 67
     1
  8
0
100
AcDbBlockBegin
  2
*PAPER_SPACE
 70
     0
 10
0.0
 20
0.0
 30
0.0
  3
*PAPER_SPACE
  1

  0
ENDBLK
  5
32
330
1A
100
AcDbEntity
 67
     1
  8
0
100
AcDbBlockEnd
  0
ENDSEC
  0
SECTION
  2
ENTITIES
  0
LINE
  5
A4A
330
1E
100
AcDbEntity
  8
PEF-L200AG
100
AcDbLine
 10
946.0
 20
543.5
 30
0.0
 11
946.0
 21
494.9999999483999
 31
0.0
  0
LINE
  5
A4B
330
1E
100
AcDbEntity
  8
PEF-L200AG
100
AcDbLine
 10
856.0
 20
529.4999999999999
 30
0.0
 11
856.0
 21
544.5
 31
0.0
  0
LINE
  5
A4C
330
1E
100
AcDbEntity
  8
PEF-L200AG
100
AcDbLine
 10
861.9215993605115
 20
619.5
 30
0.0
 11
868.75
 21
619.5
 31
0.0
  0
LINE
  5
A4D
330
1E
100
AcDbEntity
  8
PEF-L200AG
100
AcDbLine
 10
856.0
 20
544.5
 30
0.0
 11
867.2499999999999
 21
544.5
 31
0.0
  0
LINE
  5
A4E
330
1E
100
AcDbEntity
  8
PEF-L200AG
100
AcDbLine
 10
856.0
 20
531.5
 30
0.0
 11
868.75
 21
531.5
 31
0.0
  0
LINE
  5
A4F
330
1E
100
AcDbEntity
  8
PEF-L200AG
100
AcDbLine
 10
944.88
 20
547.5
 30
0.0
 11
942.0768025569321
 21
617.5799360766977
 31
0.0
  0
LINE
  5
A50
330
1E
100
AcDbEntity
  8
PEF-L200AG
100
AcDbLine
 10
857.0384012784661
 20
545.4600319616511
 30
0.0
 11
859.9231974430679
 21
617.5799360766977
 31
0.0
  0
ARC
  5
A51
330
1E
100
AcDbEntity
  8
PEF-L200AG
100
AcDbCircle
 10
940.0784006394886
 20
617.4999999999998
 30
0.0
 40
2.0
100
AcDbArc
 50
2.290610042638546
 51
90.0
  0
ARC
  5
A52
330
1E
100
AcDbEntity
  8
PEF-L200AG
100
AcDbCircle
 10
861.9215993605115
 20
617.4999999999998
 30
0.0
 40
2.0
100
AcDbArc
 50
90.0
 51
177.7093899573614
  0
ARC
  5
A53
330
1E
100
AcDbEntity
  8
PEF-L200AG
100
AcDbCircle
 10
856.0392003197444
 20
545.5
 30
0.0
 40
1.0
100
AcDbArc
 50
270.0
 51
357.7093899573613
  0
LINE
  5
A54
330
1E
100
AcDbEntity
  8
PEF-L200AG
100
AcDbLine
 10
711.7499999999998
 20
494.9999999483999
 30
0.0
 11
711.7499999999998
 21
513.49999995395
 31
0.0
  0
LINE
  5
A55
330
1E
100
AcDbEntity
  8
PEF-L200AG
  6
CENTER
100
AcDbLine
 10
611.7499999699998
 20
474.7499999469
 30
0.0
 11
611.7499999699998
 21
519.9999999559
 31
0.0
  0
LINE
  5
A56
330
1E
100
AcDbEntity
  8
PEF-L200AG
100
AcDbLine
 10
637.1534118219645
 20
513.49999995395
 30
0.0
 11
634.8440107445132
 21
503.9999999511
 31
0.0
  0
LINE
  5
A57
330
1E
100
AcDbEntity
  8
PEF-L200AG
100
AcDbLine
 10
586.3465881180355
 20
513.49999995395
 30
0.0
 11
588.6559891954866
 21
503.9999999511
 31
0.0
  0
LINE
  5
A58
330
1E
100
AcDbEntity
  8
PEF-L200AG
  6
DASHED
100
AcDbLine
 10
471.7499999280001
 20
516.4999999548498
 30
0.0
 11
471.7499999280001
 21
496.9999999489998
 31
0.0
  0
LINE
  5
A59
330
1E
100
AcDbEntity
  8
PEF-L200AG
100
AcDbLine
 10
381.7499999009999
 20
494.9999999483999
 30
0.0
 11
381.7499999009999
 21
531.49999995935
 31
0.0
  0
LINE
  5
A5A
330
1E
100
AcDbEntity
  8
PEF-L200AG
100
AcDbLine
 10
406.7499999085
 20
503.9999999511
 30
0.0
 11
409.7499999094
 21
528.9999999586
 31
0.0
  0
LINE
  5
A5B
330
1E
100
AcDbEntity
  8
PEF-L200AG
100
AcDbLine
 10
579.7499999603997
 20
496.9999999489998
 30
0.0
 11
433.7499999165999
 21
496.9999999489998
 31
0.0
  0
LINE
  5
A5C
330
1E
100
AcDbEntity
  8
PEF-L200AG
100
AcDbLine
 10
711.7499999999998
 20
494.9999999483999
 30
0.0
 11
581.7499999609999
 21
494.9999999483999
 31
0.0
  0
LINE
  5
A5D
330
1E
100
AcDbEntity
  8
PEF-L200AG
100
AcDbLine
 10
634.8440107445131
 20
503.9999999511
 30
0.0
 11
588.6559891954866
 21
503.9999999511
 31
0.0
  0
LINE
  5
A5E
330
1E
100
AcDbEntity
  8
PEF-L200AG
100
AcDbLine
 10
634.8440107445132
 20
503.9999999511
 30
0.0
 11
588.6559891954866
 21
503.9999999511
 31
0.0
  0
LINE
  5
A5F
330
1E
100
AcDbEntity
  8
PEF-L200AG
  6
DASHED
100
AcDbLine
 10
615.24999997135
 20
503.9999999511
 30
0.0
 11
615.24999997135
 21
494.9999999483999
 31
0.0
  0
LINE
  5
A60
330
1E
100
AcDbEntity
  8
PEF-L200AG
  6
DASHED
100
AcDbLine
 10
608.2499999686499
 20
503.9999999511
 30
0.0
 11
608.2499999686499
 21
494.9999999483999
 31
0.0
  0
ARC
  5
A61
330
1E
100
AcDbEntity
  8
PEF-L200AG
100
AcDbCircle
 10
579.7499999603997
 20
494.9999999483999
 30
0.0
 40
2.0000000006
100
AcDbArc
 50
0.0
 51
90.0
  0
LINE
  5
A62
330
1E
100
AcDbEntity
  8
PEF-L200AG
100
AcDbLine
 10
431.7499999159998
 20
494.9999999483999
 30
0.0
 11
381.7499999009999
 21
494.9999999483999
 31
0.0
  0
ARC
  5
A63
330
1E
100
AcDbEntity
  8
PEF-L200AG
100
AcDbCircle
 10
433.7499999165999
 20
494.9999999483999
 30
0.0
 40
2.0000000006
100
AcDbArc
 50
90.0
 51
180.0
  0
LINE
  5
A64
330
1E
100
AcDbEntity
  8
PEF-L200AG
100
AcDbLine
 10
406.7499999085
 20
503.9999999511
 30
0.0
 11
381.7499999009999
 21
503.9999999511
 31
0.0
  0
LINE
  5
A65
330
1E
100
AcDbEntity
  8
PEF-L200AG
  6
CENTER
100
AcDbLine
 10
391.7499999039998
 20
474.9999999466
 30
0.0
 11
391.7499999039998
 21
515.2499999528998
 31
0.0
  0
LINE
  5
A66
330
1E
100
AcDbEntity
  8
PEF-L200AG
  6
DASHED
100
AcDbLine
 10
395.2499999050499
 20
503.9999999511
 30
0.0
 11
395.2499999050499
 21
494.9999999483999
 31
0.0
  0
LINE
  5
A67
330
1E
100
AcDbEntity
  8
PEF-L200AG
  6
DASHED
100
AcDbLine
 10
388.2499999029501
 20
503.9999999511
 30
0.0
 11
388.2499999029501
 21
494.9999999483999
 31
0.0
  0
LINE
  5
A68
330
1E
100
AcDbEntity
  8
PEF-L200AG
  6
CENTER
100
AcDbLine
 10
377.2499998996499
 20
786.5
 30
0.0
 11
719.2500000022501
 21
786.5
 31
0.0
  0
LINE
  5
A69
330
1E
100
AcDbEntity
  8
PEF-L200AG
100
AcDbLine
 10
711.7499999999998
 20
741.4999999864999
 30
0.0
 11
381.7499999009999
 21
741.4999999864999
 31
0.0
  0
LINE
  5
A6A
330
1E
100
AcDbEntity
  8
PEF-L200AG
100
AcDbLine
 10
711.7499999999998
 20
831.5000000134999
 30
0.0
 11
381.7499999009999
 21
831.5000000134999
 31
0.0
  0
LINE
  5
A6B
330
1E
100
AcDbEntity
  8
PEF-L200AG
100
AcDbLine
 10
711.7499999999998
 20
513.49999995395
 30
0.0
 11
483.7499999315999
 21
513.49999995395
 31
0.0
  0
LINE
  5
A6C
330
1E
100
AcDbEntity
  8
PEF-L200AG
100
AcDbLine
 10
711.7499999999998
 20
741.4999999864999
 30
0.0
 11
711.7499999999998
 21
831.5000000134999
 31
0.0
  0
LINE
  5
A6D
330
1E
100
AcDbEntity
  8
PEF-L200AG
100
AcDbLine
 10
658.7499999841
 20
756.4999999910001
 30
0.0
 11
658.7499999841
 21
759.0
 31
0.0
  0
LINE
  5
A6E
330
1E
100
AcDbEntity
  8
PEF-L200AG
100
AcDbLine
 10
691.7499999939999
 20
756.4999999910001
 30
0.0
 11
691.7499999939999
 21
816.500000009
 31
0.0
  0
LINE
  5
A6F
330
1E
100
AcDbEntity
  8
PEF-L200AG
100
AcDbLine
 10
687.4628129138158
 20
756.4999999910001
 30
0.0
 11
687.4628129138158
 21
816.500000009
 31
0.0
  0
LINE
  5
A70
330
1E
100
AcDbEntity
  8
PEF-L200AG
100
AcDbLine
 10
656.7499999834999
 20
753.4999999900999
 30
0.0
 11
656.7499999834999
 21
754.2499999909998
 31
0.0
  0
LINE
  5
A71
330
1E
100
AcDbEntity
  8
PEF-L200AG
100
AcDbLine
 10
694.7499999949
 20
753.4999999900999
 30
0.0
 11
694.7499999949
 21
754.2499999909998
 31
0.0
  0
LINE
  5
A72
330
1E
100
AcDbEntity
  8
PEF-L200AG
100
AcDbLine
 10
656.7499999834999
 20
753.4999999900999
 30
0.0
 11
694.7499999949
 21
753.4999999900999
 31
0.0
  0
LINE
  5
A73
330
1E
100
AcDbEntity
  8
PEF-L200AG
100
AcDbLine
 10
656.7499999834999
 20
756.4999999910001
 30
0.0
 11
694.7499999949
 21
756.4999999910001
 31
0.0
  0
LINE
  5
A74
330
1E
100
AcDbEntity
  8
PEF-L200AG
100
AcDbLine
 10
656.7499999834999
 20
513.49999995395
 30
0.0
 11
656.9722222061222
 21
515.49999995755
 31
0.0
  0
LINE
  5
A75
330
1E
100
AcDbEntity
  8
PEF-L200AG
100
AcDbLine
 10
694.7499999949
 20
515.49999995455
 30
0.0
 11
656.9722222057889
 21
515.49999995455
 31
0.0
  0
LINE
  5
A7A
330
1E
100
AcDbEntity
  8
PEF-L200AG
100
AcDbLine
 10
694.7499999949
 20
513.49999995395
 30
0.0
 11
694.7499999949
 21
515.49999995455
 31
0.0
  0
LINE
  5
A7B
330
1E
100
AcDbEntity
  8
PEF-L200AG
  6
CENTER
100
AcDbLine
 10
666.7499999865
 20
517.9999999553
 30
0.0
 11
666.7499999865
 21
532.9999999597998
 31
0.0
  0
LINE
  5
A7C
330
1E
100
AcDbEntity
  8
PEF-L200AG
  6
CENTER
100
AcDbLine
 10
658.999999984175
 20
525.49999995755
 30
0.0
 11
674.4999999888248
 21
525.49999995755
 31
0.0
  0
ARC
  5
A85
330
1E
100
AcDbEntity
  8
PEF-L200AG
100
AcDbCircle
 10
666.7499999865
 20
525.49999995755
 30
0.0
 40
2.857142857999998
100
AcDbArc
 50
264.2894068624999
 51
185.2900812053711
  0
CIRCLE
  5
A86
330
1E
100
AcDbEntity
  8
PEF-L200AG
100
AcDbCircle
 10
666.7499999865
 20
525.49999995755
 30
0.0
 40
1.857142857699975
  0
LINE
  5
A87
330
1E
100
AcDbEntity
  8
PEF-L200AG
  6
CENTER
100
AcDbLine
 10
682.7499999912999
 20
771.4999999955
 30
0.0
 11
697.2499999956498
 21
771.4999999955
 31
0.0
  0
LINE
  5
A88
330
1E
100
AcDbEntity
  8
PEF-L200AG
  6
CENTER
100
AcDbLine
 10
689.6064064539078
 20
762.749999992875
 30
0.0
 11
689.6064064539078
 21
778.7499999976748
 31
0.0
  0
LINE
  5
A89
330
1E
100
AcDbEntity
  8
PEF-L200AG
  6
CENTER
100
AcDbLine
 10
666.7499999865
 20
747.4999999883
 30
0.0
 11
666.7499999865
 21
762.4999999927998
 31
0.0
  0
LINE
  5
A8A
330
1E
100
AcDbEntity
  8
PEF-L200AG
100
AcDbLine
 10
627.049782103352
 20
759.0
 30
0.0
 11
628.4931577815219
 21
756.4999999910001
 31
0.0
  0
LINE
  5
A8B
330
1E
100
AcDbEntity
  8
PEF-L200AG
100
AcDbLine
 10
624.7403810306638
 20
758.9999999917498
 30
0.0
 11
626.1837567040705
 21
756.4999999910001
 31
0.0
  0
LINE
  5
A8C
330
1E
100
AcDbEntity
  8
PEF-L200AG
  6
CENTER
100
AcDbLine
 10
598.2499999668499
 20
751.4999999895
 30
0.0
 11
625.2499999730749
 21
751.4999999895
 31
0.0
  0
LINE
  5
A8D
330
1E
100
AcDbEntity
  8
PEF-L200AG
100
AcDbLine
 10
596.4502178366481
 20
759.0
 30
0.0
 11
595.0068421584777
 21
756.4999999910001
 31
0.0
  0
LINE
  5
A8E
330
1E
100
AcDbEntity
  8
PEF-L200AG
100
AcDbLine
 10
598.7596189093363
 20
758.9999999917498
 30
0.0
 11
597.3162432359291
 21
756.4999999910001
 31
0.0
  0
LINE
  5
A8F
330
1E
100
AcDbEntity
  8
PEF-L200AG
100
AcDbLine
 10
656.7499999834999
 20
819.5000000099
 30
0.0
 11
694.7499999949
 21
819.5000000099
 31
0.0
  0
LINE
  5
A90
330
1E
100
AcDbEntity
  8
PEF-L200AG
  6
CENTER
100
AcDbLine
 10
666.7499999865
 20
810.0000000070497
 30
0.0
 11
666.7499999865
 21
825.00000001155
 31
0.0
  0
LINE
  5
A91
330
1E
100
AcDbEntity
  8
PEF-L200AG
  6
CENTER
100
AcDbLine
 10
682.7499999912999
 20
801.5000000044999
 30
0.0
 11
697.2499999956498
 21
801.5000000044999
 31
0.0
  0
LINE
  5
A92
330
1E
100
AcDbEntity
  8
PEF-L200AG
  6
CENTER
100
AcDbLine
 10
689.6064064539078
 20
794.250000002325
 30
0.0
 11
689.6064064539078
 21
809.250000006825
 31
0.0
  0
LINE
  5
A93
330
1E
100
AcDbEntity
  8
PEF-L200AG
100
AcDbLine
 10
624.7403810306638
 20
814.0000000082498
 30
0.0
 11
626.1837567040705
 21
816.500000009
 31
0.0
  0
LINE
  5
A94
330
1E
100
AcDbEntity
  8
PEF-L200AG
100
AcDbLine
 10
627.0497821033517
 20
814.0
 30
0.0
 11
628.4931577815219
 21
816.500000009
 31
0.0
  0
ARC
  5
A95
330
1E
100
AcDbEntity
  8
PEF-L200AG
100
AcDbCircle
 10
611.7499999699998
 20
786.5
 30
0.0
 40
2.0000000006
100
AcDbArc
 50
7.125016348901787
 51
276.3401917459099
  0
CIRCLE
  5
A96
330
1E
100
AcDbEntity
  8
PEF-L200AG
100
AcDbCircle
 10
611.7499999699998
 20
786.5
 30
0.0
 40
1.500000000449998
  0
LINE
  5
A97
330
1E
100
AcDbEntity
  8
PEF-L200AG
  6
CENTER
100
AcDbLine
 10
597.9999999668499
 20
821.5000000105
 30
0.0
 11
625.7499999730747
 21
821.5000000105
 31
0.0
  0
LINE
  5
A98
330
1E
100
AcDbEntity
  8
PEF-L200AG
100
AcDbLine
 10
596.4502178366481
 20
814.0
 30
0.0
 11
595.006842158478
 21
816.500000009
 31
0.0
  0
LINE
  5
A99
330
1E
100
AcDbEntity
  8
PEF-L200AG
100
AcDbLine
 10
598.7596189093363
 20
814.0000000082498
 30
0.0
 11
597.3162432359292
 21
816.500000009
 31
0.0
  0
ARC
  5
A9A
330
1E
100
AcDbEntity
  8
PEF-L200AG
  6
DASHED
100
AcDbCircle
 10
461.7499999249998
 20
786.5
 30
0.0
 40
10.000000003
100
AcDbArc
 50
270.0
 51
90.0
  0
LINE
  5
A9B
330
1E
100
AcDbEntity
  8
PEF-L200AG
  6
CENTER
100
AcDbLine
 10
461.7499999249998
 20
771.2499999954249
 30
0.0
 11
461.7499999249998
 21
801.250000004425
 31
0.0
  0
LINE
  5
A9C
330
1E
100
AcDbEntity
  8
PEF-L200AG
  6
CENTER
100
AcDbLine
 10
396.7499999054998
 20
775.2499999966248
 30
0.0
 11
396.7499999054998
 21
798.00000000345
 31
0.0
  0
LINE
  5
A9D
330
1E
100
AcDbEntity
  8
PEF-L200AG
100
AcDbLine
 10
381.7499999009999
 20
741.4999999864999
 30
0.0
 11
381.7499999009999
 21
831.5000000134999
 31
0.0
  0
LINE
  5
A9E
330
1E
100
AcDbEntity
  8
PEF-L200AG
100
AcDbLine
 10
527.4628128658158
 20
756.4999999910001
 30
0.0
 11
527.4628128658158
 21
759.0
 31
0.0
  0
LINE
  5
A9F
330
1E
100
AcDbEntity
  8
PEF-L200AG
100
AcDbLine
 10
531.7499999459998
 20
756.4999999910001
 30
0.0
 11
531.7499999459998
 21
759.0
 31
0.0
  0
LINE
  5
AA0
330
1E
100
AcDbEntity
  8
PEF-L200AG
100
AcDbLine
 10
534.7499999469
 20
753.4999999900999
 30
0.0
 11
534.7499999469
 21
754.2499999909998
 31
0.0
  0
LINE
  5
AA1
330
1E
100
AcDbEntity
  8
PEF-L200AG
100
AcDbLine
 10
482.0277777088612
 20
528.9999999586
 30
0.0
 11
409.7499999094
 21
528.9999999586
 31
0.0
  0
LINE
  5
AA2
330
1E
100
AcDbEntity
  8
PEF-L200AG
  6
DASHED
100
AcDbLine
 10
471.7499999280001
 20
516.4999999548498
 30
0.0
 11
381.7499999009999
 21
516.4999999548498
 31
0.0
  0
LINE
  5
AA3
330
1E
100
AcDbEntity
  8
PEF-L200AG
  6
DASHED
100
AcDbLine
 10
381.7499999009999
 20
776.4999999969999
 30
0.0
 11
461.7499999249998
 21
776.4999999969999
 31
0.0
  0
LINE
  5
AA8
330
1E
100
AcDbEntity
  8
PEF-L200AG
100
AcDbLine
 10
534.7499999469
 20
515.49999995455
 30
0.0
 11
496.9722221577888
 21
515.49999995455
 31
0.0
  0
LINE
  5
AA9
330
1E
100
AcDbEntity
  8
PEF-L200AG
100
AcDbLine
 10
534.7499999469
 20
513.49999995395
 30
0.0
 11
534.7499999469
 21
515.49999995455
 31
0.0
  0
LINE
  5
AAA
330
1E
100
AcDbEntity
  8
PEF-L200AG
100
AcDbLine
 10
496.7499999354998
 20
513.49999995395
 30
0.0
 11
498.3726964173863
 21
528.1042682909275
 31
0.0
  0
LINE
  5
AAB
330
1E
100
AcDbEntity
  8
PEF-L200AG
  6
CENTER
100
AcDbLine
 10
506.7499999384999
 20
517.9999999553
 30
0.0
 11
506.7499999384999
 21
532.9999999597998
 31
0.0
  0
LINE
  5
AAC
330
1E
100
AcDbEntity
  8
PEF-L200AG
  6
CENTER
100
AcDbLine
 10
498.9999999361749
 20
525.49999995755
 30
0.0
 11
514.4999999408249
 21
525.49999995755
 31
0.0
  0
ARC
  5
AB2
330
1E
100
AcDbEntity
  8
PEF-L200AG
100
AcDbCircle
 10
506.7499999384999
 20
525.49999995755
 30
0.0
 40
2.857142857999998
100
AcDbArc
 50
264.2894068624999
 51
185.2900812053711
  0
CIRCLE
  5
AB3
330
1E
100
AcDbEntity
  8
PEF-L200AG
100
AcDbCircle
 10
506.7499999384999
 20
525.49999995755
 30
0.0
 40
1.857142857699975
  0
LINE
  5
AB5
330
1E
100
AcDbEntity
  8
PEF-L200AG
100
AcDbLine
 10
481.7499999309999
 20
531.49999995935
 30
0.0
 11
483.7499999315999
 21
513.49999995395
 31
0.0
  0
LINE
  5
AB6
330
1E
100
AcDbEntity
  8
PEF-L200AG
  6
DASHED
100
AcDbLine
 10
456.7499999234999
 20
531.49999995935
 30
0.0
 11
456.7499999234999
 21
516.4999999548498
 31
0.0
  0
LINE
  5
AB7
330
1E
100
AcDbEntity
  8
PEF-L200AG
100
AcDbLine
 10
494.7499999348998
 20
764.4999999933999
 30
0.0
 11
485.7499999322
 21
764.4999999933999
 31
0.0
  0
LINE
  5
AB8
330
1E
100
AcDbEntity
  8
PEF-L200AG
100
AcDbLine
 10
496.7499999354998
 20
766.499999994
 30
0.0
 11
483.7499999315999
 21
766.499999994
 31
0.0
  0
LINE
  5
AB9
330
1E
100
AcDbEntity
  8
PEF-L200AG
100
AcDbLine
 10
496.7499999354998
 20
756.4999999910001
 30
0.0
 11
534.7499999469
 21
756.4999999910001
 31
0.0
  0
LINE
  5
ABA
330
1E
100
AcDbEntity
  8
PEF-L200AG
100
AcDbLine
 10
496.7499999354998
 20
753.4999999900999
 30
0.0
 11
534.7499999469
 21
753.4999999900999
 31
0.0
  0
LINE
  5
ABB
330
1E
100
AcDbEntity
  8
PEF-L200AG
100
AcDbLine
 10
498.7499999360999
 20
756.4999999910001
 30
0.0
 11
498.7499999360999
 21
759.0
 31
0.0
  0
LINE
  5
ABC
330
1E
100
AcDbEntity
  8
PEF-L200AG
100
AcDbLine
 10
496.7499999354998
 20
753.4999999900999
 30
0.0
 11
496.7499999354998
 21
754.2499999909998
 31
0.0
  0
LINE
  5
ABD
330
1E
100
AcDbEntity
  8
PEF-L200AG
  6
CENTER
100
AcDbLine
 10
506.7499999384999
 20
747.4999999883
 30
0.0
 11
506.7499999384999
 21
762.4999999927998
 31
0.0
  0
ARC
  5
ABE
330
1E
100
AcDbEntity
  8
PEF-L200AG
100
AcDbCircle
 10
494.7499999348998
 20
762.4999999927998
 30
0.0
 40
2.0000000006
100
AcDbArc
 50
0.0
 51
90.0
  0
ARC
  5
ABF
330
1E
100
AcDbEntity
  8
PEF-L200AG
100
AcDbCircle
 10
496.7499999354998
 20
764.4999999933999
 30
0.0
 40
2.0000000006
100
AcDbArc
 50
42.5436222789231
 51
90.0
  0
LINE
  5
AC0
330
1E
100
AcDbEntity
  8
PEF-L200AG
100
AcDbLine
 10
483.7499999315999
 20
741.4999999864999
 30
0.0
 11
483.7499999315999
 21
762.4999999927998
 31
0.0
  0
ARC
  5
AC1
330
1E
100
AcDbEntity
  8
PEF-L200AG
100
AcDbCircle
 10
485.7499999322
 20
762.4999999927998
 30
0.0
 40
2.0000000006
100
AcDbArc
 50
90.0
 51
180.0
  0
ARC
  5
AC2
330
1E
100
AcDbEntity
  8
PEF-L200AG
100
AcDbCircle
 10
483.7499999315999
 20
764.4999999933999
 30
0.0
 40
2.0000000006
100
AcDbArc
 50
90.0
 51
180.0
  0
LINE
  5
AC3
330
1E
100
AcDbEntity
  8
PEF-L200AG
100
AcDbLine
 10
408.041616374678
 20
531.49999995935
 30
0.0
 11
408.041616374678
 21
528.9999999586
 31
0.0
  0
LINE
  5
AC4
330
1E
100
AcDbEntity
  8
PEF-L200AG
100
AcDbLine
 10
409.7499999094
 20
528.9999999586
 30
0.0
 11
408.041616374678
 21
528.9999999586
 31
0.0
  0
LINE
  5
AC5
330
1E
100
AcDbEntity
  8
PEF-L200AG
  6
DASHED
100
AcDbLine
 10
391.7499999039998
 20
531.49999995935
 30
0.0
 11
391.7499999039998
 21
516.4999999548498
 31
0.0
  0
LINE
  5
AC6
330
1E
100
AcDbEntity
  8
PEF-L200AG
  6
DASHED
100
AcDbLine
 10
396.7499999054998
 20
781.4999999984999
 30
0.0
 11
451.7499999219999
 21
781.4999999984999
 31
0.0
  0
LINE
  5
AC7
330
1E
100
AcDbEntity
  8
PEF-L200AG
  6
DASHED
100
AcDbLine
 10
396.7499999054998
 20
791.5000000014999
 30
0.0
 11
451.7499999219999
 21
791.5000000014999
 31
0.0
  0
LINE
  5
AC8
330
1E
100
AcDbEntity
  8
PEF-L200AG
  6
DASHED
100
AcDbLine
 10
381.7499999009999
 20
796.5000000029998
 30
0.0
 11
461.7499999249998
 21
796.5000000029998
 31
0.0
  0
LINE
  5
AC9
330
1E
100
AcDbEntity
  8
PEF-L200AG
100
AcDbLine
 10
496.7499999354998
 20
806.5000000059999
 30
0.0
 11
483.7499999315999
 21
806.5000000059999
 31
0.0
  0
LINE
  5
ACA
330
1E
100
AcDbEntity
  8
PEF-L200AG
100
AcDbLine
 10
494.7499999348998
 20
808.5000000065999
 30
0.0
 11
485.7499999322
 21
808.5000000065999
 31
0.0
  0
LINE
  5
ACB
330
1E
100
AcDbEntity
  8
PEF-L200AG
100
AcDbLine
 10
496.7499999354998
 20
810.5000000071999
 30
0.0
 11
496.7499999354998
 21
816.5000000090001
 31
0.0
  0
LINE
  5
ACC
330
1E
100
AcDbEntity
  8
PEF-L200AG
  6
CENTER
100
AcDbLine
 10
506.7499999384999
 20
810.0000000070497
 30
0.0
 11
506.7499999384999
 21
825.00000001155
 31
0.0
  0
LINE
  5
ACD
330
1E
100
AcDbEntity
  8
PEF-L200AG
100
AcDbLine
 10
481.7499999355
 20
816.500000009
 30
0.0
 11
713.7499999469
 21
816.500000009
 31
0.0
  0
LINE
  5
ACE
330
1E
100
AcDbEntity
  8
PEF-L200AG
100
AcDbLine
 10
498.7499999360999
 20
814.0
 30
0.0
 11
498.7499999360999
 21
816.500000009
 31
0.0
  0
ARC
  5
ACF
330
1E
100
AcDbEntity
  8
PEF-L200AG
100
AcDbCircle
 10
494.7499999348998
 20
810.5000000071999
 30
0.0
 40
2.0000000006
100
AcDbArc
 50
270.0
 51
0.0
  0
ARC
  5
AD0
330
1E
100
AcDbEntity
  8
PEF-L200AG
100
AcDbCircle
 10
496.7499999354998
 20
808.5000000065999
 30
0.0
 40
2.0000000006
100
AcDbArc
 50
270.0
 51
317.4563777210768
  0
LINE
  5
AD1
330
1E
100
AcDbEntity
  8
PEF-L200AG
100
AcDbLine
 10
496.7499999354998
 20
819.5000000099
 30
0.0
 11
534.7499999469
 21
819.5000000099
 31
0.0
  0
LINE
  5
AD2
330
1E
100
AcDbEntity
  8
PEF-L200AG
100
AcDbLine
 10
483.7499999315999
 20
810.5000000071999
 30
0.0
 11
483.7499999315999
 21
831.5000000134999
 31
0.0
  0
ARC
  5
AD3
330
1E
100
AcDbEntity
  8
PEF-L200AG
100
AcDbCircle
 10
485.7499999322
 20
810.5000000071999
 30
0.0
 40
2.0000000006
100
AcDbArc
 50
180.0
 51
270.0
  0
ARC
  5
AD4
330
1E
100
AcDbEntity
  8
PEF-L200AG
100
AcDbCircle
 10
483.7499999315999
 20
808.5000000065999
 30
0.0
 40
2.0000000006
100
AcDbArc
 50
180.0
 51
270.0
  0
ARC
  5
AD5
330
1E
100
AcDbEntity
  8
PEF-L200AG
  6
DASHED
100
AcDbCircle
 10
451.7499999219999
 20
786.5
 30
0.0
 40
5.0000000015
100
AcDbArc
 50
270.0
 51
90.0
  0
ARC
  5
AD6
330
1E
100
AcDbEntity
  8
PEF-L200AG
  6
DASHED
100
AcDbCircle
 10
396.7499999054998
 20
786.5
 30
0.0
 40
5.0000000015
100
AcDbArc
 50
90.0
 51
270.0
  0
LINE
  5
AD7
330
1E
100
AcDbEntity
  8
PEF-L200AG
  6
CENTER
100
AcDbLine
 10
381.2499999008498
 20
821.5000000105
 30
0.0
 11
401.999999907075
 21
821.5000000105
 31
0.0
  0
LINE
  5
AD8
330
1E
100
AcDbEntity
  8
PEF-L200AG
100
AcDbLine
 10
481.7499999009999
 20
544.5
 30
0.0
 11
382.4050829997805
 21
544.5
 31
0.0
  0
LINE
  5
AD9
330
1E
100
AcDbEntity
  8
PEF-L200AG
  6
DASHED
100
AcDbLine
 10
481.7499999009999
 20
531.5
 30
0.0
 11
381.8373443141707
 21
531.5
 31
0.0
  0
LINE
  5
ADA
330
1E
100
AcDbEntity
  8
PEF-L200AG
100
AcDbLine
 10
481.7499999009999
 20
529.4999999999999
 30
0.0
 11
381.7499999009999
 21
529.4999999999999
 31
0.0
  0
LINE
  5
ADB
330
1E
100
AcDbEntity
  8
PEF-L200AG
100
AcDbLine
 10
421.1897088535279
 20
619.2320508075687
 30
0.0
 11
385.7002228470111
 21
598.7421865083049
 31
0.0
  0
LINE
  5
ADC
330
1E
100
AcDbEntity
  8
PEF-L200AG
100
AcDbLine
 10
481.7499999009999
 20
529.4999999999999
 30
0.0
 11
481.7499999009999
 21
544.5
 31
0.0
  0
LINE
  5
ADD
330
1E
100
AcDbEntity
  8
PEF-L200AG
  6
DASHED
100
AcDbLine
 10
441.7499999009999
 20
531.5
 30
0.0
 11
441.7499999009999
 21
619.5
 31
0.0
  0
LINE
  5
ADE
330
1E
100
AcDbEntity
  8
PEF-L200AG
  6
DASHED
100
AcDbLine
 10
451.7499999009999
 20
619.5
 30
0.0
 11
451.7499999009999
 21
531.5
 31
0.0
  0
LINE
  5
ADF
330
1E
100
AcDbEntity
  8
PEF-L200AG
  6
CENTER
100
AcDbLine
 10
446.749999901
 20
501.75
 30
0.0
 11
446.749999901
 21
631.5
 31
0.0
  0
LINE
  5
AE0
330
1E
100
AcDbEntity
  8
PEF-L200AG
100
AcDbLine
 10
481.7499999009999
 20
544.5
 30
0.0
 11
462.0510081452859
 21
618.0176380902049
 31
0.0
  0
LINE
  5
AE1
330
1E
100
AcDbEntity
  8
PEF-L200AG
100
AcDbLine
 10
460.1191564927078
 20
619.5
 30
0.0
 11
422.1897088535279
 21
619.5
 31
0.0
  0
ARC
  5
AE2
330
1E
100
AcDbEntity
  8
PEF-L200AG
100
AcDbCircle
 10
460.1191564927078
 20
617.4999999999998
 30
0.0
 40
2.0
100
AcDbArc
 50
14.99999999999998
 51
89.99999999999994
  0
ARC
  5
AE3
330
1E
100
AcDbEntity
  8
PEF-L200AG
100
AcDbCircle
 10
422.1897088535279
 20
617.4999999999998
 30
0.0
 40
2.0
100
AcDbArc
 50
89.99999999999994
 51
119.9999999999999
  0
LINE
  5
AE4
330
1E
100
AcDbEntity
  8
PEF-L200AG
100
AcDbLine
 10
381.7499999009999
 20
529.4999999999999
 30
0.0
 11
384.7021273847331
 21
597.0973969385417
 31
0.0
  0
ARC
  5
AE5
330
1E
100
AcDbEntity
  8
PEF-L200AG
100
AcDbCircle
 10
386.7002228470111
 20
597.010135700736
 30
0.0
 40
2.0
100
AcDbArc
 50
119.9999999999999
 51
177.4993558670676
  0
LINE
  5
AEC
330
1E
100
AcDbEntity
  8
PEF-L200AG
100
AcDbLine
 10
667.75
 20
634.9999999483999
 30
0.0
 11
498.2235254578489
 21
634.9999999483999
 31
0.0
  0
LINE
  5
AED
330
1E
100
AcDbEntity
  8
PEF-L200AG
100
AcDbLine
 10
673.4646613778834
 20
759.0
 30
0.0
 11
498.223525457849
 21
759.0
 31
0.0
  0
LINE
  5
AEE
330
1E
100
AcDbEntity
  8
PEF-L200AG
100
AcDbLine
 10
673.4646613778834
 20
814.0
 30
0.0
 11
498.223525457849
 21
814.0
 31
0.0
  0
LINE
  5
AEF
330
1E
100
AcDbEntity
  8
PEF-L200AG
100
AcDbLine
 10
668.6878221710571
 20
631.4999999575499
 30
0.0
 11
667.75
 21
634.9999999483999
 31
0.0
  0
LINE
  5
AF1
330
1E
100
AcDbEntity
  8
PEF-L200AG
100
AcDbLine
 10
667.75
 20
759.0
 30
0.0
 11
667.75
 21
814.0
 31
0.0
  0
LINE
  5
AF2
330
1E
100
AcDbEntity
  8
PEF-L200AG
100
AcDbLine
 10
673.4646613778834
 20
759.0
 30
0.0
 11
673.4646613778834
 21
814.0
 31
0.0
  0
LINE
  5
AF3
330
1E
100
AcDbEntity
  8
PEF-L200AG
  6
CENTER
100
AcDbLine
 10
671.3941090170632
 20
778.2499999999998
 30
0.0
 11
671.3941090170632
 21
765.0
 31
0.0
  0
LINE
  5
AF4
330
1E
100
AcDbEntity
  8
PEF-L200AG
  6
CENTER
100
AcDbLine
 10
677.680780618347
 20
771.4999999999998
 30
0.0
 11
664.9307806183468
 21
771.4999999999998
 31
0.0
  0
LINE
  5
AF5
330
1E
100
AcDbEntity
  8
PEF-L200AG
  6
CENTER
100
AcDbLine
 10
671.3941090170632
 20
794.7499999999998
 30
0.0
 11
671.3941090170632
 21
808.0
 31
0.0
  0
LINE
  5
AF6
330
1E
100
AcDbEntity
  8
PEF-L200AG
  6
CENTER
100
AcDbLine
 10
677.680780618347
 20
801.5
 30
0.0
 11
664.9307806183468
 21
801.5
 31
0.0
  0
LINE
  5
AF8
330
1E
100
AcDbEntity
  8
PEF-L200AG
  6
CENTER
100
AcDbLine
 10
641.95
 20
638.9999999483999
 30
0.0
 11
641.9499999999999
 21
631.4999999575499
 31
0.0
  0
LINE
  5
AF9
330
1E
100
AcDbEntity
  8
PEF-L200AG
  6
DASHED
100
AcDbLine
 10
638.95
 20
634.9999999483999
 30
0.0
 11
638.9499999999999
 21
631.4999999575499
 31
0.0
  0
LINE
  5
AFA
330
1E
100
AcDbEntity
  8
PEF-L200AG
  6
DASHED
100
AcDbLine
 10
639.95
 20
634.9999999483999
 30
0.0
 11
639.9499999999999
 21
631.4999999575499
 31
0.0
  0
LINE
  5
AFB
330
1E
100
AcDbEntity
  8
PEF-L200AG
  6
DASHED
100
AcDbLine
 10
643.95
 20
634.9999999483999
 30
0.0
 11
643.95
 21
631.4999999575499
 31
0.0
  0
LINE
  5
AFC
330
1E
100
AcDbEntity
  8
PEF-L200AG
  6
DASHED
100
AcDbLine
 10
644.95
 20
634.9999999483999
 30
0.0
 11
644.95
 21
631.4999999575499
 31
0.0
  0
LINE
  5
AFE
330
1E
100
AcDbEntity
  8
PEF-L200AG
  6
CENTER
100
AcDbLine
 10
589.95
 20
638.9999999483999
 30
0.0
 11
589.9499999999999
 21
631.4999999575499
 31
0.0
  0
LINE
  5
AFF
330
1E
100
AcDbEntity
  8
PEF-L200AG
  6
DASHED
100
AcDbLine
 10
592.95
 20
634.9999999483999
 30
0.0
 11
592.9499999999999
 21
631.4999999575499
 31
0.0
  0
LINE
  5
B00
330
1E
100
AcDbEntity
  8
PEF-L200AG
  6
DASHED
100
AcDbLine
 10
591.95
 20
634.9999999483999
 30
0.0
 11
591.9499999999999
 21
631.4999999575499
 31
0.0
  0
LINE
  5
B01
330
1E
100
AcDbEntity
  8
PEF-L200AG
  6
DASHED
100
AcDbLine
 10
587.95
 20
634.9999999483999
 30
0.0
 11
587.95
 21
631.4999999575499
 31
0.0
  0
LINE
  5
B02
330
1E
100
AcDbEntity
  8
PEF-L200AG
  6
DASHED
100
AcDbLine
 10
586.95
 20
634.9999999483999
 30
0.0
 11
586.95
 21
631.4999999575499
 31
0.0
  0
LINE
  5
B03
330
1E
100
AcDbEntity
  8
PEF-L200AG
  6
CENTER
100
AcDbLine
 10
641.95
 20
794.5
 30
0.0
 11
641.95
 21
778.2499999999998
 31
0.0
  0
ARC
  5
B04
330
1E
100
AcDbEntity
  8
PEF-L200AG
100
AcDbCircle
 10
641.95
 20
786.5
 30
0.0
 40
3.000000000000028
100
AcDbArc
 50
4.794213836433745
 51
273.7724692196196
  0
CIRCLE
  5
B05
330
1E
100
AcDbEntity
  8
PEF-L200AG
100
AcDbCircle
 10
641.95
 20
786.5
 30
0.0
 40
2.000000000000014
  0
LINE
  5
B06
330
1E
100
AcDbEntity
  8
PEF-L200AG
  6
CENTER
100
AcDbLine
 10
589.95
 20
794.5
 30
0.0
 11
589.95
 21
778.2499999999998
 31
0.0
  0
ARC
  5
B07
330
1E
100
AcDbEntity
  8
PEF-L200AG
100
AcDbCircle
 10
589.95
 20
786.5
 30
0.0
 40
3.000000000000028
100
AcDbArc
 50
4.794213836433745
 51
273.7724692196196
  0
CIRCLE
  5
B08
330
1E
100
AcDbEntity
  8
PEF-L200AG
100
AcDbCircle
 10
589.95
 20
786.5
 30
0.0
 40
2.000000000000014
  0
LINE
  5
B0F
330
1E
100
AcDbEntity
  8
PEF-L200AG
  6
DASHED
100
AcDbLine
 10
540.95
 20
634.9999999483999
 30
0.0
 11
540.95
 21
631.4999999575499
 31
0.0
  0
LINE
  5
B10
330
1E
100
AcDbEntity
  8
PEF-L200AG
  6
CENTER
100
AcDbLine
 10
537.95
 20
638.9999999483999
 30
0.0
 11
537.95
 21
631.4999999575499
 31
0.0
  0
LINE
  5
B11
330
1E
100
AcDbEntity
  8
PEF-L200AG
  6
DASHED
100
AcDbLine
 10
539.95
 20
634.9999999483999
 30
0.0
 11
539.95
 21
631.4999999575499
 31
0.0
  0
LINE
  5
B12
330
1E
100
AcDbEntity
  8
PEF-L200AG
  6
DASHED
100
AcDbLine
 10
534.95
 20
634.9999999483999
 30
0.0
 11
534.95
 21
631.4999999575499
 31
0.0
  0
LINE
  5
B13
330
1E
100
AcDbEntity
  8
PEF-L200AG
  6
DASHED
100
AcDbLine
 10
535.95
 20
634.9999999483999
 30
0.0
 11
535.95
 21
631.4999999575499
 31
0.0
  0
LINE
  5
B17
330
1E
100
AcDbEntity
  8
PEF-L200AG
100
AcDbLine
 10
499.1613476289061
 20
631.4999999575499
 30
0.0
 11
498.223525457849
 21
634.9999999483999
 31
0.0
  0
LINE
  5
B1D
330
1E
100
AcDbEntity
  8
PEF-L200AG
  6
CENTER
100
AcDbLine
 10
537.95
 20
794.5
 30
0.0
 11
537.95
 21
778.2499999999998
 31
0.0
  0
LINE
  5
B1E
330
1E
100
AcDbEntity
  8
PEF-L200AG
100
AcDbLine
 10
498.223525457849
 20
759.0
 30
0.0
 11
498.223525457849
 21
814.0
 31
0.0
  0
ARC
  5
B1F
330
1E
100
AcDbEntity
  8
PEF-L200AG
100
AcDbCircle
 10
537.95
 20
786.5
 30
0.0
 40
3.000000000000028
100
AcDbArc
 50
4.794213836433745
 51
273.7724692196196
  0
CIRCLE
  5
B20
330
1E
100
AcDbEntity
  8
PEF-L200AG
100
AcDbCircle
 10
537.95
 20
786.5
 30
0.0
 40
2.000000000000014
  0
LINE
  5
B21
330
1E
100
AcDbEntity
  8
PEF-L200AG
  6
CENTER
100
AcDbLine
 10
502.0819938288569
 20
764.7499999999999
 30
0.0
 11
502.0819938288569
 21
778.5
 31
0.0
  0
LINE
  5
B22
330
1E
100
AcDbEntity
  8
PEF-L200AG
  6
CENTER
100
AcDbLine
 10
494.4307806183468
 20
771.4999999999998
 30
0.0
 11
509.6807806183469
 21
771.4999999999998
 31
0.0
  0
LINE
  5
B23
330
1E
100
AcDbEntity
  8
PEF-L200AG
  6
CENTER
100
AcDbLine
 10
494.6807806183469
 20
801.5
 30
0.0
 11
509.6807806183469
 21
801.5
 31
0.0
  0
LINE
  5
B24
330
1E
100
AcDbEntity
  8
PEF-L200AG
  6
CENTER
100
AcDbLine
 10
502.0819938288569
 20
794.5
 30
0.0
 11
502.0819938288569
 21
808.5
 31
0.0
  0
LINE
  5
B78
330
1E
100
AcDbEntity
  8
PEF-L200AG
100
AcDbLine
 10
684.3474197293143
 20
630.0472099951075
 30
0.0
 11
684.6536059471621
 21
629.8704332998108
 31
0.0
  0
LINE
  5
BD2
330
1E
100
AcDbEntity
  8
PEF-L200AG
100
AcDbLine
 10
658.7499999841
 20
814.0
 30
0.0
 11
658.7499999841
 21
816.500000009
 31
0.0
  0
LINE
  5
BD3
330
1E
100
AcDbEntity
  8
PEF-L200AG
100
AcDbLine
 10
656.7499999834999
 20
814.0
 30
0.0
 11
656.7499999834999
 21
816.500000009
 31
0.0
  0
LINE
  5
BD4
330
1E
100
AcDbEntity
  8
PEF-L200AG
100
AcDbLine
 10
527.4628128658158
 20
814.0
 30
0.0
 11
527.4628128658158
 21
816.500000009
 31
0.0
  0
LINE
  5
BD5
330
1E
100
AcDbEntity
  8
PEF-L200AG
100
AcDbLine
 10
531.7499999459998
 20
814.0
 30
0.0
 11
531.7499999459998
 21
816.500000009
 31
0.0
  0
LINE
  5
BD6
330
1E
100
AcDbEntity
  8
PEF-L200AG
100
AcDbLine
 10
534.7499999469
 20
814.0
 30
0.0
 11
534.7499999469
 21
816.500000009
 31
0.0
  0
LINE
  5
BD7
330
1E
100
AcDbEntity
  8
PEF-L200AG
100
AcDbLine
 10
381.7499999039998
 20
706.4999999894998
 30
0.0
 11
381.7499999039998
 21
751.4999999895
 31
0.0
  0
LINE
  5
BD8
330
1E
100
AcDbEntity
  8
PEF-L200AG
100
AcDbLine
 10
401.7499999039999
 20
706.4999999894998
 30
0.0
 11
401.7499999039999
 21
741.4999999864999
 31
0.0
  0
LINE
  5
BD9
330
1E
100
AcDbEntity
  8
PEF-L200AG
  6
CENTER
100
AcDbLine
 10
391.7499999039998
 20
690.9999999894997
 30
0.0
 11
391.7499999039998
 21
763.4999999895
 31
0.0
  0
ARC
  5
BDA
330
1E
100
AcDbEntity
  8
PEF-L200AG
100
AcDbCircle
 10
391.7499999039998
 20
706.4999999894998
 30
0.0
 40
10.0
100
AcDbArc
 50
180.0
 51
0.0
  0
LINE
  5
BDB
330
1E
100
AcDbEntity
  8
PEF-L200AG
  6
CENTER
100
AcDbLine
 10
405.4999999039998
 20
706.4999999894998
 30
0.0
 11
377.4999999039998
 21
706.4999999894998
 31
0.0
  0
ARC
  5
BDC
330
1E
100
AcDbEntity
  8
PEF-L200AG
100
AcDbCircle
 10
391.7499999039998
 20
706.4999999894998
 30
0.0
 40
3.5
100
AcDbArc
 50
180.0
 51
0.0
  0
LINE
  5
BDD
330
1E
100
AcDbEntity
  8
PEF-L200AG
  6
CENTER
100
AcDbLine
 10
398.999999904
 20
726.4999999895
 30
0.0
 11
384.749999904
 21
726.4999999895
 31
0.0
  0
ARC
  5
BDE
330
1E
100
AcDbEntity
  8
PEF-L200AG
100
AcDbCircle
 10
391.7499999039998
 20
726.4999999895
 30
0.0
 40
3.5
100
AcDbArc
 50
0.0
 51
180.0
  0
LINE
  5
BDF
330
1E
100
AcDbEntity
  8
PEF-L200AG
100
AcDbLine
 10
395.249999904
 20
726.4999999895
 30
0.0
 11
395.249999904
 21
706.4999999894998
 31
0.0
  0
LINE
  5
BE0
330
1E
100
AcDbEntity
  8
PEF-L200AG
100
AcDbLine
 10
388.249999904
 20
726.4999999895
 30
0.0
 11
388.249999904
 21
706.4999999894998
 31
0.0
  0
LINE
  5
BE1
330
1E
100
AcDbEntity
  8
PEF-L200AG
  6
CENTER
100
AcDbLine
 10
384.749999904
 20
716.4999999895
 30
0.0
 11
398.999999904
 21
716.4999999895
 31
0.0
  0
CIRCLE
  5
BE2
330
1E
100
AcDbEntity
  8
PEF-L200AG
  6
DASHED
100
AcDbCircle
 10
391.7499999039998
 20
751.4999999895
 30
0.0
 40
10.0
  0
LINE
  5
BE3
330
1E
100
AcDbEntity
  8
PEF-L200AG
100
AcDbLine
 10
856.0
 20
494.9999999483999
 30
0.0
 11
946.0
 21
494.9999999483999
 31
0.0
  0
LINE
  5
BE4
330
1E
100
AcDbEntity
  8
PEF-L200AG
100
AcDbLine
 10
856.0
 20
513.4999999483999
 30
0.0
 11
946.0
 21
513.4999999483999
 31
0.0
  0
LINE
  5
BE5
330
1E
100
AcDbEntity
  8
PEF-L200AG
100
AcDbLine
 10
856.0
 20
494.9999999483999
 30
0.0
 11
856.0
 21
544.5
 31
0.0
  0
LINE
  5
BE6
330
1E
100
AcDbEntity
  8
PEF-L200AG
  6
CENTER
100
AcDbLine
 10
901.0
 20
489.0
 30
0.0
 11
901.0
 21
639.25
 31
0.0
  0
LINE
  5
BE7
330
1E
100
AcDbEntity
  8
PEF-L200AG
100
AcDbLine
 10
901.0
 20
515.5
 30
0.0
 11
934.0
 21
515.5
 31
0.0
  0
LINE
  5
BE8
330
1E
100
AcDbEntity
  8
PEF-L200AG
100
AcDbLine
 10
934.0
 20
515.5
 30
0.0
 11
934.0
 21
513.4999999483999
 31
0.0
  0
LINE
  5
BE9
330
1E
100
AcDbEntity
  8
PEF-L200AG
100
AcDbLine
 10
901.0
 20
515.5
 30
0.0
 11
868.0
 21
515.5
 31
0.0
  0
LINE
  5
BEA
330
1E
100
AcDbEntity
  8
PEF-L200AG
100
AcDbLine
 10
868.0
 20
515.5
 30
0.0
 11
868.0
 21
513.4999999483999
 31
0.0
  0
LINE
  5
C19
330
1E
100
AcDbEntity
  8
PEF-L200AG
100
AcDbLine
 10
481.7499999009999
 20
744.9996535761355
 30
0.0
 11
481.7499999009999
 21
786.5
 31
0.0
  0
LINE
  5
C1A
330
1E
100
AcDbEntity
  8
PEF-L200AG
100
AcDbLine
 10
461.3366793507252
 20
747.9999999864999
 30
0.0
 11
461.3366793507252
 21
786.5
 31
0.0
  0
LINE
  5
C1B
330
1E
100
AcDbEntity
  8
PEF-L200AG
100
AcDbLine
 10
421.6720707633228
 20
747.9999999865001
 30
0.0
 11
421.6720707633228
 21
786.5
 31
0.0
  0
LINE
  5
C1C
330
1E
100
AcDbEntity
  8
PEF-L200AG
100
AcDbLine
 10
384.990404937866
 20
744.9999999864999
 30
0.0
 11
384.990404937866
 21
786.5
 31
0.0
  0
LINE
  5
C1D
330
1E
100
AcDbEntity
  8
PEF-L200AG
100
AcDbLine
 10
459.3366793507254
 20
827.0000000134999
 30
0.0
 11
423.6720707633229
 21
827.0000000134999
 31
0.0
  0
LINE
  5
C1E
330
1E
100
AcDbEntity
  8
PEF-L200AG
100
AcDbLine
 10
459.3366793507254
 20
745.9999999864999
 30
0.0
 11
423.6720707633229
 21
745.9999999864999
 31
0.0
  0
ARC
  5
C1F
330
1E
100
AcDbEntity
  8
PEF-L200AG
100
AcDbCircle
 10
423.6720707633229
 20
747.9999999865001
 30
0.0
 40
2.0
100
AcDbArc
 50
180.0
 51
270.0
  0
ARC
  5
C20
330
1E
100
AcDbEntity
  8
PEF-L200AG
100
AcDbCircle
 10
459.3366793507254
 20
747.9999999864999
 30
0.0
 40
2.0
100
AcDbArc
 50
270.0
 51
0.0
  0
LINE
  5
C21
330
1E
100
AcDbEntity
  8
PEF-L200AG
100
AcDbLine
 10
479.749999931
 20
742.9999999864999
 30
0.0
 11
386.990404937866
 21
742.9999999864999
 31
0.0
  0
ARC
  5
C22
330
1E
100
AcDbEntity
  8
PEF-L200AG
100
AcDbCircle
 10
386.990404937866
 20
744.9999999864999
 30
0.0
 40
2.0
100
AcDbArc
 50
180.0
 51
270.0
  0
ARC
  5
C23
330
1E
100
AcDbEntity
  8
PEF-L200AG
100
AcDbCircle
 10
479.749999931
 20
744.9999999864999
 30
0.0
 40
2.0
100
AcDbArc
 50
270.0
 51
0.0099239244239213
  0
LINE
  5
C24
330
1E
100
AcDbEntity
  8
PEF-L200AG
100
AcDbLine
 10
481.7499999009999
 20
828.0003464238642
 30
0.0
 11
481.7499999009999
 21
786.5
 31
0.0
  0
LINE
  5
C25
330
1E
100
AcDbEntity
  8
PEF-L200AG
100
AcDbLine
 10
479.749999931
 20
830.0000000135
 30
0.0
 11
386.990404937866
 21
830.0000000135
 31
0.0
  0
ARC
  5
C26
330
1E
100
AcDbEntity
  8
PEF-L200AG
100
AcDbCircle
 10
479.749999931
 20
828.0000000135
 30
0.0
 40
2.0
100
AcDbArc
 50
359.990076075576
 51
90.0
  0
LINE
  5
C27
330
1E
100
AcDbEntity
  8
PEF-L200AG
100
AcDbLine
 10
459.3366793507254
 20
827.0000000134999
 30
0.0
 11
423.6720707633229
 21
827.0000000134999
 31
0.0
  0
LINE
  5
C28
330
1E
100
AcDbEntity
  8
PEF-L200AG
100
AcDbLine
 10
461.3366793507252
 20
825.0000000134999
 30
0.0
 11
461.3366793507252
 21
786.5
 31
0.0
  0
ARC
  5
C29
330
1E
100
AcDbEntity
  8
PEF-L200AG
100
AcDbCircle
 10
459.3366793507254
 20
825.0000000134999
 30
0.0
 40
2.0
100
AcDbArc
 50
0.0
 51
90.0
  0
LINE
  5
C2A
330
1E
100
AcDbEntity
  8
PEF-L200AG
100
AcDbLine
 10
421.6720707633228
 20
825.0000000134999
 30
0.0
 11
421.6720707633228
 21
786.5
 31
0.0
  0
ARC
  5
C2B
330
1E
100
AcDbEntity
  8
PEF-L200AG
100
AcDbCircle
 10
423.6720707633229
 20
825.0000000134999
 30
0.0
 40
2.0
100
AcDbArc
 50
90.0
 51
180.0
  0
LINE
  5
C2C
330
1E
100
AcDbEntity
  8
PEF-L200AG
100
AcDbLine
 10
384.990404937866
 20
828.0000000135
 30
0.0
 11
384.990404937866
 21
786.5
 31
0.0
  0
ARC
  5
C2D
330
1E
100
AcDbEntity
  8
PEF-L200AG
100
AcDbCircle
 10
386.990404937866
 20
828.0000000135
 30
0.0
 40
2.0
100
AcDbArc
 50
90.0
 51
180.0
  0
LINE
  5
C2E
330
1E
100
AcDbEntity
  8
PEF-L200AG
100
AcDbLine
 10
422.2578572009497
 20
746.585786424127
 30
0.0
 11
385.576191375493
 21
743.5857864241269
 31
0.0
  0
LINE
  5
C2F
330
1E
100
AcDbEntity
  8
PEF-L200AG
100
AcDbLine
 10
385.576191375493
 20
743.5857864241269
 30
0.0
 11
382.25
 21
742.0
 31
0.0
  0
LINE
  5
C30
330
1E
100
AcDbEntity
  8
PEF-L200AG
100
AcDbLine
 10
481.1643359626098
 20
743.5859089039702
 30
0.0
 11
460.7508929130983
 21
746.5857864241269
 31
0.0
  0
LINE
  5
C31
330
1E
100
AcDbEntity
  8
PEF-L200AG
100
AcDbLine
 10
385.576191375493
 20
829.4142135758731
 30
0.0
 11
382.25
 21
831.0
 31
0.0
  0
LINE
  5
C32
330
1E
100
AcDbEntity
  8
PEF-L200AG
100
AcDbLine
 10
422.2578572009497
 20
826.414213575873
 30
0.0
 11
385.576191375493
 21
829.4142135758731
 31
0.0
  0
LINE
  5
C33
330
1E
100
AcDbEntity
  8
PEF-L200AG
100
AcDbLine
 10
481.1643359626098
 20
829.4140910960297
 30
0.0
 11
460.7508929130983
 21
826.414213575873
 31
0.0
  0
LINE
  5
C34
330
1E
100
AcDbEntity
  8
PEF-L200AG
  6
DASHED
100
AcDbLine
 10
401.7499999039999
 20
741.4999999864999
 30
0.0
 11
401.7499999039999
 21
751.5
 31
0.0
  0
LINE
  5
C35
330
1E
100
AcDbEntity
  8
PEF-L200AG
  6
CENTER
100
AcDbLine
 10
403.7499999039998
 20
751.4999999895
 30
0.0
 11
379.7499999039998
 21
751.4999999895
 31
0.0
  0
CIRCLE
  5
C36
330
1E
100
AcDbEntity
  8
PEF-L200AG
  6
DASHED
100
AcDbCircle
 10
391.7499999039998
 20
821.5000000105002
 30
0.0
 40
10.0
  0
LINE
  5
C37
330
1E
100
AcDbEntity
  8
PEF-L200AG
  6
DASHED
100
AcDbLine
 10
401.7499999039999
 20
831.5000000135
 30
0.0
 11
401.7499999039999
 21
821.4999999999999
 31
0.0
  0
LINE
  5
C38
330
1E
100
AcDbEntity
  8
PEF-L200AG
  6
CENTER
100
AcDbLine
 10
399.2499999039998
 20
846.5000000105002
 30
0.0
 11
384.249999904
 21
846.5000000105002
 31
0.0
  0
ARC
  5
C39
330
1E
100
AcDbEntity
  8
PEF-L200AG
100
AcDbCircle
 10
391.7499999039998
 20
866.5000000105003
 30
0.0
 40
10.0
100
AcDbArc
 50
0.0
 51
180.0
  0
LINE
  5
C3A
330
1E
100
AcDbEntity
  8
PEF-L200AG
  6
CENTER
100
AcDbLine
 10
405.999999904
 20
866.5000000105003
 30
0.0
 11
377.2499999039998
 21
866.5000000105003
 31
0.0
  0
LINE
  5
C3B
330
1E
100
AcDbEntity
  8
PEF-L200AG
  6
CENTER
100
AcDbLine
 10
384.249999904
 20
856.5000000105001
 30
0.0
 11
399.2499999039998
 21
856.5000000105001
 31
0.0
  0
LINE
  5
C3C
330
1E
100
AcDbEntity
  8
PEF-L200AG
100
AcDbLine
 10
395.249999904
 20
846.5000000105002
 30
0.0
 11
395.249999904
 21
866.5000000105003
 31
0.0
  0
ARC
  5
C3D
330
1E
100
AcDbEntity
  8
PEF-L200AG
100
AcDbCircle
 10
391.7499999039998
 20
866.5000000105003
 30
0.0
 40
3.5
100
AcDbArc
 50
0.0
 51
180.0
  0
ARC
  5
C3E
330
1E
100
AcDbEntity
  8
PEF-L200AG
100
AcDbCircle
 10
391.7499999039998
 20
846.5000000105002
 30
0.0
 40
3.5
100
AcDbArc
 50
180.0
 51
0.0
  0
LINE
  5
C3F
330
1E
100
AcDbEntity
  8
PEF-L200AG
100
AcDbLine
 10
401.7499999039999
 20
866.5000000105003
 30
0.0
 11
401.7499999039999
 21
831.5000000135
 31
0.0
  0
LINE
  5
C40
330
1E
100
AcDbEntity
  8
PEF-L200AG
100
AcDbLine
 10
381.7499999039998
 20
866.5000000105003
 30
0.0
 11
381.7499999039998
 21
821.5000000105002
 31
0.0
  0
LINE
  5
C41
330
1E
100
AcDbEntity
  8
PEF-L200AG
100
AcDbLine
 10
388.249999904
 20
846.5000000105002
 30
0.0
 11
388.249999904
 21
866.5000000105003
 31
0.0
  0
LINE
  5
C42
330
1E
100
AcDbEntity
  8
PEF-L200AG
100
AcDbLine
 10
381.7499999999998
 20
482.2499999999998
 30
0.0
 11
446.75
 21
482.2499999999998
 31
0.0
  0
LINE
  5
C43
330
1E
100
AcDbEntity
  8
PEF-L200AG
100
AcDbLine
 10
391.75
 20
480.0
 30
0.0
 11
446.75
 21
480.0
 31
0.0
  0
LINE
  5
C44
330
1E
100
AcDbEntity
  8
PEF-L200AG
100
AcDbLine
 10
446.75
 20
480.0
 30
0.0
 11
446.75
 21
482.2499999999998
 31
0.0
  0
LINE
  5
C45
330
1E
100
AcDbEntity
  8
PEF-L200AG
100
AcDbLine
 10
440.2499999999998
 20
480.0
 30
0.0
 11
440.2499999999998
 21
482.2499999999998
 31
0.0
  0
LINE
  5
C46
330
1E
100
AcDbEntity
  8
PEF-L200AG
100
AcDbLine
 10
413.25
 20
480.0
 30
0.0
 11
413.25
 21
482.2499999999998
 31
0.0
  0
LINE
  5
C47
330
1E
100
AcDbEntity
  8
PEF-L200AG
100
AcDbLine
 10
381.7499999999998
 20
495.0
 30
0.0
 11
381.7499999999998
 21
493.0
 31
0.0
  0
LINE
  5
C48
330
1E
100
AcDbEntity
  8
PEF-L200AG
100
AcDbLine
 10
382.75
 20
492.0
 30
0.0
 11
382.75
 21
483.25
 31
0.0
  0
LINE
  5
C49
330
1E
100
AcDbEntity
  8
PEF-L200AG
100
AcDbLine
 10
381.7499999999998
 20
482.2499999999998
 30
0.0
 11
381.7499999999998
 21
480.0
 31
0.0
  0
LINE
  5
C4A
330
1E
100
AcDbEntity
  8
PEF-L200AG
100
AcDbLine
 10
381.7499999999998
 20
480.0
 30
0.0
 11
406.25
 21
480.0
 31
0.0
  0
ARC
  5
C4B
330
1E
100
AcDbEntity
  8
PEF-L200AG
100
AcDbCircle
 10
381.7499999999998
 20
483.25
 30
0.0
 40
1.0
100
AcDbArc
 50
270.0
 51
0.0
  0
ARC
  5
C4C
330
1E
100
AcDbEntity
  8
PEF-L200AG
100
AcDbCircle
 10
381.7499999999998
 20
492.0
 30
0.0
 40
1.0
100
AcDbArc
 50
0.0
 51
90.0
  0
LINE
  5
C4D
330
1E
100
AcDbEntity
  8
PEF-L200AG
100
AcDbLine
 10
400.75
 20
492.0
 30
0.0
 11
400.75
 21
483.25
 31
0.0
  0
ARC
  5
C4E
330
1E
100
AcDbEntity
  8
PEF-L200AG
100
AcDbCircle
 10
401.75
 20
483.25
 30
0.0
 40
1.0
100
AcDbArc
 50
180.0
 51
270.0
  0
ARC
  5
C4F
330
1E
100
AcDbEntity
  8
PEF-L200AG
100
AcDbCircle
 10
401.75
 20
492.0
 30
0.0
 40
1.0
100
AcDbArc
 50
90.0
 51
180.0
  0
LINE
  5
C50
330
1E
100
AcDbEntity
  8
PEF-L200AG
100
AcDbLine
 10
401.75
 20
495.0
 30
0.0
 11
401.75
 21
493.0
 31
0.0
  0
LINE
  5
C51
330
1E
100
AcDbEntity
  8
PEF-L200AG
100
AcDbLine
 10
381.7499999999998
 20
493.0
 30
0.0
 11
401.75
 21
493.0
 31
0.0
  0
LINE
  5
C52
330
1E
100
AcDbEntity
  8
PEF-L200AG
100
AcDbLine
 10
621.75
 20
482.2499999999998
 30
0.0
 11
556.7499999999999
 21
482.2499999999998
 31
0.0
  0
LINE
  5
C53
330
1E
100
AcDbEntity
  8
PEF-L200AG
100
AcDbLine
 10
611.7499999999998
 20
480.0
 30
0.0
 11
556.7499999999999
 21
480.0
 31
0.0
  0
LINE
  5
C54
330
1E
100
AcDbEntity
  8
PEF-L200AG
100
AcDbLine
 10
621.75
 20
480.0
 30
0.0
 11
597.25
 21
480.0
 31
0.0
  0
LINE
  5
C55
330
1E
100
AcDbEntity
  8
PEF-L200AG
100
AcDbLine
 10
602.7499999999998
 20
492.0
 30
0.0
 11
602.7499999999998
 21
483.25
 31
0.0
  0
ARC
  5
C56
330
1E
100
AcDbEntity
  8
PEF-L200AG
100
AcDbCircle
 10
601.75
 20
483.25
 30
0.0
 40
1.0
100
AcDbArc
 50
270.0
 51
0.0
  0
LINE
  5
C57
330
1E
100
AcDbEntity
  8
PEF-L200AG
100
AcDbLine
 10
590.2499999999998
 20
480.0
 30
0.0
 11
590.2499999999998
 21
482.2499999999998
 31
0.0
  0
LINE
  5
C58
330
1E
100
AcDbEntity
  8
PEF-L200AG
  6
CENTER
100
AcDbLine
 10
576.75
 20
474.2499999999998
 30
0.0
 11
576.75
 21
487.75
 31
0.0
  0
LINE
  5
C59
330
1E
100
AcDbEntity
  8
PEF-L200AG
100
AcDbLine
 10
563.25
 20
480.0
 30
0.0
 11
563.25
 21
482.2499999999998
 31
0.0
  0
LINE
  5
C5A
330
1E
100
AcDbEntity
  8
PEF-L200AG
100
AcDbLine
 10
556.7499999999999
 20
480.0
 30
0.0
 11
556.7499999999999
 21
482.2499999999998
 31
0.0
  0
LINE
  5
C5B
330
1E
100
AcDbEntity
  8
PEF-L200AG
100
AcDbLine
 10
621.75
 20
493.0
 30
0.0
 11
601.75
 21
493.0
 31
0.0
  0
LINE
  5
C5C
330
1E
100
AcDbEntity
  8
PEF-L200AG
100
AcDbLine
 10
601.75
 20
495.0
 30
0.0
 11
601.75
 21
493.0
 31
0.0
  0
ARC
  5
C5D
330
1E
100
AcDbEntity
  8
PEF-L200AG
100
AcDbCircle
 10
601.75
 20
492.0
 30
0.0
 40
1.0
100
AcDbArc
 50
0.0
 51
90.0
  0
LINE
  5
C5E
330
1E
100
AcDbEntity
  8
PEF-L200AG
100
AcDbLine
 10
620.75
 20
492.0
 30
0.0
 11
620.75
 21
483.25
 31
0.0
  0
ARC
  5
C5F
330
1E
100
AcDbEntity
  8
PEF-L200AG
100
AcDbCircle
 10
621.75
 20
483.25
 30
0.0
 40
1.0
100
AcDbArc
 50
180.0
 51
270.0
  0
LINE
  5
C60
330
1E
100
AcDbEntity
  8
PEF-L200AG
100
AcDbLine
 10
621.75
 20
482.2499999999998
 30
0.0
 11
621.75
 21
480.0
 31
0.0
  0
ARC
  5
C61
330
1E
100
AcDbEntity
  8
PEF-L200AG
100
AcDbCircle
 10
621.75
 20
492.0
 30
0.0
 40
1.0
100
AcDbArc
 50
90.0
 51
180.0
  0
LINE
  5
C62
330
1E
100
AcDbEntity
  8
PEF-L200AG
100
AcDbLine
 10
621.75
 20
495.0
 30
0.0
 11
621.75
 21
493.0
 31
0.0
  0
LINE
  5
C63
330
1E
100
AcDbEntity
  8
PEF-L200AG
100
AcDbLine
 10
439.2499999009999
 20
625.25
 30
0.0
 11
439.2499999009999
 21
620.5
 31
0.0
  0
LINE
  5
C64
330
1E
100
AcDbEntity
  8
PEF-L200AG
100
AcDbLine
 10
439.2499999009999
 20
620.5
 30
0.0
 11
454.2499999009999
 21
620.5
 31
0.0
  0
LINE
  5
C65
330
1E
100
AcDbEntity
  8
PEF-L200AG
100
AcDbLine
 10
454.2499999009999
 20
620.5
 30
0.0
 11
454.2499999009999
 21
625.25
 31
0.0
  0
LINE
  5
C66
330
1E
100
AcDbEntity
  8
PEF-L200AG
100
AcDbLine
 10
442.9999999009999
 20
625.25
 30
0.0
 11
442.9999999009999
 21
620.5
 31
0.0
  0
LINE
  5
C67
330
1E
100
AcDbEntity
  8
PEF-L200AG
100
AcDbLine
 10
450.4999999009999
 20
625.25
 30
0.0
 11
450.4999999009999
 21
620.5
 31
0.0
  0
ARC
  5
C68
330
1E
100
AcDbEntity
  8
PEF-L200AG
100
AcDbCircle
 10
452.3749999009999
 20
623.2916666666666
 30
0.0
 40
2.711216414166246
100
AcDbArc
 50
46.2453642667685
 51
133.7546357332315
  0
ARC
  5
C69
330
1E
100
AcDbEntity
  8
PEF-L200AG
100
AcDbCircle
 10
446.749999901
 20
616.25
 30
0.0
 40
9.75
100
AcDbArc
 50
67.38013505195997
 51
112.6198649480399
  0
ARC
  5
C6A
330
1E
100
AcDbEntity
  8
PEF-L200AG
100
AcDbCircle
 10
441.1249999009999
 20
623.2916666666666
 30
0.0
 40
2.711216414166246
100
AcDbArc
 50
46.2453642667685
 51
133.7546357332315
  0
LINE
  5
C6B
330
1E
100
AcDbEntity
  8
PEF-L200AG
100
AcDbLine
 10
452.3749999009999
 20
626.0028830808327
 30
0.0
 11
441.1249999009999
 21
626.0028830808327
 31
0.0
  0
LINE
  5
C6C
330
1E
100
AcDbEntity
  8
PEF-L200AG
100
AcDbLine
 10
439.2499999009999
 20
620.5
 30
0.0
 11
439.2499999009999
 21
619.5
 31
0.0
  0
LINE
  5
C6D
330
1E
100
AcDbEntity
  8
PEF-L200AG
100
AcDbLine
 10
454.2499999009999
 20
619.5
 30
0.0
 11
454.2499999009999
 21
620.5
 31
0.0
  0
LINE
  5
C6E
330
1E
100
AcDbEntity
  8
PEF-L200AG
100
AcDbLine
 10
450.4999999009999
 20
619.5
 30
0.0
 11
451.4999999009999
 21
620.5
 31
0.0
  0
LINE
  5
C6F
330
1E
100
AcDbEntity
  8
PEF-L200AG
100
AcDbLine
 10
448.999999901
 20
619.5
 30
0.0
 11
449.9999999009999
 21
620.5
 31
0.0
  0
LINE
  5
C70
330
1E
100
AcDbEntity
  8
PEF-L200AG
100
AcDbLine
 10
441.4999999009999
 20
619.5
 30
0.0
 11
442.4999999009999
 21
620.5
 31
0.0
  0
LINE
  5
C71
330
1E
100
AcDbEntity
  8
PEF-L200AG
100
AcDbLine
 10
442.9999999009999
 20
619.5
 30
0.0
 11
443.9999999009999
 21
620.5
 31
0.0
  0
LINE
  5
C72
330
1E
100
AcDbEntity
  8
PEF-L200AG
  6
DASHED
100
AcDbLine
 10
450.749999901
 20
619.5
 30
0.0
 11
450.749999901
 21
506.999999901
 31
0.0
  0
LINE
  5
C73
330
1E
100
AcDbEntity
  8
PEF-L200AG
  6
DASHED
100
AcDbLine
 10
444.2499999009999
 20
505.4999999999998
 30
0.0
 11
444.2499999009999
 21
535.2500001979998
 31
0.0
  0
LINE
  5
C74
330
1E
100
AcDbEntity
  8
PEF-L200AG
  6
DASHED
100
AcDbLine
 10
449.2499999009999
 20
535.25
 30
0.0
 11
449.2499999009999
 21
505.4999999999998
 31
0.0
  0
ARC
  5
C75
330
1E
100
AcDbEntity
  8
PEF-L200AG
  6
DASHED
100
AcDbCircle
 10
441.1250000989999
 20
511.7083333333332
 30
0.0
 40
2.711216414166246
100
AcDbArc
 50
226.2453642667685
 51
313.7546357332315
  0
LINE
  5
C76
330
1E
100
AcDbEntity
  8
PEF-L200AG
  6
DASHED
100
AcDbLine
 10
454.2500000989998
 20
516.5
 30
0.0
 11
439.250000099
 21
516.5
 31
0.0
  0
ARC
  5
C77
330
1E
100
AcDbEntity
  8
PEF-L200AG
  6
DASHED
100
AcDbCircle
 10
452.3750000989998
 20
511.7083333333332
 30
0.0
 40
2.711216414166246
100
AcDbArc
 50
226.2453642667685
 51
313.7546357332315
  0
LINE
  5
C78
330
1E
100
AcDbEntity
  8
PEF-L200AG
  6
DASHED
100
AcDbLine
 10
454.2500000989998
 20
509.75
 30
0.0
 11
454.2500000989998
 21
516.5
 31
0.0
  0
LINE
  5
C79
330
1E
100
AcDbEntity
  8
PEF-L200AG
  6
DASHED
100
AcDbLine
 10
450.5000000989999
 20
509.75
 30
0.0
 11
450.5000000989999
 21
516.5
 31
0.0
  0
LINE
  5
C7A
330
1E
100
AcDbEntity
  8
PEF-L200AG
  6
DASHED
100
AcDbLine
 10
443.0000000989998
 20
509.75
 30
0.0
 11
443.0000000989998
 21
516.5
 31
0.0
  0
ARC
  5
C7B
330
1E
100
AcDbEntity
  8
PEF-L200AG
  6
DASHED
100
AcDbCircle
 10
446.7500000989998
 20
518.75
 30
0.0
 40
9.75
100
AcDbArc
 50
247.3801350519599
 51
292.61986494804
  0
LINE
  5
C7C
330
1E
100
AcDbEntity
  8
PEF-L200AG
  6
DASHED
100
AcDbLine
 10
441.1250000989999
 20
508.9971169191671
 30
0.0
 11
452.3750000989998
 21
508.9971169191671
 31
0.0
  0
LINE
  5
C7D
330
1E
100
AcDbEntity
  8
PEF-L200AG
  6
DASHED
100
AcDbLine
 10
439.250000099
 20
516.5
 30
0.0
 11
439.250000099
 21
509.75
 31
0.0
  0
LINE
  5
C7E
330
1E
100
AcDbEntity
  8
PEF-L200AG
  6
DASHED
100
AcDbLine
 10
449.2499999999998
 20
505.4999999999998
 30
0.0
 11
450.75
 21
507.0
 31
0.0
  0
LINE
  5
C7F
330
1E
100
AcDbEntity
  8
PEF-L200AG
  6
DASHED
100
AcDbLine
 10
450.75
 20
507.0
 30
0.0
 11
442.75
 21
507.0
 31
0.0
  0
LINE
  5
C80
330
1E
100
AcDbEntity
  8
PEF-L200AG
  6
DASHED
100
AcDbLine
 10
442.75
 20
507.0
 30
0.0
 11
444.2499999999998
 21
505.4999999999998
 31
0.0
  0
LINE
  5
C81
330
1E
100
AcDbEntity
  8
PEF-L200AG
  6
DASHED
100
AcDbLine
 10
444.2499999999998
 20
505.4999999999998
 30
0.0
 11
449.2499999999998
 21
505.4999999999998
 31
0.0
  0
LINE
  5
C82
330
1E
100
AcDbEntity
  8
PEF-L200AG
  6
DASHED
100
AcDbLine
 10
442.749999901
 20
507.0
 30
0.0
 11
442.749999901
 21
619.5
 31
0.0
  0
LINE
  5
C83
330
1E
100
AcDbEntity
  8
PEF-L200AG
  6
DASHED
100
AcDbLine
 10
449.2499999999998
 20
535.25
 30
0.0
 11
450.75
 21
538.25
 31
0.0
  0
LINE
  5
C84
330
1E
100
AcDbEntity
  8
PEF-L200AG
  6
DASHED
100
AcDbLine
 10
449.2499999999998
 20
535.25
 30
0.0
 11
444.2499999999998
 21
535.25
 31
0.0
  0
LINE
  5
C85
330
1E
100
AcDbEntity
  8
PEF-L200AG
  6
DASHED
100
AcDbLine
 10
444.2499999999998
 20
535.25
 30
0.0
 11
442.75
 21
538.25
 31
0.0
  0
LINE
  5
C86
330
1E
100
AcDbEntity
  8
PEF-L200AG
100
AcDbLine
 10
873.4999999999999
 20
634.9999999483999
 30
0.0
 11
928.5
 21
634.9999999483999
 31
0.0
  0
LINE
  5
C87
330
1E
100
AcDbEntity
  8
PEF-L200AG
100
AcDbLine
 10
928.5
 20
610.9999999483999
 30
0.0
 11
928.5
 21
634.9999999483999
 31
0.0
  0
LINE
  5
C88
330
1E
100
AcDbEntity
  8
PEF-L200AG
100
AcDbLine
 10
873.4999999999999
 20
610.9999999483999
 30
0.0
 11
873.4999999999999
 21
634.9999999483999
 31
0.0
  0
LINE
  5
C89
330
1E
100
AcDbEntity
  8
PEF-L200AG
100
AcDbLine
 10
397.4999999039998
 20
504.7499999511
 30
0.0
 11
385.9999999039998
 21
504.7499999511
 31
0.0
  0
LINE
  5
C8A
330
1E
100
AcDbEntity
  8
PEF-L200AG
100
AcDbLine
 10
395.9999999039998
 20
508.7499999511
 30
0.0
 11
387.4999999039999
 21
508.7499999511
 31
0.0
  0
LINE
  5
C8B
330
1E
100
AcDbEntity
  8
PEF-L200AG
100
AcDbLine
 10
397.4999999039998
 20
504.7499999511
 30
0.0
 11
397.4999999039998
 21
508.2499999510998
 31
0.0
  0
LINE
  5
C8C
330
1E
100
AcDbEntity
  8
PEF-L200AG
100
AcDbLine
 10
385.9999999039998
 20
504.7499999511
 30
0.0
 11
385.9999999039998
 21
508.2499999510998
 31
0.0
  0
LINE
  5
C8D
330
1E
100
AcDbEntity
  8
PEF-L200AG
100
AcDbLine
 10
388.999999904
 20
504.7499999511
 30
0.0
 11
388.999999904
 21
508.2499999510998
 31
0.0
  0
LINE
  5
C8E
330
1E
100
AcDbEntity
  8
PEF-L200AG
100
AcDbLine
 10
394.499999904
 20
504.7499999511
 30
0.0
 11
394.499999904
 21
508.2499999510998
 31
0.0
  0
ARC
  5
C8F
330
1E
100
AcDbEntity
  8
PEF-L200AG
100
AcDbCircle
 10
387.4999999039999
 20
506.2499999511
 30
0.0
 40
2.5
100
AcDbArc
 50
53.13010235415597
 51
126.869897645844
  0
ARC
  5
C90
330
1E
100
AcDbEntity
  8
PEF-L200AG
100
AcDbCircle
 10
391.7499999039998
 20
500.9374999511
 30
0.0
 40
7.8125
100
AcDbArc
 50
69.39030706246793
 51
110.609692937532
  0
ARC
  5
C91
330
1E
100
AcDbEntity
  8
PEF-L200AG
100
AcDbCircle
 10
395.9999999039998
 20
506.2499999511
 30
0.0
 40
2.5
100
AcDbArc
 50
53.13010235415597
 51
126.869897645844
  0
LINE
  5
C92
330
1E
100
AcDbEntity
  8
PEF-L200AG
100
AcDbLine
 10
873.4999999999999
 20
610.9999999483999
 30
0.0
 11
876.0
 21
610.9999999483999
 31
0.0
  0
LINE
  5
C93
330
1E
100
AcDbEntity
  8
PEF-L200AG
100
AcDbLine
 10
928.5
 20
619.5
 30
0.0
 11
931.0
 21
619.5
 31
0.0
  0
LINE
  5
C94
330
1E
100
AcDbEntity
  8
PEF-L200AG
  6
CENTER
100
AcDbLine
 10
876.4677143750621
 20
625.2822856249379
 30
0.0
 11
895.5322856249379
 21
625.2822856249379
 31
0.0
  0
LINE
  5
C95
330
1E
100
AcDbEntity
  8
PEF-L200AG
100
AcDbLine
 10
875.0
 20
616.0019647440101
 30
0.0
 11
927.0
 21
616.0019647440101
 31
0.0
  0
LINE
  5
C96
330
1E
100
AcDbEntity
  8
PEF-L200AG
100
AcDbLine
 10
875.0
 20
614.8372790410489
 30
0.0
 11
927.0
 21
614.8372790410489
 31
0.0
  0
LINE
  5
C97
330
1E
100
AcDbEntity
  8
PEF-L200AG
100
AcDbLine
 10
927.0
 20
614.8372790410487
 30
0.0
 11
927.0
 21
631.4567779646352
 31
0.0
  0
LINE
  5
C98
330
1E
100
AcDbEntity
  8
PEF-L200AG
100
AcDbLine
 10
875.0
 20
614.8372790410489
 30
0.0
 11
875.0
 21
631.4567779646352
 31
0.0
  0
LINE
  5
C99
330
1E
100
AcDbEntity
  8
PEF-L200AG
100
AcDbLine
 10
875.0
 20
631.4567779646352
 30
0.0
 11
927.0
 21
631.4567779646352
 31
0.0
  0
LWPOLYLINE
  5
C9A
330
1E
100
AcDbEntity
  8
PEF-L200AG
100
AcDbPolyline
 90
       16
 70
     1
 43
0.0
 10
891.0
 20
625.2822856249379
 42
0.10286417976597
 10
890.623177198641
 20
627.0945570359839
 42
0.1001963797088633
 10
889.5355339059326
 20
628.6515959589258
 42
0.0966407557666967
 10
887.9245589583064
 20
629.6811059320108
 42
0.0942685226328152
 10
886.0
 20
630.0472099951075
 42
0.0942685226328179
 10
884.0754410416936
 20
629.6811059320108
 42
0.0966407557667047
 10
882.4644660940672
 20
628.6515959589258
 42
0.1001963797088719
 10
881.3768228013589
 20
627.0945570359839
 42
0.1028641797659732
 10
881.0
 20
625.2822856249379
 42
0.102864179765957
 10
881.3768228013588
 20
623.470014213892
 42
0.1001963797088861
 10
882.4644660940672
 20
621.9129752909497
 42
0.0966407557667146
 10
884.0754410416936
 20
620.8834653178646
 42
0.0942685226328162
 10
886.0
 20
620.5173612547683
 42
0.0942685226328223
 10
887.9245589583064
 20
620.8834653178647
 42
0.0966407557667033
 10
889.5355339059326
 20
621.9129752909497
 42
0.1001963797088598
 10
890.6231771986412
 20
623.4700142138917
 42
0.1028641797659475
  0
LWPOLYLINE
  5
CAC
330
1E
100
AcDbEntity
  8
PEF-L200AG
100
AcDbPolyline
 90
       16
 70
     1
 43
0.0
 10
890.75
 20
625.2822856249379
 42
0.1016242789414679
 10
890.3909917112448
 20
627.0303946225249
 42
0.0997343366565384
 10
889.358757210636
 20
628.5265959589259
 42
0.0971729588102136
 10
887.8254233458534
 20
629.5188076310227
 42
0.0954362277442244
 10
886.0
 20
629.8704332998108
 42
0.0954362277442215
 10
884.1745766541464
 20
629.5188076310227
 42
0.097172958810205
 10
882.641242789364
 20
628.5265959589259
 42
0.0997343366565518
 10
881.6090082887551
 20
627.0303946225249
 42
0.1016242789414728
 10
881.25
 20
625.2822856249379
 42
0.1016242789414712
 10
881.6090082887551
 20
623.5341766273507
 42
0.0997343366565474
 10
882.641242789364
 20
622.0379752909498
 42
0.0971729588101965
 10
884.1745766541464
 20
621.0457636188528
 42
0.0954362277442186
 10
886.0
 20
620.6941379500648
 42
0.0954362277442139
 10
887.8254233458536
 20
621.0457636188528
 42
0.0971729588101987
 10
889.358757210636
 20
622.0379752909498
 42
0.099734336656561
 10
890.390991711245
 20
623.534176627351
 42
0.1016242789414651
  0
LWPOLYLINE
  5
CBE
330
1E
100
AcDbEntity
  8
PEF-L200AG
100
AcDbPolyline
 90
        6
 70
     1
 43
0.0
 10
883.2499999999999
 20
625.2822856249379
 10
884.6249999999999
 20
622.9007157645306
 10
887.3749999999999
 20
622.9007157645306
 10
888.7500000000001
 20
625.2822856249379
 10
887.3749999999999
 20
627.663855485345
 10
884.6249999999999
 20
627.663855485345
  0
LWPOLYLINE
  5
CC6
330
1E
100
AcDbEntity
  8
PEF-L200AG
100
AcDbPolyline
 90
        4
 70
     0
 43
0.0
 10
888.5334936490536
 20
624.9072856249378
 10
887.3749999999999
 20
626.913855485345
 10
884.6249999999999
 20
626.913855485345
 10
883.466506350946
 20
624.9072856249378
  0
LINE
  5
CCC
330
1E
100
AcDbEntity
  8
PEF-L200AG
100
AcDbLine
 10
891.0
 20
623.9234856381496
 30
0.0
 11
891.0
 21
625.2822856249379
 31
0.0
  0
LINE
  5
CCD
330
1E
100
AcDbEntity
  8
PEF-L200AG
100
AcDbLine
 10
881.0
 20
623.9234856381496
 30
0.0
 11
881.0
 21
625.2822856249379
 31
0.0
  0
LWPOLYLINE
  5
CD1
330
1E
100
AcDbEntity
  8
PEF-L200AG
100
AcDbPolyline
 90
        9
 70
     0
 43
0.0
 10
881.0
 20
623.9234856381496
 42
0.102864179765957
 10
881.3768228013588
 20
622.1112142271037
 42
0.1001963797088861
 10
882.4644660940672
 20
620.5541753041615
 42
0.0966407557667146
 10
884.0754410416936
 20
619.5246653310763
 42
0.0942685226328162
 10
886.0
 20
619.15856126798
 42
0.0942685226328223
 10
887.9245589583064
 20
619.5246653310763
 42
0.0966407557667033
 10
889.5355339059326
 20
620.5541753041615
 42
0.1001963797088598
 10
890.6231771986412
 20
622.1112142271033
 42
0.1028641797659475
 10
891.0
 20
623.9234856381496
 42
0.10286417976597
  0
LWPOLYLINE
  5
CDC
330
1E
100
AcDbEntity
  8
PEF-L200AG
100
AcDbPolyline
 90
        9
 70
     0
 43
0.0
 10
911.0
 20
623.9234856381496
 42
0.102864179765957
 10
911.3768228013588
 20
622.1112142271037
 42
0.1001963797088861
 10
912.4644660940672
 20
620.5541753041615
 42
0.0966407557667146
 10
914.0754410416935
 20
619.5246653310763
 42
0.0942685226328162
 10
916.0
 20
619.15856126798
 42
0.0942685226328223
 10
917.9245589583064
 20
619.5246653310763
 42
0.0966407557667033
 10
919.5355339059327
 20
620.5541753041615
 42
0.1001963797088598
 10
920.6231771986411
 20
622.1112142271033
 42
0.1028641797659475
 10
921.0
 20
623.9234856381496
 42
0.10286417976597
  0
LWPOLYLINE
  5
CE7
330
1E
100
AcDbEntity
  8
PEF-L200AG
100
AcDbPolyline
 90
       16
 70
     1
 43
0.0
 10
921.0
 20
625.2822856249379
 42
0.10286417976597
 10
920.6231771986411
 20
627.0945570359839
 42
0.1001963797088633
 10
919.5355339059327
 20
628.6515959589258
 42
0.0966407557666967
 10
917.9245589583064
 20
629.6811059320108
 42
0.0942685226328152
 10
916.0
 20
630.0472099951075
 42
0.0942685226328179
 10
914.0754410416935
 20
629.6811059320108
 42
0.0966407557667047
 10
912.4644660940672
 20
628.6515959589258
 42
0.1001963797088719
 10
911.3768228013588
 20
627.0945570359839
 42
0.1028641797659732
 10
911.0
 20
625.2822856249379
 42
0.102864179765957
 10
911.3768228013588
 20
623.470014213892
 42
0.1001963797088861
 10
912.4644660940672
 20
621.9129752909497
 42
0.0966407557667146
 10
914.0754410416935
 20
620.8834653178646
 42
0.0942685226328162
 10
916.0
 20
620.5173612547683
 42
0.0942685226328223
 10
917.9245589583064
 20
620.8834653178647
 42
0.0966407557667033
 10
919.5355339059327
 20
621.9129752909497
 42
0.1001963797088598
 10
920.6231771986411
 20
623.4700142138917
 42
0.1028641797659475
  0
LWPOLYLINE
  5
CF9
330
1E
100
AcDbEntity
  8
PEF-L200AG
100
AcDbPolyline
 90
       16
 70
     1
 43
0.0
 10
920.7499999999999
 20
625.2822856249379
 42
0.1016242789414679
 10
920.3909917112449
 20
627.0303946225249
 42
0.0997343366565384
 10
919.3587572106359
 20
628.5265959589259
 42
0.0971729588102136
 10
917.8254233458535
 20
629.5188076310227
 42
0.0954362277442244
 10
916.0
 20
629.8704332998108
 42
0.0954362277442215
 10
914.1745766541465
 20
629.5188076310227
 42
0.097172958810205
 10
912.6412427893637
 20
628.5265959589259
 42
0.0997343366565518
 10
911.609008288755
 20
627.0303946225249
 42
0.1016242789414728
 10
911.25
 20
625.2822856249379
 42
0.1016242789414712
 10
911.609008288755
 20
623.5341766273507
 42
0.0997343366565474
 10
912.6412427893637
 20
622.0379752909498
 42
0.0971729588101965
 10
914.1745766541465
 20
621.0457636188528
 42
0.0954362277442186
 10
916.0
 20
620.6941379500648
 42
0.0954362277442139
 10
917.8254233458535
 20
621.0457636188528
 42
0.0971729588101987
 10
919.3587572106359
 20
622.0379752909498
 42
0.099734336656561
 10
920.3909917112449
 20
623.534176627351
 42
0.1016242789414651
  0
LWPOLYLINE
  5
D0B
330
1E
100
AcDbEntity
  8
PEF-L200AG
100
AcDbPolyline
 90
        6
 70
     1
 43
0.0
 10
913.25
 20
625.2822856249379
 10
914.625
 20
622.9007157645306
 10
917.375
 20
622.9007157645306
 10
918.75
 20
625.2822856249379
 10
917.375
 20
627.663855485345
 10
914.625
 20
627.663855485345
  0
LINE
  5
D13
330
1E
100
AcDbEntity
  8
PEF-L200AG
100
AcDbLine
 10
911.0
 20
623.9234856381496
 30
0.0
 11
911.0
 21
625.2822856249379
 31
0.0
  0
LWPOLYLINE
  5
D14
330
1E
100
AcDbEntity
  8
PEF-L200AG
100
AcDbPolyline
 90
        4
 70
     0
 43
0.0
 10
918.5334936490539
 20
624.9072856249378
 10
917.375
 20
626.913855485345
 10
914.625
 20
626.913855485345
 10
913.466506350946
 20
624.9072856249378
  0
LINE
  5
D1A
330
1E
100
AcDbEntity
  8
PEF-L200AG
100
AcDbLine
 10
921.0
 20
623.9234856381496
 30
0.0
 11
921.0
 21
625.2822856249379
 31
0.0
  0
LINE
  5
D1B
330
1E
100
AcDbEntity
  8
PEF-L200AG
  6
CENTER
100
AcDbLine
 10
906.4677143750619
 20
625.2822856249379
 30
0.0
 11
925.5322856249378
 21
625.2822856249379
 31
0.0
  0
LINE
  5
D1C
330
1E
100
AcDbEntity
  8
PEF-L200AG
  6
CENTER
100
AcDbLine
 10
916.0
 20
614.0
 30
0.0
 11
916.0
 21
634.8145712498757
 31
0.0
  0
LINE
  5
D1D
330
1E
100
AcDbEntity
  8
PEF-L200AG
  6
CENTER
100
AcDbLine
 10
886.0
 20
614.0
 30
0.0
 11
886.0
 21
634.8145712498757
 31
0.0
  0
LINE
  5
D1E
330
1E
100
AcDbEntity
  8
PEF-L200AG
  6
CENTER
100
AcDbLine
 10
898.4677143750621
 20
596.5322856249379
 30
0.0
 11
925.5322856249378
 21
596.5322856249379
 31
0.0
  0
LWPOLYLINE
  5
D1F
330
1E
100
AcDbEntity
  8
PEF-L200AG
100
AcDbPolyline
 90
       16
 70
     1
 43
0.0
 10
920.7499999999999
 20
596.5322856249379
 42
0.1016242789414679
 10
920.3909917112449
 20
598.2803946225247
 42
0.0997343366565384
 10
919.3587572106359
 20
599.7765959589258
 42
0.0971729588102136
 10
917.8254233458535
 20
600.7688076310227
 42
0.0954362277442244
 10
916.0
 20
601.1204332998109
 42
0.0954362277442215
 10
914.1745766541465
 20
600.7688076310227
 42
0.097172958810205
 10
912.6412427893637
 20
599.7765959589258
 42
0.0997343366565518
 10
911.609008288755
 20
598.2803946225247
 42
0.1016242789414728
 10
911.25
 20
596.5322856249379
 42
0.1016242789414712
 10
911.609008288755
 20
594.7841766273508
 42
0.0997343366565474
 10
912.6412427893637
 20
593.2879752909498
 42
0.0971729588101965
 10
914.1745766541465
 20
592.2957636188527
 42
0.0954362277442186
 10
916.0
 20
591.9441379500648
 42
0.0954362277442139
 10
917.8254233458535
 20
592.2957636188527
 42
0.0971729588101987
 10
919.3587572106359
 20
593.2879752909498
 42
0.099734336656561
 10
920.3909917112449
 20
594.784176627351
 42
0.1016242789414651
  0
LWPOLYLINE
  5
D31
330
1E
100
AcDbEntity
  8
PEF-L200AG
100
AcDbPolyline
 90
       16
 70
     1
 43
0.0
 10
921.0
 20
596.5322856249379
 42
0.10286417976597
 10
920.6231771986411
 20
598.3445570359839
 42
0.1001963797088633
 10
919.5355339059327
 20
599.9015959589257
 42
0.0966407557666967
 10
917.9245589583064
 20
600.931105932011
 42
0.0942685226328152
 10
916.0
 20
601.2972099951075
 42
0.0942685226328179
 10
914.0754410416935
 20
600.931105932011
 42
0.0966407557667047
 10
912.4644660940672
 20
599.9015959589257
 42
0.1001963797088719
 10
911.3768228013588
 20
598.3445570359839
 42
0.1028641797659732
 10
911.0
 20
596.5322856249379
 42
0.102864179765957
 10
911.3768228013588
 20
594.7200142138918
 42
0.1001963797088861
 10
912.4644660940672
 20
593.1629752909498
 42
0.0966407557667146
 10
914.0754410416935
 20
592.1334653178646
 42
0.0942685226328162
 10
916.0
 20
591.7673612547682
 42
0.0942685226328223
 10
917.9245589583064
 20
592.1334653178647
 42
0.0966407557667033
 10
919.5355339059327
 20
593.1629752909498
 42
0.1001963797088598
 10
920.6231771986411
 20
594.7200142138918
 42
0.1028641797659475
  0
LWPOLYLINE
  5
D43
330
1E
100
AcDbEntity
  8
PEF-L200AG
100
AcDbPolyline
 90
        9
 70
     0
 43
0.0
 10
911.0
 20
595.1734856381496
 42
0.102864179765957
 10
911.3768228013588
 20
593.3612142271036
 42
0.1001963797088861
 10
912.4644660940672
 20
591.8041753041616
 42
0.0966407557667146
 10
914.0754410416935
 20
590.7746653310763
 42
0.0942685226328162
 10
916.0
 20
590.4085612679798
 42
0.0942685226328223
 10
917.9245589583064
 20
590.7746653310763
 42
0.0966407557667033
 10
919.5355339059327
 20
591.8041753041616
 42
0.1001963797088598
 10
920.6231771986411
 20
593.3612142271035
 42
0.1028641797659475
 10
921.0
 20
595.1734856381496
 42
0.10286417976597
  0
LINE
  5
D4E
330
1E
100
AcDbEntity
  8
PEF-L200AG
100
AcDbLine
 10
875.0
 20
602.7067779646351
 30
0.0
 11
927.0
 21
602.7067779646351
 31
0.0
  0
LWPOLYLINE
  5
D4F
330
1E
100
AcDbEntity
  8
PEF-L200AG
100
AcDbPolyline
 90
        4
 70
     0
 43
0.0
 10
918.5334936490539
 20
596.1572856249379
 10
917.375
 20
598.163855485345
 10
914.625
 20
598.163855485345
 10
913.466506350946
 20
596.1572856249379
  0
LWPOLYLINE
  5
D55
330
1E
100
AcDbEntity
  8
PEF-L200AG
100
AcDbPolyline
 90
        6
 70
     1
 43
0.0
 10
913.25
 20
596.5322856249379
 10
914.625
 20
594.1507157645307
 10
917.375
 20
594.1507157645307
 10
918.75
 20
596.5322856249379
 10
917.375
 20
598.913855485345
 10
914.625
 20
598.913855485345
  0
LINE
  5
D5D
330
1E
100
AcDbEntity
  8
PEF-L200AG
100
AcDbLine
 10
921.0
 20
595.1734856381496
 30
0.0
 11
921.0
 21
596.5322856249379
 31
0.0
  0
LINE
  5
D5E
330
1E
100
AcDbEntity
  8
PEF-L200AG
100
AcDbLine
 10
927.0
 20
586.0872790410487
 30
0.0
 11
927.0
 21
602.7067779646354
 31
0.0
  0
LINE
  5
D5F
330
1E
100
AcDbEntity
  8
PEF-L200AG
100
AcDbLine
 10
875.0
 20
586.0872790410487
 30
0.0
 11
927.0
 21
586.0872790410487
 31
0.0
  0
LINE
  5
D60
330
1E
100
AcDbEntity
  8
PEF-L200AG
100
AcDbLine
 10
875.0
 20
587.2519647440101
 30
0.0
 11
927.0
 21
587.2519647440101
 31
0.0
  0
LINE
  5
D61
330
1E
100
AcDbEntity
  8
PEF-L200AG
  6
CENTER
100
AcDbLine
 10
876.4677143750621
 20
596.5322856249379
 30
0.0
 11
895.5322856249379
 21
596.5322856249379
 31
0.0
  0
LWPOLYLINE
  5
D62
330
1E
100
AcDbEntity
  8
PEF-L200AG
100
AcDbPolyline
 90
        9
 70
     0
 43
0.0
 10
881.0
 20
595.1734856381496
 42
0.102864179765957
 10
881.3768228013588
 20
593.3612142271036
 42
0.1001963797088861
 10
882.4644660940672
 20
591.8041753041616
 42
0.0966407557667146
 10
884.0754410416936
 20
590.7746653310763
 42
0.0942685226328162
 10
886.0
 20
590.4085612679798
 42
0.0942685226328223
 10
887.9245589583064
 20
590.7746653310763
 42
0.0966407557667033
 10
889.5355339059326
 20
591.8041753041616
 42
0.1001963797088598
 10
890.6231771986412
 20
593.3612142271035
 42
0.1028641797659475
 10
891.0
 20
595.1734856381496
 42
0.10286417976597
  0
LWPOLYLINE
  5
D6D
330
1E
100
AcDbEntity
  8
PEF-L200AG
100
AcDbPolyline
 90
       16
 70
     1
 43
0.0
 10
891.0
 20
596.5322856249379
 42
0.10286417976597
 10
890.623177198641
 20
598.3445570359839
 42
0.1001963797088633
 10
889.5355339059326
 20
599.9015959589257
 42
0.0966407557666967
 10
887.9245589583064
 20
600.931105932011
 42
0.0942685226328152
 10
886.0
 20
601.2972099951075
 42
0.0942685226328179
 10
884.0754410416936
 20
600.931105932011
 42
0.0966407557667047
 10
882.4644660940672
 20
599.9015959589257
 42
0.1001963797088719
 10
881.3768228013589
 20
598.3445570359839
 42
0.1028641797659732
 10
881.0
 20
596.5322856249379
 42
0.102864179765957
 10
881.3768228013588
 20
594.7200142138918
 42
0.1001963797088861
 10
882.4644660940672
 20
593.1629752909498
 42
0.0966407557667146
 10
884.0754410416936
 20
592.1334653178646
 42
0.0942685226328162
 10
886.0
 20
591.7673612547682
 42
0.0942685226328223
 10
887.9245589583064
 20
592.1334653178647
 42
0.0966407557667033
 10
889.5355339059326
 20
593.1629752909498
 42
0.1001963797088598
 10
890.6231771986412
 20
594.7200142138918
 42
0.1028641797659475
  0
LWPOLYLINE
  5
D7F
330
1E
100
AcDbEntity
  8
PEF-L200AG
100
AcDbPolyline
 90
       16
 70
     1
 43
0.0
 10
890.75
 20
596.5322856249379
 42
0.1016242789414679
 10
890.3909917112448
 20
598.2803946225247
 42
0.0997343366565384
 10
889.358757210636
 20
599.7765959589258
 42
0.0971729588102136
 10
887.8254233458534
 20
600.7688076310227
 42
0.0954362277442244
 10
886.0
 20
601.1204332998109
 42
0.0954362277442215
 10
884.1745766541464
 20
600.7688076310227
 42
0.097172958810205
 10
882.641242789364
 20
599.7765959589258
 42
0.0997343366565518
 10
881.6090082887551
 20
598.2803946225247
 42
0.1016242789414728
 10
881.25
 20
596.5322856249379
 42
0.1016242789414712
 10
881.6090082887551
 20
594.7841766273508
 42
0.0997343366565474
 10
882.641242789364
 20
593.2879752909498
 42
0.0971729588101965
 10
884.1745766541464
 20
592.2957636188527
 42
0.0954362277442186
 10
886.0
 20
591.9441379500648
 42
0.0954362277442139
 10
887.8254233458536
 20
592.2957636188527
 42
0.0971729588101987
 10
889.358757210636
 20
593.2879752909498
 42
0.099734336656561
 10
890.390991711245
 20
594.784176627351
 42
0.1016242789414651
  0
LWPOLYLINE
  5
D91
330
1E
100
AcDbEntity
  8
PEF-L200AG
100
AcDbPolyline
 90
        4
 70
     0
 43
0.0
 10
888.5334936490536
 20
596.1572856249379
 10
887.3749999999999
 20
598.163855485345
 10
884.6249999999999
 20
598.163855485345
 10
883.466506350946
 20
596.1572856249379
  0
LWPOLYLINE
  5
D97
330
1E
100
AcDbEntity
  8
PEF-L200AG
100
AcDbPolyline
 90
        6
 70
     1
 43
0.0
 10
883.2499999999999
 20
596.5322856249379
 10
884.6249999999999
 20
594.1507157645307
 10
887.3749999999999
 20
594.1507157645307
 10
888.7500000000001
 20
596.5322856249379
 10
887.3749999999999
 20
598.913855485345
 10
884.6249999999999
 20
598.913855485345
  0
LINE
  5
D9F
330
1E
100
AcDbEntity
  8
PEF-L200AG
100
AcDbLine
 10
891.0
 20
595.1734856381496
 30
0.0
 11
891.0
 21
596.5322856249379
 31
0.0
  0
LINE
  5
DA0
330
1E
100
AcDbEntity
  8
PEF-L200AG
100
AcDbLine
 10
875.0
 20
586.0872790410487
 30
0.0
 11
875.0
 21
602.7067779646351
 31
0.0
  0
LINE
  5
DA1
330
1E
100
AcDbEntity
  8
PEF-L200AG
  6
CENTER
100
AcDbLine
 10
886.0
 20
585.25
 30
0.0
 11
886.0
 21
606.0645712498756
 31
0.0
  0
LINE
  5
DA2
330
1E
100
AcDbEntity
  8
PEF-L200AG
  6
CENTER
100
AcDbLine
 10
916.0
 20
585.25
 30
0.0
 11
916.0
 21
606.0645712498756
 31
0.0
  0
LINE
  5
DA3
330
1E
100
AcDbEntity
  8
PEF-L200AG
100
AcDbLine
 10
926.0
 20
614.7499999483999
 30
0.0
 11
926.0
 21
602.7067779646351
 31
0.0
  0
LINE
  5
DA4
330
1E
100
AcDbEntity
  8
PEF-L200AG
100
AcDbLine
 10
876.0
 20
614.7499999483999
 30
0.0
 11
876.0
 21
602.7067779646351
 31
0.0
  0
LINE
  5
DA5
330
1E
100
AcDbEntity
  8
PEF-L200AG
100
AcDbLine
 10
926.0
 20
610.9999999483999
 30
0.0
 11
928.5
 21
610.9999999483999
 31
0.0
  0
LINE
  5
DA6
330
1E
100
AcDbEntity
  8
PEF-L200AG
  6
CENTER
100
AcDbLine
 10
905.467714375062
 20
528.6108106231479
 30
0.0
 11
925.5322856249378
 21
528.6108106231479
 31
0.0
  0
LINE
  5
DA7
330
1E
100
AcDbEntity
  8
PEF-L200AG
100
AcDbLine
 10
875.0
 20
518.580912214205
 30
0.0
 11
927.0
 21
518.580912214205
 31
0.0
  0
LINE
  5
DA8
330
1E
100
AcDbEntity
  8
PEF-L200AG
100
AcDbLine
 10
875.0
 20
517.4162265112435
 30
0.0
 11
927.0
 21
517.4162265112435
 31
0.0
  0
LINE
  5
DA9
330
1E
100
AcDbEntity
  8
PEF-L200AG
100
AcDbLine
 10
875.0
 20
534.7853029628455
 30
0.0
 11
927.0
 21
534.7853029628455
 31
0.0
  0
LWPOLYLINE
  5
DAA
330
1E
100
AcDbEntity
  8
PEF-L200AG
100
AcDbPolyline
 90
        9
 70
     0
 43
0.0
 10
911.0
 20
527.2520106363597
 42
0.102864179765957
 10
911.3768228013588
 20
525.4397392253138
 42
0.1001963797088861
 10
912.4644660940672
 20
523.8827003023718
 42
0.0966407557667146
 10
914.0754410416935
 20
522.8531903292864
 42
0.0942685226328162
 10
916.0
 20
522.4870862661901
 42
0.0942685226328223
 10
917.9245589583064
 20
522.8531903292867
 42
0.0966407557667033
 10
919.5355339059327
 20
523.8827003023718
 42
0.1001963797088598
 10
920.6231771986411
 20
525.4397392253137
 42
0.1028641797659475
 10
921.0
 20
527.2520106363597
 42
0.10286417976597
  0
LWPOLYLINE
  5
DB5
330
1E
100
AcDbEntity
  8
PEF-L200AG
100
AcDbPolyline
 90
       16
 70
     1
 43
0.0
 10
921.0
 20
528.6108106231479
 42
0.10286417976597
 10
920.6231771986411
 20
530.4230820341943
 42
0.1001963797088633
 10
919.5355339059327
 20
531.980120957136
 42
0.0966407557666967
 10
917.9245589583064
 20
533.0096309302212
 42
0.0942685226328152
 10
916.0
 20
533.3757349933176
 42
0.0942685226328179
 10
914.0754410416935
 20
533.0096309302212
 42
0.0966407557667047
 10
912.4644660940672
 20
531.980120957136
 42
0.1001963797088719
 10
911.3768228013588
 20
530.4230820341943
 42
0.1028641797659732
 10
911.0
 20
528.6108106231479
 42
0.102864179765957
 10
911.3768228013588
 20
526.7985392121021
 42
0.1001963797088861
 10
912.4644660940672
 20
525.2415002891599
 42
0.0966407557667146
 10
914.0754410416935
 20
524.2119903160747
 42
0.0942685226328162
 10
916.0
 20
523.8458862529784
 42
0.0942685226328223
 10
917.9245589583064
 20
524.2119903160747
 42
0.0966407557667033
 10
919.5355339059327
 20
525.2415002891599
 42
0.1001963797088598
 10
920.6231771986411
 20
526.798539212102
 42
0.1028641797659475
  0
LWPOLYLINE
  5
DC7
330
1E
100
AcDbEntity
  8
PEF-L200AG
100
AcDbPolyline
 90
       16
 70
     1
 43
0.0
 10
920.7499999999999
 20
528.6108106231479
 42
0.1016242789414679
 10
920.3909917112449
 20
530.358919620735
 42
0.0997343366565384
 10
919.3587572106359
 20
531.855120957136
 42
0.0971729588102136
 10
917.8254233458535
 20
532.847332629233
 42
0.0954362277442244
 10
916.0
 20
533.1989582980211
 42
0.0954362277442215
 10
914.1745766541465
 20
532.847332629233
 42
0.097172958810205
 10
912.6412427893637
 20
531.855120957136
 42
0.0997343366565518
 10
911.609008288755
 20
530.358919620735
 42
0.1016242789414728
 10
911.25
 20
528.6108106231479
 42
0.1016242789414712
 10
911.609008288755
 20
526.862701625561
 42
0.0997343366565474
 10
912.6412427893637
 20
525.3665002891599
 42
0.0971729588101965
 10
914.1745766541465
 20
524.374288617063
 42
0.0954362277442186
 10
916.0
 20
524.0226629482751
 42
0.0954362277442139
 10
917.8254233458535
 20
524.374288617063
 42
0.0971729588101987
 10
919.3587572106359
 20
525.3665002891599
 42
0.099734336656561
 10
920.3909917112449
 20
526.8627016255611
 42
0.1016242789414651
  0
LINE
  5
DD9
330
1E
100
AcDbEntity
  8
PEF-L200AG
  6
CENTER
100
AcDbLine
 10
876.4677143750621
 20
528.6108106231479
 30
0.0
 11
895.5322856249379
 21
528.6108106231479
 31
0.0
  0
LINE
  5
DDA
330
1E
100
AcDbEntity
  8
PEF-L200AG
  6
CENTER
100
AcDbLine
 10
886.0
 20
516.5789474701949
 30
0.0
 11
886.0
 21
538.1430962480858
 31
0.0
  0
LINE
  5
DDB
330
1E
100
AcDbEntity
  8
PEF-L200AG
100
AcDbLine
 10
875.0
 20
517.4162265112435
 30
0.0
 11
875.0
 21
534.7853029628455
 31
0.0
  0
LWPOLYLINE
  5
DDC
330
1E
100
AcDbEntity
  8
PEF-L200AG
100
AcDbPolyline
 90
        6
 70
     1
 43
0.0
 10
883.2499999999999
 20
528.6108106231479
 10
884.6249999999999
 20
526.2292407627406
 10
887.3749999999999
 20
526.2292407627406
 10
888.7500000000001
 20
528.6108106231479
 10
887.3749999999999
 20
530.9923804835553
 10
884.6249999999999
 20
530.9923804835553
  0
LWPOLYLINE
  5
DE4
330
1E
100
AcDbEntity
  8
PEF-L200AG
100
AcDbPolyline
 90
       16
 70
     1
 43
0.0
 10
890.75
 20
528.6108106231479
 42
0.1016242789414679
 10
890.3909917112448
 20
530.358919620735
 42
0.0997343366565384
 10
889.358757210636
 20
531.855120957136
 42
0.0971729588102136
 10
887.8254233458534
 20
532.847332629233
 42
0.0954362277442244
 10
886.0
 20
533.1989582980211
 42
0.0954362277442215
 10
884.1745766541464
 20
532.847332629233
 42
0.097172958810205
 10
882.641242789364
 20
531.855120957136
 42
0.0997343366565518
 10
881.6090082887551
 20
530.358919620735
 42
0.1016242789414728
 10
881.25
 20
528.6108106231479
 42
0.1016242789414712
 10
881.6090082887551
 20
526.862701625561
 42
0.0997343366565474
 10
882.641242789364
 20
525.3665002891599
 42
0.0971729588101965
 10
884.1745766541464
 20
524.374288617063
 42
0.0954362277442186
 10
886.0
 20
524.0226629482751
 42
0.0954362277442139
 10
887.8254233458536
 20
524.374288617063
 42
0.0971729588101987
 10
889.358757210636
 20
525.3665002891599
 42
0.099734336656561
 10
890.390991711245
 20
526.8627016255611
 42
0.1016242789414651
  0
LWPOLYLINE
  5
DF6
330
1E
100
AcDbEntity
  8
PEF-L200AG
100
AcDbPolyline
 90
       16
 70
     1
 43
0.0
 10
891.0
 20
528.6108106231479
 42
0.10286417976597
 10
890.623177198641
 20
530.4230820341943
 42
0.1001963797088633
 10
889.5355339059326
 20
531.980120957136
 42
0.0966407557666967
 10
887.9245589583064
 20
533.0096309302212
 42
0.0942685226328152
 10
886.0
 20
533.3757349933176
 42
0.0942685226328179
 10
884.0754410416936
 20
533.0096309302212
 42
0.0966407557667047
 10
882.4644660940672
 20
531.980120957136
 42
0.1001963797088719
 10
881.3768228013589
 20
530.4230820341943
 42
0.1028641797659732
 10
881.0
 20
528.6108106231479
 42
0.102864179765957
 10
881.3768228013588
 20
526.7985392121021
 42
0.1001963797088861
 10
882.4644660940672
 20
525.2415002891599
 42
0.0966407557667146
 10
884.0754410416936
 20
524.2119903160747
 42
0.0942685226328162
 10
886.0
 20
523.8458862529784
 42
0.0942685226328223
 10
887.9245589583064
 20
524.2119903160747
 42
0.0966407557667033
 10
889.5355339059326
 20
525.2415002891599
 42
0.1001963797088598
 10
890.6231771986412
 20
526.798539212102
 42
0.1028641797659475
  0
LWPOLYLINE
  5
E08
330
1E
100
AcDbEntity
  8
PEF-L200AG
100
AcDbPolyline
 90
        9
 70
     0
 43
0.0
 10
881.0
 20
527.2520106363597
 42
0.102864179765957
 10
881.3768228013588
 20
525.4397392253138
 42
0.1001963797088861
 10
882.4644660940672
 20
523.8827003023718
 42
0.0966407557667146
 10
884.0754410416936
 20
522.8531903292864
 42
0.0942685226328162
 10
886.0
 20
522.4870862661901
 42
0.0942685226328223
 10
887.9245589583064
 20
522.8531903292867
 42
0.0966407557667033
 10
889.5355339059326
 20
523.8827003023718
 42
0.1001963797088598
 10
890.6231771986412
 20
525.4397392253137
 42
0.1028641797659475
 10
891.0
 20
527.2520106363597
 42
0.10286417976597
  0
LWPOLYLINE
  5
E13
330
1E
100
AcDbEntity
  8
PEF-L200AG
100
AcDbPolyline
 90
        4
 70
     0
 43
0.0
 10
888.5334936490536
 20
528.2358106231479
 10
887.3749999999999
 20
530.2423804835552
 10
884.6249999999999
 20
530.2423804835552
 10
883.466506350946
 20
528.2358106231479
  0
LINE
  5
E19
330
1E
100
AcDbEntity
  8
PEF-L200AG
100
AcDbLine
 10
891.0
 20
527.2520106363597
 30
0.0
 11
891.0
 21
528.6108106231479
 31
0.0
  0
LINE
  5
E1A
330
1E
100
AcDbEntity
  8
PEF-L200AG
  6
CENTER
100
AcDbLine
 10
916.0
 20
516.5789474701949
 30
0.0
 11
916.0
 21
538.1430962480858
 31
0.0
  0
LWPOLYLINE
  5
E1B
330
1E
100
AcDbEntity
  8
PEF-L200AG
100
AcDbPolyline
 90
        6
 70
     1
 43
0.0
 10
913.25
 20
528.6108106231479
 10
914.625
 20
526.2292407627406
 10
917.375
 20
526.2292407627406
 10
918.75
 20
528.6108106231479
 10
917.375
 20
530.9923804835553
 10
914.625
 20
530.9923804835553
  0
LWPOLYLINE
  5
E23
330
1E
100
AcDbEntity
  8
PEF-L200AG
100
AcDbPolyline
 90
        4
 70
     0
 43
0.0
 10
918.5334936490539
 20
528.2358106231479
 10
917.375
 20
530.2423804835552
 10
914.625
 20
530.2423804835552
 10
913.466506350946
 20
528.2358106231479
  0
LINE
  5
E29
330
1E
100
AcDbEntity
  8
PEF-L200AG
100
AcDbLine
 10
927.0
 20
517.4162265112435
 30
0.0
 11
927.0
 21
534.7853029628455
 31
0.0
  0
LINE
  5
E2A
330
1E
100
AcDbEntity
  8
PEF-L200AG
100
AcDbLine
 10
921.0
 20
527.2520106363597
 30
0.0
 11
921.0
 21
528.6108106231479
 31
0.0
  0
LINE
  5
E2B
330
1E
100
AcDbEntity
  8
PEF-L200AG
100
AcDbLine
 10
927.0
 20
531.5
 30
0.0
 11
946.0
 21
531.5
 31
0.0
  0
LINE
  5
E2C
330
1E
100
AcDbEntity
  8
PEF-L200AG
  6
PHANTOM
100
AcDbLine
 10
701.7499999384998
 20
515.49999995755
 30
0.0
 11
509.4232698182895
 21
515.49999995755
 31
0.0
  0
LINE
  5
E2D
330
1E
100
AcDbEntity
  8
PEF-L200AG
  6
PHANTOM
100
AcDbLine
 10
679.6933535474781
 20
631.4999999575499
 30
0.0
 11
491.7499999384999
 21
631.4999999575499
 31
0.0
  0
ARC
  5
E2E
330
1E
100
AcDbEntity
  8
PEF-L200AG
  6
PHANTOM
100
AcDbCircle
 10
679.6933535474781
 20
621.49999995755
 30
0.0
 40
9.999999999999998
100
AcDbArc
 50
15.0
 51
90.0
  0
ARC
  5
E2F
330
1E
100
AcDbEntity
  8
PEF-L200AG
  6
PHANTOM
100
AcDbCircle
 10
701.7499999384998
 20
525.49999995755
 30
0.0
 40
9.999999999999998
100
AcDbArc
 50
270.0
 51
0.0
  0
CIRCLE
  5
E30
330
1E
100
AcDbEntity
  8
PEF-L200AG
100
AcDbCircle
 10
666.7499999384999
 20
525.49999995755
 30
0.0
 40
3.499999999999998
  0
LINE
  5
E31
330
1E
100
AcDbEntity
  8
PEF-L200AG
  6
PHANTOM
100
AcDbLine
 10
711.7499999385
 20
540.49999995755
 30
0.0
 11
710.6391852382674
 21
540.2023580556821
 31
0.0
  0
ARC
  5
E32
330
1E
100
AcDbEntity
  8
PEF-L200AG
  6
PHANTOM
100
AcDbCircle
 10
710.9368271401351
 20
539.0915433554495
 30
0.0
 40
1.149999999999999
100
AcDbArc
 50
104.9999999999996
 51
284.9999999999998
  0
LINE
  5
E33
330
1E
100
AcDbEntity
  8
PEF-L200AG
  6
PHANTOM
100
AcDbLine
 10
711.7499999385
 20
540.49999995755
 30
0.0
 11
700.1031429088864
 21
583.9666621405581
 31
0.0
  0
LINE
  5
E34
330
1E
100
AcDbEntity
  8
PEF-L200AG
  6
PHANTOM
100
AcDbLine
 10
709.5283705380348
 20
539.9047161538142
 30
0.0
 11
697.8815135084216
 21
583.3713783368223
 31
0.0
  0
LINE
  5
E35
330
1E
100
AcDbEntity
  8
PEF-L200AG
  6
PHANTOM
100
AcDbLine
 10
710.6391852382674
 20
540.2023580556821
 30
0.0
 11
709.5283705380348
 21
539.9047161538142
 31
0.0
  0
LINE
  5
E36
330
1E
100
AcDbEntity
  8
PEF-L200AG
  6
PHANTOM
100
AcDbLine
 10
699.5078591051504
 20
586.1882915410227
 30
0.0
 11
689.3526118103688
 21
624.0881904085751
 31
0.0
  0
ARC
  5
E37
330
1E
100
AcDbEntity
  8
PEF-L200AG
  6
PHANTOM
100
AcDbCircle
 10
698.6946863067861
 20
584.7798349389226
 30
0.0
 40
1.149999999999999
100
AcDbArc
 50
104.9999999999998
 51
285.0000000000006
  0
LINE
  5
E38
330
1E
100
AcDbEntity
  8
PEF-L200AG
  6
PHANTOM
100
AcDbLine
 10
698.992328208654
 20
583.66902023869
 30
0.0
 11
697.8815135084216
 21
583.3713783368223
 31
0.0
  0
LINE
  5
E39
330
1E
100
AcDbEntity
  8
PEF-L200AG
  6
PHANTOM
100
AcDbLine
 10
700.1031429088864
 20
583.9666621405581
 30
0.0
 11
698.992328208654
 21
583.66902023869
 31
0.0
  0
LINE
  5
E3A
330
1E
100
AcDbEntity
  8
PEF-L200AG
  6
PHANTOM
100
AcDbLine
 10
698.3970444049182
 20
585.8906496391551
 30
0.0
 11
698.3960983988087
 21
585.890396157582
 31
0.0
  0
LINE
  5
E3B
330
1E
100
AcDbEntity
  8
PEF-L200AG
  6
PHANTOM
100
AcDbLine
 10
699.5078591051504
 20
586.1882915410227
 30
0.0
 11
698.3970444049182
 21
585.8906496391551
 31
0.0
  0
LINE
  5
E3C
330
1E
100
AcDbEntity
  8
PEF-L200AG
100
AcDbLine
 10
652.2499999384998
 20
515.49999995755
 30
0.0
 11
652.2499999384998
 21
515.49999995755
 31
0.0
  0
LINE
  5
E3D
330
1E
100
AcDbEntity
  8
PEF-L200AG
  6
CENTER
100
AcDbLine
 10
603.2499999809498
 20
545.499999936325
 30
0.0
 11
580.24999989605
 21
545.499999936325
 31
0.0
  0
CIRCLE
  5
E3E
330
1E
100
AcDbEntity
  8
PEF-L200AG
  6
PHANTOM
100
AcDbCircle
 10
591.7499999384999
 20
545.49999995755
 30
0.0
 40
4.999999999999999
  0
LINE
  5
E3F
330
1E
100
AcDbEntity
  8
PEF-L200AG
  6
CENTER
100
AcDbLine
 10
591.7499999077498
 20
533.9999999151
 30
0.0
 11
591.7499999077498
 21
557.0
 31
0.0
  0
ARC
  5
E40
330
1E
100
AcDbEntity
  8
PEF-L200AG
  6
PHANTOM
100
AcDbCircle
 10
491.7499999384999
 20
621.49999995755
 30
0.0
 40
9.999999999999998
100
AcDbArc
 50
90.0
 51
180.0
  0
LINE
  5
E41
330
1E
100
AcDbEntity
  8
PEF-L200AG
  6
PHANTOM
100
AcDbLine
 10
499.7640115553988
 20
522.9118095065248
 30
0.0
 11
495.8748076146727
 21
537.4265162143118
 31
0.0
  0
CIRCLE
  5
E42
330
1E
100
AcDbEntity
  8
PEF-L200AG
100
AcDbCircle
 10
506.7499999384999
 20
525.49999995755
 30
0.0
 40
3.499999999999998
  0
ARC
  5
E43
330
1E
100
AcDbEntity
  8
PEF-L200AG
  6
PHANTOM
100
AcDbCircle
 10
509.4232698182895
 20
525.49999995755
 30
0.0
 40
9.999999999999998
100
AcDbArc
 50
194.9999999999999
 51
270.0
  0
LINE
  5
E44
330
1E
100
AcDbEntity
  8
PEF-L200AG
  6
PHANTOM
100
AcDbLine
 10
497.5011532114018
 20
540.2434294185125
 30
0.0
 11
485.8542961817883
 21
583.7100916015206
 31
0.0
  0
LINE
  5
E45
330
1E
100
AcDbEntity
  8
PEF-L200AG
  6
PHANTOM
100
AcDbLine
 10
495.2795238109368
 20
539.6481456147767
 30
0.0
 11
483.6326667813234
 21
583.1148077977847
 31
0.0
  0
LINE
  5
E46
330
1E
100
AcDbEntity
  8
PEF-L200AG
  6
PHANTOM
100
AcDbLine
 10
497.5011532114018
 20
540.2434294185125
 30
0.0
 11
496.3903385111693
 21
539.9457875166445
 31
0.0
  0
LINE
  5
E47
330
1E
100
AcDbEntity
  8
PEF-L200AG
  6
PHANTOM
100
AcDbLine
 10
496.9856223149052
 20
537.7241581161796
 30
0.0
 11
495.8748076146727
 21
537.4265162143118
 31
0.0
  0
LINE
  5
E48
330
1E
100
AcDbEntity
  8
PEF-L200AG
  6
PHANTOM
100
AcDbLine
 10
496.3903385111693
 20
539.9457875166445
 30
0.0
 11
495.2795238109368
 21
539.6481456147767
 31
0.0
  0
ARC
  5
E49
330
1E
100
AcDbEntity
  8
PEF-L200AG
  6
PHANTOM
100
AcDbCircle
 10
496.6879804130373
 20
538.8349728164121
 30
0.0
 40
1.149999999999999
100
AcDbArc
 50
285.0000000000005
 51
104.9999999999998
  0
LINE
  5
E4A
330
1E
100
AcDbEntity
  8
PEF-L200AG
  6
PHANTOM
100
AcDbLine
 10
481.7499999384999
 20
590.1410161089277
 30
0.0
 11
481.7499999384999
 21
621.49999995755
 31
0.0
  0
LINE
  5
E4B
330
1E
100
AcDbEntity
  8
PEF-L200AG
  6
PHANTOM
100
AcDbLine
 10
485.8542961817883
 20
583.7100916015206
 30
0.0
 11
483.6326667813234
 21
583.1148077977847
 31
0.0
  0
LINE
  5
E4C
330
1E
100
AcDbEntity
  8
PEF-L200AG
  6
PHANTOM
100
AcDbLine
 10
484.1481976778201
 20
585.6340791001174
 30
0.0
 11
483.0373829775878
 21
585.3364371982495
 31
0.0
  0
ARC
  5
E4D
330
1E
100
AcDbEntity
  8
PEF-L200AG
  6
PHANTOM
100
AcDbCircle
 10
484.445839579688
 20
584.523264399885
 30
0.0
 40
1.149999999999999
100
AcDbArc
 50
285.0000000000002
 51
104.9999999999998
  0
LINE
  5
E4E
330
1E
100
AcDbEntity
  8
PEF-L200AG
  6
PHANTOM
100
AcDbLine
 10
483.0373829775878
 20
585.3364371982495
 30
0.0
 11
481.7499999384999
 21
590.1410161089276
 31
0.0
  0
LINE
  5
E4F
330
1E
100
AcDbEntity
  8
PEF-L200AG
  6
PHANTOM
100
AcDbLine
 10
711.7499999385
 20
525.49999995755
 30
0.0
 11
711.7499999385
 21
538.1188647426068
 31
0.0
  0
LINE
  5
E50
330
1E
100
AcDbEntity
  8
PEF-L200AG
  6
PHANTOM
100
AcDbLine
 10
711.7499999385
 20
538.1188647426068
 30
0.0
 11
711.2344690420031
 21
537.9807286552172
 31
0.0
  0
LINE
  5
E51
330
1E
100
AcDbEntity
  8
PEF-L200AG
  6
CENTER
100
AcDbLine
 10
866.0
 20
474.2499999999998
 30
0.0
 11
866.0
 21
508.25
 31
0.0
  0
LINE
  5
E52
330
1E
100
AcDbEntity
  8
PEF-L200AG
  6
CENTER
100
AcDbLine
 10
936.0
 20
476.0
 30
0.0
 11
936.0
 21
510.25
 31
0.0
  0
LINE
  5
E53
330
1E
100
AcDbEntity
  8
PEF-L200AG
  6
DASHED
100
AcDbLine
 10
881.1671556882
 20
504.7939895189501
 30
0.0
 11
883.0
 21
513.4999999999998
 31
0.0
  0
LINE
  5
E54
330
1E
100
AcDbEntity
  8
PEF-L200AG
  6
DASHED
100
AcDbLine
 10
880.1886059032131
 20
504.0
 30
0.0
 11
856.0
 21
504.0
 31
0.0
  0
ARC
  5
E55
330
1E
100
AcDbEntity
  8
PEF-L200AG
  6
DASHED
100
AcDbCircle
 10
880.1886059032131
 20
505.0
 30
0.0
 40
1.0
100
AcDbArc
 50
270.0
 51
348.1113419603717
  0
LINE
  5
E56
330
1E
100
AcDbEntity
  8
PEF-L200AG
  6
DASHED
100
AcDbLine
 10
921.8113940967866
 20
504.0
 30
0.0
 11
946.0
 21
504.0
 31
0.0
  0
ARC
  5
E57
330
1E
100
AcDbEntity
  8
PEF-L200AG
  6
DASHED
100
AcDbCircle
 10
921.8113940967866
 20
505.0
 30
0.0
 40
1.0
100
AcDbArc
 50
191.8886580396281
 51
270.0
  0
LINE
  5
E58
330
1E
100
AcDbEntity
  8
PEF-L200AG
  6
DASHED
100
AcDbLine
 10
920.8328443117999
 20
504.7939895189501
 30
0.0
 11
919.0
 21
513.4999999999998
 31
0.0
  0
LINE
  5
E59
330
1E
100
AcDbEntity
  8
PEF-L200AG
100
AcDbLine
 10
876.0000000299998
 20
482.2499999999998
 30
0.0
 11
811.0000000300001
 21
482.2499999999998
 31
0.0
  0
LINE
  5
E5A
330
1E
100
AcDbEntity
  8
PEF-L200AG
100
AcDbLine
 10
876.0000000299998
 20
493.0
 30
0.0
 11
856.00000003
 21
493.0
 31
0.0
  0
LINE
  5
E5B
330
1E
100
AcDbEntity
  8
PEF-L200AG
100
AcDbLine
 10
876.0000000299998
 20
480.0
 30
0.0
 11
851.50000003
 21
480.0
 31
0.0
  0
LINE
  5
E5C
330
1E
100
AcDbEntity
  8
PEF-L200AG
100
AcDbLine
 10
876.0000000299998
 20
482.2499999999998
 30
0.0
 11
876.0000000299998
 21
480.0
 31
0.0
  0
LINE
  5
E5D
330
1E
100
AcDbEntity
  8
PEF-L200AG
100
AcDbLine
 10
875.00000003
 20
492.0
 30
0.0
 11
875.00000003
 21
483.25
 31
0.0
  0
ARC
  5
E5E
330
1E
100
AcDbEntity
  8
PEF-L200AG
100
AcDbCircle
 10
876.0000000299998
 20
483.25
 30
0.0
 40
1.0
100
AcDbArc
 50
180.0
 51
270.0
  0
ARC
  5
E5F
330
1E
100
AcDbEntity
  8
PEF-L200AG
100
AcDbCircle
 10
876.0000000299998
 20
492.0
 30
0.0
 40
1.0
100
AcDbArc
 50
90.0
 51
180.0
  0
LINE
  5
E60
330
1E
100
AcDbEntity
  8
PEF-L200AG
100
AcDbLine
 10
876.0000000299998
 20
495.0
 30
0.0
 11
876.0000000299998
 21
493.0
 31
0.0
  0
LINE
  5
E61
330
1E
100
AcDbEntity
  8
PEF-L200AG
100
AcDbLine
 10
866.00000003
 20
480.0
 30
0.0
 11
811.0000000300001
 21
480.0
 31
0.0
  0
ARC
  5
E62
330
1E
100
AcDbEntity
  8
PEF-L200AG
100
AcDbCircle
 10
856.00000003
 20
483.25
 30
0.0
 40
1.0
100
AcDbArc
 50
270.0
 51
0.0
  0
LINE
  5
E63
330
1E
100
AcDbEntity
  8
PEF-L200AG
100
AcDbLine
 10
857.00000003
 20
492.0
 30
0.0
 11
857.00000003
 21
483.25
 31
0.0
  0
ARC
  5
E64
330
1E
100
AcDbEntity
  8
PEF-L200AG
100
AcDbCircle
 10
856.00000003
 20
492.0
 30
0.0
 40
1.0
100
AcDbArc
 50
0.0
 51
90.0
  0
LINE
  5
E65
330
1E
100
AcDbEntity
  8
PEF-L200AG
100
AcDbLine
 10
856.00000003
 20
495.0
 30
0.0
 11
856.00000003
 21
493.0
 31
0.0
  0
LINE
  5
E66
330
1E
100
AcDbEntity
  8
PEF-L200AG
100
AcDbLine
 10
811.0000000300001
 20
480.0
 30
0.0
 11
811.0000000300001
 21
482.2499999999998
 31
0.0
  0
LINE
  5
E67
330
1E
100
AcDbEntity
  8
PEF-L200AG
  6
CENTER
100
AcDbLine
 10
831.00000003
 20
474.2499999999998
 30
0.0
 11
831.00000003
 21
487.75
 31
0.0
  0
LINE
  5
E68
330
1E
100
AcDbEntity
  8
PEF-L200AG
100
AcDbLine
 10
817.50000003
 20
480.0
 30
0.0
 11
817.50000003
 21
482.2499999999998
 31
0.0
  0
LINE
  5
E69
330
1E
100
AcDbEntity
  8
PEF-L200AG
100
AcDbLine
 10
844.50000003
 20
480.0
 30
0.0
 11
844.50000003
 21
482.2499999999998
 31
0.0
  0
LINE
  5
E6A
330
1E
100
AcDbEntity
  8
PEF-L200AG
100
AcDbLine
 10
925.9999999699999
 20
480.0
 30
0.0
 11
950.49999997
 21
480.0
 31
0.0
  0
LINE
  5
E6B
330
1E
100
AcDbEntity
  8
PEF-L200AG
100
AcDbLine
 10
925.9999999699999
 20
493.0
 30
0.0
 11
945.99999997
 21
493.0
 31
0.0
  0
LINE
  5
E6C
330
1E
100
AcDbEntity
  8
PEF-L200AG
100
AcDbLine
 10
925.9999999699999
 20
482.2499999999998
 30
0.0
 11
990.99999997
 21
482.2499999999998
 31
0.0
  0
LINE
  5
E6D
330
1E
100
AcDbEntity
  8
PEF-L200AG
100
AcDbLine
 10
925.9999999699999
 20
482.2499999999998
 30
0.0
 11
925.9999999699999
 21
480.0
 31
0.0
  0
LINE
  5
E6E
330
1E
100
AcDbEntity
  8
PEF-L200AG
100
AcDbLine
 10
926.9999999699999
 20
492.0
 30
0.0
 11
926.9999999699999
 21
483.25
 31
0.0
  0
ARC
  5
E6F
330
1E
100
AcDbEntity
  8
PEF-L200AG
100
AcDbCircle
 10
925.9999999699999
 20
483.25
 30
0.0
 40
1.0
100
AcDbArc
 50
270.0
 51
0.0
  0
LINE
  5
E70
330
1E
100
AcDbEntity
  8
PEF-L200AG
100
AcDbLine
 10
925.9999999699999
 20
495.0
 30
0.0
 11
925.9999999699999
 21
493.0
 31
0.0
  0
ARC
  5
E71
330
1E
100
AcDbEntity
  8
PEF-L200AG
100
AcDbCircle
 10
925.9999999699999
 20
492.0
 30
0.0
 40
1.0
100
AcDbArc
 50
0.0
 51
90.0
  0
LINE
  5
E72
330
1E
100
AcDbEntity
  8
PEF-L200AG
100
AcDbLine
 10
935.9999999699999
 20
480.0
 30
0.0
 11
990.99999997
 21
480.0
 31
0.0
  0
LINE
  5
E73
330
1E
100
AcDbEntity
  8
PEF-L200AG
100
AcDbLine
 10
944.9999999699999
 20
492.0
 30
0.0
 11
944.9999999699999
 21
483.25
 31
0.0
  0
ARC
  5
E74
330
1E
100
AcDbEntity
  8
PEF-L200AG
100
AcDbCircle
 10
945.99999997
 20
483.25
 30
0.0
 40
1.0
100
AcDbArc
 50
180.0
 51
270.0
  0
LINE
  5
E75
330
1E
100
AcDbEntity
  8
PEF-L200AG
100
AcDbLine
 10
945.99999997
 20
495.0
 30
0.0
 11
945.99999997
 21
493.0
 31
0.0
  0
ARC
  5
E76
330
1E
100
AcDbEntity
  8
PEF-L200AG
100
AcDbCircle
 10
945.99999997
 20
492.0
 30
0.0
 40
1.0
100
AcDbArc
 50
90.0
 51
180.0
  0
LINE
  5
E77
330
1E
100
AcDbEntity
  8
PEF-L200AG
100
AcDbLine
 10
990.99999997
 20
480.0
 30
0.0
 11
990.99999997
 21
482.2499999999998
 31
0.0
  0
LINE
  5
E78
330
1E
100
AcDbEntity
  8
PEF-L200AG
100
AcDbLine
 10
984.49999997
 20
480.0
 30
0.0
 11
984.49999997
 21
482.2499999999998
 31
0.0
  0
LINE
  5
E79
330
1E
100
AcDbEntity
  8
PEF-L200AG
  6
CENTER
100
AcDbLine
 10
970.99999997
 20
474.2499999999998
 30
0.0
 11
970.99999997
 21
487.75
 31
0.0
  0
LINE
  5
E7A
330
1E
100
AcDbEntity
  8
PEF-L200AG
100
AcDbLine
 10
957.4999999699999
 20
480.0
 30
0.0
 11
957.4999999699999
 21
482.2499999999998
 31
0.0
  0
LINE
  5
E7B
330
1E
100
AcDbEntity
  8
PEF-L200AG
100
AcDbLine
 10
933.2499999999999
 20
631.4999999575499
 30
0.0
 11
933.2499999999999
 21
515.5
 31
0.0
  0
LINE
  5
E7C
330
1E
100
AcDbEntity
  8
PEF-L200AG
100
AcDbLine
 10
931.0
 20
631.4999999575499
 30
0.0
 11
931.0
 21
583.9666621405581
 31
0.0
  0
LINE
  5
E7D
330
1E
100
AcDbEntity
  8
PEF-L200AG
100
AcDbLine
 10
933.2499999999999
 20
619.5
 30
0.0
 11
940.0784006394886
 21
619.5
 31
0.0
  0
LINE
  5
E7E
330
1E
100
AcDbEntity
  8
PEF-L200AG
100
AcDbLine
 10
931.0
 20
631.4999999575499
 30
0.0
 11
933.2499999999999
 21
631.4999999575499
 31
0.0
  0
LINE
  5
E7F
330
1E
100
AcDbEntity
  8
PEF-L200AG
100
AcDbLine
 10
871.0
 20
631.4999999575499
 30
0.0
 11
871.0
 21
583.9666621405581
 31
0.0
  0
LINE
  5
E80
330
1E
100
AcDbEntity
  8
PEF-L200AG
100
AcDbLine
 10
868.75
 20
631.4999999575499
 30
0.0
 11
868.75
 21
515.5
 31
0.0
  0
LINE
  5
E81
330
1E
100
AcDbEntity
  8
PEF-L200AG
100
AcDbLine
 10
871.0
 20
631.4999999575499
 30
0.0
 11
868.75
 21
631.4999999575499
 31
0.0
  0
LINE
  5
E82
330
1E
100
AcDbEntity
  8
PEF-L200AG
100
AcDbLine
 10
871.0
 20
619.5
 30
0.0
 11
873.4999999999999
 21
619.5
 31
0.0
  0
LINE
  5
E83
330
1E
100
AcDbEntity
  8
PEF-L200AG
100
AcDbLine
 10
871.0
 20
583.9666621405581
 30
0.0
 11
899.5
 21
583.9666621405581
 31
0.0
  0
LINE
  5
E84
330
1E
100
AcDbEntity
  8
PEF-L200AG
100
AcDbLine
 10
871.0
 20
540.49999995755
 30
0.0
 11
899.5
 21
540.49999995755
 31
0.0
  0
LINE
  5
E85
330
1E
100
AcDbEntity
  8
PEF-L200AG
100
AcDbLine
 10
931.0
 20
540.49999995755
 30
0.0
 11
931.0
 21
515.5
 31
0.0
  0
LINE
  5
E86
330
1E
100
AcDbEntity
  8
PEF-L200AG
100
AcDbLine
 10
871.0
 20
540.49999995755
 30
0.0
 11
871.0
 21
515.5
 31
0.0
  0
LINE
  5
E87
330
1E
100
AcDbEntity
  8
PEF-L200AG
  6
DASHED
100
AcDbLine
 10
931.0
 20
540.49999995755
 30
0.0
 11
931.0
 21
583.9666621405581
 31
0.0
  0
LINE
  5
E88
330
1E
100
AcDbEntity
  8
PEF-L200AG
  6
DASHED
100
AcDbLine
 10
871.0
 20
583.9666621405581
 30
0.0
 11
871.0
 21
540.49999995755
 31
0.0
  0
LINE
  5
E89
330
1E
100
AcDbEntity
  8
PEF-L200AG
100
AcDbLine
 10
902.5
 20
540.49999995755
 30
0.0
 11
902.5
 21
583.9666621405581
 31
0.0
  0
LINE
  5
E8A
330
1E
100
AcDbEntity
  8
PEF-L200AG
100
AcDbLine
 10
899.5
 20
540.49999995755
 30
0.0
 11
899.5
 21
583.9666621405581
 31
0.0
  0
LINE
  5
E8B
330
1E
100
AcDbEntity
  8
PEF-L200AG
100
AcDbLine
 10
902.5
 20
540.49999995755
 30
0.0
 11
931.0
 21
540.49999995755
 31
0.0
  0
LINE
  5
E8C
330
1E
100
AcDbEntity
  8
PEF-L200AG
100
AcDbLine
 10
902.5
 20
583.9666621405581
 30
0.0
 11
931.0
 21
583.9666621405581
 31
0.0
  0
CIRCLE
  5
E8D
330
1E
100
AcDbEntity
  8
PEF-L200AG
  6
PHANTOM
100
AcDbCircle
 10
591.7499999384999
 20
545.49999995755
 30
0.0
 40
6.499999957550016
  0
LINE
  5
E8E
330
1E
100
AcDbEntity
  8
PEF-L200AG
100
AcDbLine
 10
868.75
 20
530.4999999999998
 30
0.0
 11
862.25
 21
530.4999999999998
 31
0.0
  0
LINE
  5
E8F
330
1E
100
AcDbEntity
  8
PEF-L200AG
100
AcDbLine
 10
861.7499999999999
 20
530.0
 30
0.0
 11
861.7499999999999
 21
525.4999999999999
 31
0.0
  0
LINE
  5
E90
330
1E
100
AcDbEntity
  8
PEF-L200AG
100
AcDbLine
 10
868.75
 20
520.5
 30
0.0
 11
862.25
 21
520.5
 31
0.0
  0
LINE
  5
E91
330
1E
100
AcDbEntity
  8
PEF-L200AG
100
AcDbLine
 10
861.7499999999999
 20
521.0
 30
0.0
 11
861.7499999999999
 21
525.4999999999999
 31
0.0
  0
LINE
  5
E92
330
1E
100
AcDbEntity
  8
PEF-L200AG
100
AcDbLine
 10
867.75
 20
530.4999999999998
 30
0.0
 11
867.75
 21
520.5
 31
0.0
  0
LINE
  5
E93
330
1E
100
AcDbEntity
  8
PEF-L200AG
100
AcDbLine
 10
868.75
 20
528.0
 30
0.0
 11
867.75
 21
529.0
 31
0.0
  0
LINE
  5
E94
330
1E
100
AcDbEntity
  8
PEF-L200AG
100
AcDbLine
 10
868.75
 20
527.0
 30
0.0
 11
867.75
 21
528.0
 31
0.0
  0
LINE
  5
E95
330
1E
100
AcDbEntity
  8
PEF-L200AG
100
AcDbLine
 10
868.75
 20
521.75
 30
0.0
 11
867.75
 21
522.75
 31
0.0
  0
LINE
  5
E96
330
1E
100
AcDbEntity
  8
PEF-L200AG
100
AcDbLine
 10
868.75
 20
522.75
 30
0.0
 11
867.75
 21
523.7499999999998
 31
0.0
  0
LINE
  5
E97
330
1E
100
AcDbEntity
  8
PEF-L200AG
100
AcDbLine
 10
861.7499999999999
 20
521.0
 30
0.0
 11
862.25
 21
520.5
 31
0.0
  0
LINE
  5
E98
330
1E
100
AcDbEntity
  8
PEF-L200AG
100
AcDbLine
 10
861.7499999999999
 20
530.0
 30
0.0
 11
862.25
 21
530.4999999999998
 31
0.0
  0
LINE
  5
E99
330
1E
100
AcDbEntity
  8
PEF-L200AG
100
AcDbLine
 10
862.25
 20
530.4999999999998
 30
0.0
 11
862.25
 21
520.5
 31
0.0
  0
LINE
  5
E9A
330
1E
100
AcDbEntity
  8
PEF-L200AG
100
AcDbLine
 10
867.2499999999999
 20
550.4999999999999
 30
0.0
 11
867.2499999999999
 21
540.5
 31
0.0
  0
ARC
  5
E9B
330
1E
100
AcDbEntity
  8
PEF-L200AG
100
AcDbCircle
 10
868.75
 20
550.4999999999999
 30
0.0
 40
1.5
100
AcDbArc
 50
90.00000000000218
 51
180.0
  0
ARC
  5
E9C
330
1E
100
AcDbEntity
  8
PEF-L200AG
100
AcDbCircle
 10
868.75
 20
540.5
 30
0.0
 40
1.5
100
AcDbArc
 50
180.0
 51
269.9999999999976
  0
LINE
  5
E9D
330
1E
100
AcDbEntity
  8
PEF-L200AG
  6
CENTER
100
AcDbLine
 10
874.0
 20
545.49999995755
 30
0.0
 11
862.25
 21
545.49999995755
 31
0.0
  0
LINE
  5
E9E
330
1E
100
AcDbEntity
  8
PEF-L200AG
  6
CENTER
100
AcDbLine
 10
857.75
 20
525.49999995755
 30
0.0
 11
873.75
 21
525.49999995755
 31
0.0
  0
ARC
  5
E9F
330
1E
100
AcDbEntity
  8
PEF-L200AG
100
AcDbCircle
 10
933.2499999999999
 20
540.5
 30
0.0
 40
1.5
100
AcDbArc
 50
270.0000000000021
 51
0.0
  0
ARC
  5
EA0
330
1E
100
AcDbEntity
  8
PEF-L200AG
100
AcDbCircle
 10
933.2499999999999
 20
550.4999999999999
 30
0.0
 40
1.5
100
AcDbArc
 50
0.0
 51
89.99999999999781
  0
LINE
  5
EA1
330
1E
100
AcDbEntity
  8
PEF-L200AG
100
AcDbLine
 10
934.75
 20
550.4999999999999
 30
0.0
 11
934.75
 21
540.5
 31
0.0
  0
LINE
  5
EA2
330
1E
100
AcDbEntity
  8
PEF-L200AG
  6
CENTER
100
AcDbLine
 10
928.0
 20
545.49999995755
 30
0.0
 11
956.25
 21
545.49999995755
 31
0.0
  0
LINE
  5
EA3
330
1E
100
AcDbEntity
  8
PEF-L200AG
100
AcDbLine
 10
933.2499999999999
 20
521.75
 30
0.0
 11
934.2499999999999
 21
522.75
 31
0.0
  0
LINE
  5
EA4
330
1E
100
AcDbEntity
  8
PEF-L200AG
100
AcDbLine
 10
933.2499999999999
 20
522.75
 30
0.0
 11
934.2499999999999
 21
523.7499999999998
 31
0.0
  0
LINE
  5
EA5
330
1E
100
AcDbEntity
  8
PEF-L200AG
100
AcDbLine
 10
933.2499999999999
 20
530.4999999999998
 30
0.0
 11
939.75
 21
530.4999999999998
 31
0.0
  0
LINE
  5
EA6
330
1E
100
AcDbEntity
  8
PEF-L200AG
100
AcDbLine
 10
933.2499999999999
 20
520.5
 30
0.0
 11
939.75
 21
520.5
 31
0.0
  0
LINE
  5
EA7
330
1E
100
AcDbEntity
  8
PEF-L200AG
100
AcDbLine
 10
933.2499999999999
 20
527.0
 30
0.0
 11
934.2499999999999
 21
528.0
 31
0.0
  0
LINE
  5
EA8
330
1E
100
AcDbEntity
  8
PEF-L200AG
100
AcDbLine
 10
933.2499999999999
 20
528.0
 30
0.0
 11
934.2499999999999
 21
529.0
 31
0.0
  0
LINE
  5
EA9
330
1E
100
AcDbEntity
  8
PEF-L200AG
100
AcDbLine
 10
939.75
 20
530.4999999999998
 30
0.0
 11
939.75
 21
520.5
 31
0.0
  0
LINE
  5
EAA
330
1E
100
AcDbEntity
  8
PEF-L200AG
100
AcDbLine
 10
940.2499999999999
 20
530.0
 30
0.0
 11
940.2499999999999
 21
525.4999999999999
 31
0.0
  0
LINE
  5
EAB
330
1E
100
AcDbEntity
  8
PEF-L200AG
100
AcDbLine
 10
934.2499999999999
 20
530.4999999999998
 30
0.0
 11
934.2499999999999
 21
520.5
 31
0.0
  0
LINE
  5
EAC
330
1E
100
AcDbEntity
  8
PEF-L200AG
100
AcDbLine
 10
940.2499999999999
 20
521.0
 30
0.0
 11
939.75
 21
520.5
 31
0.0
  0
LINE
  5
EAD
330
1E
100
AcDbEntity
  8
PEF-L200AG
100
AcDbLine
 10
940.2499999999999
 20
521.0
 30
0.0
 11
940.2499999999999
 21
525.4999999999999
 31
0.0
  0
LINE
  5
EAE
330
1E
100
AcDbEntity
  8
PEF-L200AG
100
AcDbLine
 10
940.2499999999999
 20
530.0
 30
0.0
 11
939.75
 21
530.4999999999998
 31
0.0
  0
LINE
  5
EAF
330
1E
100
AcDbEntity
  8
PEF-L200AG
  6
CENTER
100
AcDbLine
 10
944.25
 20
525.49999995755
 30
0.0
 11
928.25
 21
525.49999995755
 31
0.0
  0
LINE
  5
EB0
330
1E
100
AcDbEntity
  8
PEF-L200AG
100
AcDbLine
 10
881.0
 20
527.2520106363597
 30
0.0
 11
881.0
 21
528.6108106231479
 31
0.0
  0
LINE
  5
EB1
330
1E
100
AcDbEntity
  8
PEF-L200AG
100
AcDbLine
 10
911.0
 20
527.2520106363597
 30
0.0
 11
911.0
 21
528.6108106231479
 31
0.0
  0
LINE
  5
EB2
330
1E
100
AcDbEntity
  8
PEF-L200AG
100
AcDbLine
 10
881.0
 20
595.1734856381496
 30
0.0
 11
881.0
 21
596.5322856249379
 31
0.0
  0
LINE
  5
EB3
330
1E
100
AcDbEntity
  8
PEF-L200AG
100
AcDbLine
 10
911.0
 20
595.1734856381496
 30
0.0
 11
911.0
 21
596.5322856249379
 31
0.0
  0
ARC
  5
EB4
330
1E
100
AcDbEntity
  8
PEF-L200AG
  6
CENTER
100
AcDbCircle
 10
955.1176470588234
 20
539.4558823529412
 30
0.0
 40
6.149274860898537
100
AcDbArc
 50
355.7484221486916
 51
79.3887619089633
  0
LINE
  5
EB5
330
1E
100
AcDbEntity
  8
PEF-L200AG
  6
CENTER
100
AcDbLine
 10
961.25
 20
539.0
 30
0.0
 11
961.25
 21
499.0
 31
0.0
  0
LWPOLYLINE
  5
EB6
330
1E
100
AcDbEntity
  8
PEF-L200AG
100
AcDbPolyline
 90
        5
 70
     0
 43
0.0
 10
963.25
 20
532.3034220362641
 42
-0.0884460251500573
 10
962.0
 20
532.4602267033342
 42
-0.0843071743613228
 10
960.9689131311039
 20
532.9832592684599
 42
0.0903511366870303
 10
960.0
 20
533.4602267033342
 42
0.0421165526401335
 10
959.2499999999999
 20
533.6068390522848
 42
0.0945071863540489
  0
LWPOLYLINE
  5
EBD
330
1E
100
AcDbEntity
  8
PEF-L200AG
100
AcDbPolyline
 90
        5
 70
     0
 43
0.0
 10
963.25
 20
533.0534220362641
 42
-0.0884460251500573
 10
962.0
 20
533.2102267033342
 42
-0.0843071743613228
 10
960.9689131311039
 20
533.73325926846
 42
0.0903511366870303
 10
960.0
 20
534.2102267033342
 42
0.0421165526401302
 10
959.2499999999999
 20
534.3568390522848
 42
0.0945071863540573
  0
LWPOLYLINE
  5
EC4
330
1E
100
AcDbEntity
  8
PEF-L200AG
100
AcDbPolyline
 90
        4
 70
     0
 43
0.0
 10
934.75
 20
543.5
 10
956.0
 20
543.5
 42
-0.2791747650893499
 10
959.2499999999999
 20
540.5
 10
959.2499999999999
 20
534.3568390522848
  0
LWPOLYLINE
  5
ECA
330
1E
100
AcDbEntity
  8
PEF-L200AG
100
AcDbPolyline
 90
        4
 70
     0
 43
0.0
 10
934.75
 20
547.5
 10
955.4999999999999
 20
547.5
 42
-0.3638406403187623
 10
963.25
 20
541.0
 10
963.25
 20
533.0534220362641
  0
LINE
  5
ED0
330
1E
100
AcDbEntity
  8
PEF-L200AG
100
AcDbLine
 10
959.2499999999999
 20
526.25
 30
0.0
 11
963.25
 21
526.25
 31
0.0
  0
LWPOLYLINE
  5
ED1
330
1E
100
AcDbEntity
  8
PEF-L200AG
100
AcDbPolyline
 90
        2
 70
     0
 43
0.0
 10
963.25
 20
532.3034220362641
 10
963.25
 20
526.25
  0
LWPOLYLINE
  5
ED5
330
1E
100
AcDbEntity
  8
PEF-L200AG
100
AcDbPolyline
 90
        2
 70
     0
 43
0.0
 10
959.2499999999999
 20
533.6068390522848
 10
959.2499999999999
 20
526.25
  0
LINE
  5
ED9
330
1E
100
AcDbEntity
  8
PEF-L200AG
100
AcDbLine
 10
961.25
 20
526.25
 30
0.0
 11
958.0356295904566
 21
517.464054213915
 31
0.0
  0
LINE
  5
EDA
330
1E
100
AcDbEntity
  8
PEF-L200AG
100
AcDbLine
 10
959.2499999999999
 20
526.25
 30
0.0
 11
956.2706535242252
 21
518.1064529662156
 31
0.0
  0
LINE
  5
EDB
330
1E
100
AcDbEntity
  8
PEF-L200AG
100
AcDbLine
 10
961.25
 20
526.25
 30
0.0
 11
964.4643704095432
 21
517.464054213915
 31
0.0
  0
LINE
  5
EDC
330
1E
100
AcDbEntity
  8
PEF-L200AG
100
AcDbLine
 10
963.25
 20
526.25
 30
0.0
 11
966.2293464757746
 21
518.1064529662156
 31
0.0
  0
LINE
  5
EDD
330
1E
100
AcDbEntity
  8
PEF-L200AG
100
AcDbLine
 10
954.803910005376
 20
518.6403039483792
 30
0.0
 11
952.8271997146175
 21
513.2093370597176
 31
0.0
  0
LINE
  5
EDE
330
1E
100
AcDbEntity
  8
PEF-L200AG
100
AcDbLine
 10
957.5256628185474
 20
511.4992363430893
 30
0.0
 11
959.5023731093055
 21
516.9302032317509
 31
0.0
  0
LINE
  5
EDF
330
1E
100
AcDbEntity
  8
PEF-L200AG
100
AcDbLine
 10
959.5023731093055
 20
516.9302032317509
 30
0.0
 11
954.803910005376
 21
518.6403039483792
 31
0.0
  0
ARC
  5
EE0
330
1E
100
AcDbEntity
  8
PEF-L200AG
100
AcDbCircle
 10
953.7329401240841
 20
508.3883273822062
 30
0.0
 40
3.75
100
AcDbArc
 50
127.0041145264236
 51
160.000000000003
  0
ARC
  5
EE1
330
1E
100
AcDbEntity
  8
PEF-L200AG
100
AcDbCircle
 10
953.7329401240841
 20
508.3883273822062
 30
0.0
 40
2.0
100
AcDbArc
 50
340.0000000000031
 51
160.000000000003
  0
ARC
  5
EE2
330
1E
100
AcDbEntity
  8
PEF-L200AG
100
AcDbCircle
 10
961.284433301691
 20
510.1311557697866
 30
0.0
 40
4.0
100
AcDbArc
 50
160.000000000003
 51
192.9958854735824
  0
ARC
  5
EE3
330
1E
100
AcDbEntity
  8
PEF-L200AG
100
AcDbCircle
 10
949.0684292314742
 20
514.5774176330203
 30
0.0
 40
4.0
100
AcDbArc
 50
307.0041145264236
 51
340.0000000000031
  0
LINE
  5
EE4
330
1E
100
AcDbEntity
  8
PEF-L200AG
100
AcDbLine
 10
955.6123253656558
 20
507.7042870955548
 30
0.0
 11
953.4746994698704
 21
501.8312082156428
 31
0.0
  0
LINE
  5
EE5
330
1E
100
AcDbEntity
  8
PEF-L200AG
100
AcDbLine
 10
953.4746994698704
 20
501.8312082156428
 30
0.0
 11
955.1191615562455
 21
501.2326729648228
 31
0.0
  0
LINE
  5
EE6
330
1E
100
AcDbEntity
  8
PEF-L200AG
100
AcDbLine
 10
955.1191615562455
 20
501.2326729648228
 30
0.0
 11
957.2567874520313
 21
507.1057518447347
 31
0.0
  0
LINE
  5
EE7
330
1E
100
AcDbEntity
  8
PEF-L200AG
100
AcDbLine
 10
948.0714669003516
 20
503.7978240397655
 30
0.0
 11
950.2090927961369
 21
509.6709029196773
 31
0.0
  0
LINE
  5
EE8
330
1E
100
AcDbEntity
  8
PEF-L200AG
100
AcDbLine
 10
951.8535548825123
 20
509.0723676688575
 30
0.0
 11
949.7159289867267
 21
503.1992887889456
 31
0.0
  0
LINE
  5
EE9
330
1E
100
AcDbEntity
  8
PEF-L200AG
100
AcDbLine
 10
949.7159289867267
 20
503.1992887889456
 30
0.0
 11
948.0714669003516
 21
503.7978240397655
 31
0.0
  0
ARC
  5
EEA
330
1E
100
AcDbEntity
  8
PEF-L200AG
100
AcDbCircle
 10
953.7329401240841
 20
508.3883273822062
 30
0.0
 40
3.75
100
AcDbArc
 50
340.0000000000031
 51
12.99588547358266
  0
LINE
  5
EEB
330
1E
100
AcDbEntity
  8
PEF-L200AG
100
AcDbLine
 10
952.8271997146175
 20
513.2093370597176
 30
0.0
 11
957.5256628185474
 21
511.4992363430893
 31
0.0
  0
LINE
  5
EEC
330
1E
100
AcDbEntity
  8
PEF-L200AG
100
AcDbLine
 10
962.9976268906943
 20
516.9302032317509
 30
0.0
 11
967.6960899946239
 21
518.6403039483792
 31
0.0
  0
LINE
  5
EED
330
1E
100
AcDbEntity
  8
PEF-L200AG
100
AcDbLine
 10
964.9743371814526
 20
511.4992363430893
 30
0.0
 11
962.9976268906943
 21
516.9302032317509
 31
0.0
  0
ARC
  5
EEE
330
1E
100
AcDbEntity
  8
PEF-L200AG
100
AcDbCircle
 10
968.7670598759156
 20
508.3883273822062
 30
0.0
 40
2.0
100
AcDbArc
 50
19.99999999999684
 51
199.9999999999968
  0
LINE
  5
EEF
330
1E
100
AcDbEntity
  8
PEF-L200AG
100
AcDbLine
 10
966.8876746343441
 20
507.7042870955548
 30
0.0
 11
969.0253005301297
 21
501.8312082156428
 31
0.0
  0
LINE
  5
EF0
330
1E
100
AcDbEntity
  8
PEF-L200AG
100
AcDbLine
 10
969.6728002853824
 20
513.2093370597176
 30
0.0
 11
964.9743371814526
 21
511.4992363430893
 31
0.0
  0
LINE
  5
EF1
330
1E
100
AcDbEntity
  8
PEF-L200AG
100
AcDbLine
 10
967.6960899946239
 20
518.6403039483792
 30
0.0
 11
969.6728002853824
 21
513.2093370597176
 31
0.0
  0
ARC
  5
EF2
330
1E
100
AcDbEntity
  8
PEF-L200AG
100
AcDbCircle
 10
973.4315707685256
 20
514.5774176330203
 30
0.0
 40
4.0
100
AcDbArc
 50
199.9999999999968
 51
232.9958854735763
  0
ARC
  5
EF3
330
1E
100
AcDbEntity
  8
PEF-L200AG
100
AcDbCircle
 10
961.2155666983086
 20
510.1311557697866
 30
0.0
 40
4.0
100
AcDbArc
 50
347.0041145264174
 51
19.99999999999684
  0
ARC
  5
EF4
330
1E
100
AcDbEntity
  8
PEF-L200AG
100
AcDbCircle
 10
968.7670598759156
 20
508.3883273822062
 30
0.0
 40
3.75
100
AcDbArc
 50
19.99999999999684
 51
52.99588547357636
  0
LINE
  5
EF5
330
1E
100
AcDbEntity
  8
PEF-L200AG
100
AcDbLine
 10
969.0253005301297
 20
501.8312082156428
 30
0.0
 11
967.3808384437544
 21
501.2326729648228
 31
0.0
  0
LINE
  5
EF6
330
1E
100
AcDbEntity
  8
PEF-L200AG
100
AcDbLine
 10
972.7840710132733
 20
503.1992887889456
 30
0.0
 11
974.4285330996484
 21
503.7978240397655
 31
0.0
  0
LINE
  5
EF7
330
1E
100
AcDbEntity
  8
PEF-L200AG
100
AcDbLine
 10
970.6464451174875
 20
509.0723676688575
 30
0.0
 11
972.7840710132733
 21
503.1992887889456
 31
0.0
  0
LINE
  5
EF8
330
1E
100
AcDbEntity
  8
PEF-L200AG
100
AcDbLine
 10
974.4285330996484
 20
503.7978240397655
 30
0.0
 11
972.290907203863
 21
509.6709029196773
 31
0.0
  0
ARC
  5
EF9
330
1E
100
AcDbEntity
  8
PEF-L200AG
100
AcDbCircle
 10
968.7670598759156
 20
508.3883273822062
 30
0.0
 40
3.75
100
AcDbArc
 50
167.0041145264173
 51
199.9999999999968
  0
LINE
  5
EFA
330
1E
100
AcDbEntity
  8
PEF-L200AG
100
AcDbLine
 10
967.3808384437544
 20
501.2326729648228
 30
0.0
 11
965.2432125479688
 21
507.1057518447347
 31
0.0
  0
LINE
  5
EFB
330
1E
100
AcDbEntity
  8
PEF-L200AG
100
AcDbLine
 10
926.0
 20
534.7853029628455
 30
0.0
 11
926.0
 21
540.49999995755
 31
0.0
  0
LINE
  5
EFC
330
1E
100
AcDbEntity
  8
PEF-L200AG
100
AcDbLine
 10
876.0
 20
534.7853029628455
 30
0.0
 11
876.0
 21
540.49999995755
 31
0.0
  0
LINE
  5
EFD
330
1E
100
AcDbEntity
  8
PEF-L200AG
  6
CENTER
100
AcDbLine
 10
426.75
 20
475.0
 30
0.0
 11
426.75
 21
487.25
 31
0.0
  0
LINE
  5
EFE
330
1E
100
AcDbEntity
  8
PEF-L200AG
100
AcDbLine
 10
385.9999999039998
 20
504.7499999511
 30
0.0
 11
385.9999999039998
 21
503.9999999511
 31
0.0
  0
LINE
  5
EFF
330
1E
100
AcDbEntity
  8
PEF-L200AG
100
AcDbLine
 10
397.4999999039998
 20
503.9999999511
 30
0.0
 11
397.4999999039998
 21
504.7499999511
 31
0.0
  0
LINE
  5
F00
330
1E
100
AcDbEntity
  8
PEF-L200AG
100
AcDbLine
 10
389.4999999039999
 20
504.7499999511
 30
0.0
 11
388.749999904
 21
503.9999999511
 31
0.0
  0
LINE
  5
F01
330
1E
100
AcDbEntity
  8
PEF-L200AG
100
AcDbLine
 10
388.499999904
 20
504.7499999511
 30
0.0
 11
387.7499999039999
 21
503.9999999511
 31
0.0
  0
LINE
  5
F02
330
1E
100
AcDbEntity
  8
PEF-L200AG
100
AcDbLine
 10
394.999999904
 20
504.7499999511
 30
0.0
 11
394.2499999039998
 21
503.9999999511
 31
0.0
  0
LINE
  5
F03
330
1E
100
AcDbEntity
  8
PEF-L200AG
100
AcDbLine
 10
395.9999999039998
 20
504.7499999511
 30
0.0
 11
395.249999904
 21
503.9999999511
 31
0.0
  0
LINE
  5
F04
330
1E
100
AcDbEntity
  8
PEF-L200AG
100
AcDbLine
 10
394.749999904
 20
508.7499999511
 30
0.0
 11
394.749999904
 21
510.7499999510999
 31
0.0
  0
LINE
  5
F05
330
1E
100
AcDbEntity
  8
PEF-L200AG
100
AcDbLine
 10
394.749999904
 20
510.7499999510999
 30
0.0
 11
393.9999999039999
 21
511.4999999511
 31
0.0
  0
LINE
  5
F06
330
1E
100
AcDbEntity
  8
PEF-L200AG
100
AcDbLine
 10
393.9999999039999
 20
511.4999999511
 30
0.0
 11
391.7499999039998
 21
511.4999999511
 31
0.0
  0
LINE
  5
F07
330
1E
100
AcDbEntity
  8
PEF-L200AG
100
AcDbLine
 10
394.749999904
 20
510.7499999510999
 30
0.0
 11
391.7499999039998
 21
510.7499999510999
 31
0.0
  0
LINE
  5
F08
330
1E
100
AcDbEntity
  8
PEF-L200AG
100
AcDbLine
 10
393.9999999039999
 20
511.4999999511
 30
0.0
 11
393.9999999039999
 21
508.7499999511
 31
0.0
  0
LINE
  5
F09
330
1E
100
AcDbEntity
  8
PEF-L200AG
100
AcDbLine
 10
389.4999999039999
 20
511.4999999511
 30
0.0
 11
389.4999999039999
 21
508.7499999511
 31
0.0
  0
LINE
  5
F0A
330
1E
100
AcDbEntity
  8
PEF-L200AG
100
AcDbLine
 10
388.749999904
 20
508.7499999511
 30
0.0
 11
388.749999904
 21
510.7499999510999
 31
0.0
  0
LINE
  5
F0B
330
1E
100
AcDbEntity
  8
PEF-L200AG
100
AcDbLine
 10
388.749999904
 20
510.7499999510999
 30
0.0
 11
391.7499999039998
 21
510.7499999510999
 31
0.0
  0
LINE
  5
F0C
330
1E
100
AcDbEntity
  8
PEF-L200AG
100
AcDbLine
 10
389.4999999039999
 20
511.4999999511
 30
0.0
 11
391.7499999039998
 21
511.4999999511
 31
0.0
  0
LINE
  5
F0D
330
1E
100
AcDbEntity
  8
PEF-L200AG
100
AcDbLine
 10
388.749999904
 20
510.7499999510999
 30
0.0
 11
389.4999999039999
 21
511.4999999511
 31
0.0
  0
LINE
  5
F0E
330
1E
100
AcDbEntity
  8
PEF-L200AG
100
AcDbLine
 10
607.5
 20
508.7499999511
 30
0.0
 11
616.0
 21
508.7499999511
 31
0.0
  0
ARC
  5
F0F
330
1E
100
AcDbEntity
  8
PEF-L200AG
100
AcDbCircle
 10
611.7499999999998
 20
500.9374999511
 30
0.0
 40
7.8125
100
AcDbArc
 50
69.39030706246793
 51
110.609692937532
  0
LINE
  5
F10
330
1E
100
AcDbEntity
  8
PEF-L200AG
100
AcDbLine
 10
609.4999999999998
 20
511.4999999511
 30
0.0
 11
609.4999999999998
 21
508.7499999511
 31
0.0
  0
LINE
  5
F11
330
1E
100
AcDbEntity
  8
PEF-L200AG
100
AcDbLine
 10
608.75
 20
508.7499999511
 30
0.0
 11
608.75
 21
510.7499999510999
 31
0.0
  0
ARC
  5
F12
330
1E
100
AcDbEntity
  8
PEF-L200AG
100
AcDbCircle
 10
607.5
 20
506.2499999511
 30
0.0
 40
2.5
100
AcDbArc
 50
53.13010235415599
 51
126.869897645844
  0
LINE
  5
F13
330
1E
100
AcDbEntity
  8
PEF-L200AG
100
AcDbLine
 10
609.0
 20
504.7499999511
 30
0.0
 11
609.0
 21
508.2499999510998
 31
0.0
  0
LINE
  5
F14
330
1E
100
AcDbEntity
  8
PEF-L200AG
100
AcDbLine
 10
606.0
 20
504.7499999511
 30
0.0
 11
606.0
 21
508.2499999510998
 31
0.0
  0
LINE
  5
F15
330
1E
100
AcDbEntity
  8
PEF-L200AG
100
AcDbLine
 10
608.75
 20
510.7499999510999
 30
0.0
 11
611.7499999999998
 21
510.7499999510999
 31
0.0
  0
LINE
  5
F16
330
1E
100
AcDbEntity
  8
PEF-L200AG
100
AcDbLine
 10
609.4999999999998
 20
511.4999999511
 30
0.0
 11
611.7499999999998
 21
511.4999999511
 31
0.0
  0
LINE
  5
F17
330
1E
100
AcDbEntity
  8
PEF-L200AG
100
AcDbLine
 10
608.75
 20
510.7499999510999
 30
0.0
 11
609.4999999999998
 21
511.4999999511
 31
0.0
  0
LINE
  5
F18
330
1E
100
AcDbEntity
  8
PEF-L200AG
100
AcDbLine
 10
614.0
 20
511.4999999511
 30
0.0
 11
611.7499999999998
 21
511.4999999511
 31
0.0
  0
LINE
  5
F19
330
1E
100
AcDbEntity
  8
PEF-L200AG
100
AcDbLine
 10
614.7499999999999
 20
510.7499999510999
 30
0.0
 11
611.7499999999998
 21
510.7499999510999
 31
0.0
  0
LINE
  5
F1A
330
1E
100
AcDbEntity
  8
PEF-L200AG
100
AcDbLine
 10
606.0
 20
504.7499999511
 30
0.0
 11
617.4999999999998
 21
504.7499999511
 31
0.0
  0
LINE
  5
F1B
330
1E
100
AcDbEntity
  8
PEF-L200AG
100
AcDbLine
 10
614.0
 20
511.4999999511
 30
0.0
 11
614.0
 21
508.7499999511
 31
0.0
  0
LINE
  5
F1C
330
1E
100
AcDbEntity
  8
PEF-L200AG
100
AcDbLine
 10
614.7499999999999
 20
508.7499999511
 30
0.0
 11
614.7499999999999
 21
510.7499999510999
 31
0.0
  0
LINE
  5
F1D
330
1E
100
AcDbEntity
  8
PEF-L200AG
100
AcDbLine
 10
617.4999999999998
 20
504.7499999511
 30
0.0
 11
617.4999999999998
 21
508.2499999510998
 31
0.0
  0
LINE
  5
F1E
330
1E
100
AcDbEntity
  8
PEF-L200AG
100
AcDbLine
 10
614.5
 20
504.7499999511
 30
0.0
 11
614.5
 21
508.2499999510998
 31
0.0
  0
ARC
  5
F1F
330
1E
100
AcDbEntity
  8
PEF-L200AG
100
AcDbCircle
 10
616.0
 20
506.2499999511
 30
0.0
 40
2.5
100
AcDbArc
 50
53.13010235415599
 51
126.869897645844
  0
LINE
  5
F20
330
1E
100
AcDbEntity
  8
PEF-L200AG
100
AcDbLine
 10
617.4999999999998
 20
504.7499999511
 30
0.0
 11
617.4999999999998
 21
503.9999999511
 31
0.0
  0
LINE
  5
F21
330
1E
100
AcDbEntity
  8
PEF-L200AG
100
AcDbLine
 10
614.0
 20
504.7499999511
 30
0.0
 11
614.7499999999999
 21
503.9999999511
 31
0.0
  0
LINE
  5
F22
330
1E
100
AcDbEntity
  8
PEF-L200AG
100
AcDbLine
 10
615.0
 20
504.7499999511
 30
0.0
 11
615.7499999999998
 21
503.9999999511
 31
0.0
  0
LINE
  5
F23
330
1E
100
AcDbEntity
  8
PEF-L200AG
100
AcDbLine
 10
614.7499999999999
 20
510.7499999510999
 30
0.0
 11
614.0
 21
511.4999999511
 31
0.0
  0
LINE
  5
F24
330
1E
100
AcDbEntity
  8
PEF-L200AG
100
AcDbLine
 10
608.4999999999999
 20
504.7499999511
 30
0.0
 11
609.25
 21
503.9999999511
 31
0.0
  0
LINE
  5
F25
330
1E
100
AcDbEntity
  8
PEF-L200AG
100
AcDbLine
 10
607.5
 20
504.7499999511
 30
0.0
 11
608.25
 21
503.9999999511
 31
0.0
  0
LINE
  5
F26
330
1E
100
AcDbEntity
  8
PEF-L200AG
100
AcDbLine
 10
606.0
 20
503.9999999511
 30
0.0
 11
606.0
 21
504.7499999511
 31
0.0
  0
LWPOLYLINE
  5
F27
330
1E
100
AcDbEntity
  8
PEF-L200AG
100
AcDbPolyline
 90
        6
 70
     1
 43
0.0
 10
439.25
 20
786.5
 10
442.9999999505
 20
780.004809557353
 10
450.4999998515
 20
780.004809557353
 10
454.249999802
 20
786.5
 10
450.4999998515
 20
792.9951904426468
 10
442.9999999505
 20
792.9951904426468
  0
CIRCLE
  5
F2F
330
1E
100
AcDbEntity
  8
PEF-L200AG
100
AcDbCircle
 10
446.75
 20
786.5
 30
0.0
 40
6.495190442646786
  0
LINE
  5
F30
330
1E
100
AcDbEntity
  8
PEF-L200AG
  6
CENTER
100
AcDbLine
 10
446.749999901
 20
775.25
 30
0.0
 11
446.749999901
 21
797.25
 31
0.0
  0
LINE
  5
F31
330
1E
100
AcDbEntity
  8
PEF-L200AG
100
AcDbLine
 10
608.2499999699998
 20
726.4999999895
 30
0.0
 11
608.2499999699998
 21
706.4999999894998
 31
0.0
  0
LINE
  5
F32
330
1E
100
AcDbEntity
  8
PEF-L200AG
100
AcDbLine
 10
615.2499999699998
 20
726.4999999895
 30
0.0
 11
615.2499999699998
 21
706.4999999894998
 31
0.0
  0
LINE
  5
F33
330
1E
100
AcDbEntity
  8
PEF-L200AG
100
AcDbLine
 10
621.74999997
 20
706.4999999894998
 30
0.0
 11
621.74999997
 21
741.4999999864999
 31
0.0
  0
LINE
  5
F34
330
1E
100
AcDbEntity
  8
PEF-L200AG
100
AcDbLine
 10
601.74999997
 20
706.4999999894998
 30
0.0
 11
601.74999997
 21
751.4999999895
 31
0.0
  0
ARC
  5
F35
330
1E
100
AcDbEntity
  8
PEF-L200AG
100
AcDbCircle
 10
611.7499999699998
 20
706.4999999894998
 30
0.0
 40
3.5
100
AcDbArc
 50
180.0
 51
0.0
  0
LINE
  5
F36
330
1E
100
AcDbEntity
  8
PEF-L200AG
  6
CENTER
100
AcDbLine
 10
626.74999997
 20
706.4999999894998
 30
0.0
 11
597.24999997
 21
706.4999999894998
 31
0.0
  0
ARC
  5
F37
330
1E
100
AcDbEntity
  8
PEF-L200AG
100
AcDbCircle
 10
611.7499999699998
 20
706.4999999894998
 30
0.0
 40
10.0
100
AcDbArc
 50
180.0
 51
0.0
  0
LINE
  5
F38
330
1E
100
AcDbEntity
  8
PEF-L200AG
  6
CENTER
100
AcDbLine
 10
604.2499999699998
 20
716.4999999895
 30
0.0
 11
619.49999997
 21
716.4999999895
 31
0.0
  0
ARC
  5
F39
330
1E
100
AcDbEntity
  8
PEF-L200AG
100
AcDbCircle
 10
611.7499999699998
 20
726.4999999895
 30
0.0
 40
3.5
100
AcDbArc
 50
0.0
 51
180.0
  0
LINE
  5
F3A
330
1E
100
AcDbEntity
  8
PEF-L200AG
  6
CENTER
100
AcDbLine
 10
619.49999997
 20
726.4999999895
 30
0.0
 11
604.4999999699999
 21
726.4999999895
 31
0.0
  0
ARC
  5
F3B
330
1E
100
AcDbEntity
  8
PEF-L200AG
  6
DASHED
100
AcDbCircle
 10
611.7499999699998
 20
751.4999999895
 30
0.0
 40
10.0
100
AcDbArc
 50
164.0379858282138
 51
15.96201417178613
  0
LINE
  5
F3C
330
1E
100
AcDbEntity
  8
PEF-L200AG
  6
DASHED
100
AcDbLine
 10
621.74999997
 20
741.4999999864999
 30
0.0
 11
621.74999997
 21
751.5
 31
0.0
  0
LINE
  5
F3D
330
1E
100
AcDbEntity
  8
PEF-L200AG
  6
DASHED
100
AcDbLine
 10
621.74999997
 20
831.5000000134999
 30
0.0
 11
621.74999997
 21
821.4999999999999
 31
0.0
  0
ARC
  5
F3E
330
1E
100
AcDbEntity
  8
PEF-L200AG
  6
DASHED
100
AcDbCircle
 10
611.7499999699998
 20
821.5000000105
 30
0.0
 40
10.0
100
AcDbArc
 50
344.0379858282138
 51
195.962014171786
  0
LINE
  5
F3F
330
1E
100
AcDbEntity
  8
PEF-L200AG
  6
CENTER
100
AcDbLine
 10
597.9999999668499
 20
821.5000000105
 30
0.0
 11
625.7499999730747
 21
821.5000000105
 31
0.0
  0
LINE
  5
F40
330
1E
100
AcDbEntity
  8
PEF-L200AG
  6
CENTER
100
AcDbLine
 10
619.2499999699998
 20
846.5000000105
 30
0.0
 11
604.74999997
 21
846.5000000105
 31
0.0
  0
LINE
  5
F41
330
1E
100
AcDbEntity
  8
PEF-L200AG
  6
CENTER
100
AcDbLine
 10
604.4999999699999
 20
856.5000000104999
 30
0.0
 11
619.2499999699998
 21
856.5000000104999
 31
0.0
  0
LINE
  5
F42
330
1E
100
AcDbEntity
  8
PEF-L200AG
  6
CENTER
100
AcDbLine
 10
623.7499999699998
 20
866.5000000104999
 30
0.0
 11
599.7499999699998
 21
866.5000000104999
 31
0.0
  0
LINE
  5
F43
330
1E
100
AcDbEntity
  8
PEF-L200AG
100
AcDbLine
 10
601.74999997
 20
866.5000000104999
 30
0.0
 11
601.74999997
 21
821.5000000105
 31
0.0
  0
LINE
  5
F44
330
1E
100
AcDbEntity
  8
PEF-L200AG
100
AcDbLine
 10
621.74999997
 20
866.5000000104999
 30
0.0
 11
621.74999997
 21
831.5000000134999
 31
0.0
  0
LINE
  5
F45
330
1E
100
AcDbEntity
  8
PEF-L200AG
100
AcDbLine
 10
615.2499999699998
 20
846.5000000105
 30
0.0
 11
615.2499999699998
 21
866.5000000104999
 31
0.0
  0
LINE
  5
F46
330
1E
100
AcDbEntity
  8
PEF-L200AG
100
AcDbLine
 10
608.2499999699998
 20
846.5000000105
 30
0.0
 11
608.2499999699998
 21
866.5000000104999
 31
0.0
  0
ARC
  5
F47
330
1E
100
AcDbEntity
  8
PEF-L200AG
100
AcDbCircle
 10
611.7499999699998
 20
866.5000000104999
 30
0.0
 40
10.0
100
AcDbArc
 50
0.0
 51
180.0
  0
ARC
  5
F48
330
1E
100
AcDbEntity
  8
PEF-L200AG
100
AcDbCircle
 10
611.7499999699998
 20
866.5000000104999
 30
0.0
 40
3.5
100
AcDbArc
 50
0.0
 51
180.0
  0
ARC
  5
F49
330
1E
100
AcDbEntity
  8
PEF-L200AG
100
AcDbCircle
 10
611.7499999699998
 20
846.5000000105
 30
0.0
 40
3.5
100
AcDbArc
 50
180.0
 51
0.0
  0
LINE
  5
F4A
330
1E
100
AcDbEntity
  8
PEF-L200AG
  6
CENTER
100
AcDbLine
 10
611.7
 20
794.5
 30
0.0
 11
611.7
 21
778.2499999999998
 31
0.0
  0
ARC
  5
F4B
330
1E
100
AcDbEntity
  8
PEF-L200AG
100
AcDbCircle
 10
611.7499999699998
 20
751.4999999895
 30
0.0
 40
4.979646045779758
100
AcDbArc
 50
146.4786217717822
 51
33.52137822821771
  0
ARC
  5
F4C
330
1E
100
AcDbEntity
  8
PEF-L200AG
100
AcDbCircle
 10
611.7499999999998
 20
751.5
 30
0.0
 40
2.25
100
AcDbArc
 50
265.2363583092737
 51
186.3401917459098
  0
ARC
  5
F4D
330
1E
100
AcDbEntity
  8
PEF-L200AG
100
AcDbCircle
 10
611.7499999999998
 20
751.5
 30
0.0
 40
3.0
100
AcDbArc
 50
113.5564647391949
 51
66.44353526080509
  0
ARC
  5
F4E
330
1E
100
AcDbEntity
  8
PEF-L200AG
100
AcDbCircle
 10
611.7499999699998
 20
821.5000000105
 30
0.0
 40
4.979646045779758
100
AcDbArc
 50
326.4786217717821
 51
213.5213782282177
  0
ARC
  5
F4F
330
1E
100
AcDbEntity
  8
PEF-L200AG
100
AcDbCircle
 10
611.7499999999998
 20
821.500000021
 30
0.0
 40
2.25
100
AcDbArc
 50
265.2363583092737
 51
186.3401917459098
  0
ARC
  5
F50
330
1E
100
AcDbEntity
  8
PEF-L200AG
100
AcDbCircle
 10
611.7499999999998
 20
821.500000021
 30
0.0
 40
3.0
100
AcDbArc
 50
293.5564637356459
 51
246.4435362643539
  0
LINE
  5
F51
330
1E
100
AcDbEntity
  8
PEF-L200AG
  6
CENTER
100
AcDbLine
 10
611.7499999699998
 20
691.0
 30
0.0
 11
611.7499999699998
 21
763.4999999895
 31
0.0
  0
LINE
  5
F52
330
1E
100
AcDbEntity
  8
PEF-L200AG
  6
CENTER
100
AcDbLine
 10
611.7499999699998
 20
881.0
 30
0.0
 11
611.7499999699998
 21
809.5000000104999
 31
0.0
  0
LINE
  5
F53
330
1E
100
AcDbEntity
  8
PEF-L200AG
100
AcDbLine
 10
481.7499999355
 20
818.7500000089999
 30
0.0
 11
713.7499999469
 21
818.7500000089999
 31
0.0
  0
LINE
  5
F54
330
1E
100
AcDbEntity
  8
PEF-L200AG
100
AcDbLine
 10
496.7499999354998
 20
818.7500000089999
 30
0.0
 11
496.7499999354998
 21
819.5000000099
 31
0.0
  0
LINE
  5
F55
330
1E
100
AcDbEntity
  8
PEF-L200AG
100
AcDbLine
 10
534.7499999469
 20
818.7500000089999
 30
0.0
 11
534.7499999469
 21
819.5000000099
 31
0.0
  0
LINE
  5
F56
330
1E
100
AcDbEntity
  8
PEF-L200AG
100
AcDbLine
 10
694.7499999949
 20
818.7500000089999
 30
0.0
 11
694.7499999949
 21
819.5000000099
 31
0.0
  0
LINE
  5
F57
330
1E
100
AcDbEntity
  8
PEF-L200AG
100
AcDbLine
 10
656.7499999834999
 20
818.7500000089999
 30
0.0
 11
656.7499999834999
 21
819.5000000099
 31
0.0
  0
LWPOLYLINE
  5
F58
330
1E
100
AcDbEntity
  8
PEF-L200AG
100
AcDbPolyline
 90
        2
 70
     0
 43
0.0
 10
606.0
 20
821.5000000105
 10
607.5877132411375
 20
818.7500000089999
  0
LWPOLYLINE
  5
F5C
330
1E
100
AcDbEntity
  8
PEF-L200AG
100
AcDbPolyline
 90
        5
 70
     0
 43
0.0
 10
615.9122866988625
 20
818.7500000089999
 10
617.4999999399998
 20
821.5000000105
 10
614.624999955
 20
826.4796460562797
 10
608.8749999849998
 20
826.4796460562797
 10
606.0
 20
821.5000000105
  0
LINE
  5
F63
330
1E
100
AcDbEntity
  8
PEF-L200AG
100
AcDbLine
 10
627.4827948097472
 20
818.7500000089999
 30
0.0
 11
634.8440107445131
 21
831.5000000134999
 31
0.0
  0
LINE
  5
F64
330
1E
100
AcDbEntity
  8
PEF-L200AG
100
AcDbLine
 10
629.7921958871986
 20
818.7500000089999
 30
0.0
 11
637.1534118219645
 21
831.5000000134999
 31
0.0
  0
LINE
  5
F65
330
1E
100
AcDbEntity
  8
PEF-L200AG
100
AcDbLine
 10
596.0172051302524
 20
818.7500000089999
 30
0.0
 11
588.6559891954866
 21
831.5000000134999
 31
0.0
  0
LINE
  5
F66
330
1E
100
AcDbEntity
  8
PEF-L200AG
100
AcDbLine
 10
593.7078040528013
 20
818.7500000089999
 30
0.0
 11
586.3465881180355
 21
831.5000000134999
 31
0.0
  0
LINE
  5
F67
330
1E
100
AcDbEntity
  8
PEF-L200AG
100
AcDbLine
 10
481.7499999355
 20
754.2499999909998
 30
0.0
 11
713.7499999469
 21
754.2499999909998
 31
0.0
  0
LINE
  5
F68
330
1E
100
AcDbEntity
  8
PEF-L200AG
100
AcDbLine
 10
481.7499999355
 20
756.4999999910001
 30
0.0
 11
713.7499999469
 21
756.4999999910001
 31
0.0
  0
LINE
  5
F69
330
1E
100
AcDbEntity
  8
PEF-L200AG
100
AcDbLine
 10
694.7499999949
 20
756.4999999910001
 30
0.0
 11
694.7499999949
 21
816.500000009
 31
0.0
  0
LINE
  5
F6A
330
1E
100
AcDbEntity
  8
PEF-L200AG
100
AcDbLine
 10
656.7499999834999
 20
756.4999999910001
 30
0.0
 11
656.7499999834999
 21
759.0
 31
0.0
  0
LINE
  5
F6B
330
1E
100
AcDbEntity
  8
PEF-L200AG
100
AcDbLine
 10
627.4827948097472
 20
754.2499999909997
 30
0.0
 11
634.8440107445131
 21
741.4999999864999
 31
0.0
  0
LINE
  5
F6C
330
1E
100
AcDbEntity
  8
PEF-L200AG
100
AcDbLine
 10
629.7921958871986
 20
754.2499999909997
 30
0.0
 11
637.1534118219645
 21
741.4999999864999
 31
0.0
  0
LWPOLYLINE
  5
F6D
330
1E
100
AcDbEntity
  8
PEF-L200AG
100
AcDbPolyline
 90
        5
 70
     0
 43
0.0
 10
606.0
 20
751.4999999895
 10
608.8749999849998
 20
746.5203539437202
 10
614.624999955
 20
746.5203539437202
 10
617.4999999399998
 20
751.4999999895
 10
615.9122866988625
 20
754.2499999909998
  0
LWPOLYLINE
  5
F74
330
1E
100
AcDbEntity
  8
PEF-L200AG
100
AcDbPolyline
 90
        2
 70
     0
 43
0.0
 10
607.5877132411375
 20
754.2499999909998
 10
606.0
 20
751.4999999895
  0
LINE
  5
F78
330
1E
100
AcDbEntity
  8
PEF-L200AG
100
AcDbLine
 10
596.0172051302524
 20
754.2499999909997
 30
0.0
 11
588.6559891954866
 21
741.4999999864999
 31
0.0
  0
LINE
  5
F79
330
1E
100
AcDbEntity
  8
PEF-L200AG
100
AcDbLine
 10
593.7078040528011
 20
754.2499999909997
 30
0.0
 11
586.3465881180355
 21
741.4999999864999
 31
0.0
  0
ARC
  5
F7A
330
1E
100
AcDbEntity
  8
PEF-L200AG
  6
DASHED
100
AcDbCircle
 10
611.7499999699998
 20
751.4999999895
 30
0.0
 40
10.0
100
AcDbArc
 50
30.00000000992384
 51
149.9999999900761
  0
LINE
  5
F7B
330
1E
100
AcDbEntity
  8
PEF-L200AG
100
AcDbLine
 10
534.7499999469
 20
756.4999999910001
 30
0.0
 11
534.7499999469
 21
759.0
 31
0.0
  0
LINE
  5
F7C
330
1E
100
AcDbEntity
  8
PEF-L200AG
100
AcDbLine
 10
496.7499999354998
 20
756.4999999910001
 30
0.0
 11
496.7499999354998
 21
762.4999999927998
 31
0.0
  0
ARC
  5
F7D
330
1E
100
AcDbEntity
  8
PEF-L200AG
  6
DASHED
100
AcDbCircle
 10
611.7499999699998
 20
821.5000000105
 30
0.0
 40
10.0
100
AcDbArc
 50
210.0000000099238
 51
329.9999999900762
  0
TEXT
  5
FE7
330
1E
100
AcDbEntity
  8
PEF-L200AG
100
AcDbText
 10
737.75
 20
667.1246300743863
 30
0.0
 40
6.0
  1
PEF-200ag
 11
737.75
 21
670.1246300743863
 31
0.0
100
AcDbText
 73
     2
  0
LINE
  5
FF0
330
1E
100
AcDbEntity
  8
PEF-L200AG
  6
CENTER
100
AcDbLine
 10
391.7499999039998
 20
881.2500000105002
 30
0.0
 11
391.7499999039998
 21
809.5000000105002
 31
0.0
  0
ENDSEC
  0
SECTION
  2
OBJECTS
  0
DICTIONARY
  5
C
330
0
100
AcDbDictionary
  3
ACAD_GROUP
350
D
  3
ACAD_LAYOUT
350
19
  3
ACAD_MLINESTYLE
350
16
  3
ACAD_PLOTSETTINGS
350
18
  3
ACAD_PLOTSTYLENAME
350
E
  3
DWGPROPS
350
120F
  3
ACDBHEADERROUNDTRIPXREC
350
123F
  0
DICTIONARY
  5
1234
330
1E
100
AcDbDictionary
280
     1
  3
ACAD_LAYOUTSELFREF
360
1260
  0
DICTIONARY
  5
1232
330
1A
100
AcDbDictionary
280
     1
  3
ACAD_LAYOUTSELFREF
360
125F
  0
DICTIONARY
  5
D
102
{ACAD_REACTORS
330
C
102
}
330
C
100
AcDbDictionary
  0
DICTIONARY
  5
19
102
{ACAD_REACTORS
330
C
102
}
330
C
100
AcDbDictionary
  0
DICTIONARY
  5
16
102
{ACAD_REACTORS
330
C
102
}
330
C
100
AcDbDictionary
  3
STANDARD
350
17
  0
DICTIONARY
  5
18
102
{ACAD_REACTORS
330
C
102
}
330
C
100
AcDbDictionary
  0
ACDBDICTIONARYWDFLT
  5
E
102
{ACAD_REACTORS
330
C
102
}
330
C
100
AcDbDictionary
281
     1
  3
Normal
350
F
100
AcDbDictionaryWithDefault
340
F
  0
XRECORD
  5
120F
102
{ACAD_REACTORS
330
C
102
}
330
C
100
AcDbXrecord
  1
DWGPROPS COOKIE
  2

  3

  4

  6

  7

  8
한신
  9

300
=
301
=
302
=
303
=
304
=
305
=
306
=
307
=
308
=
309
=
 40
0.3410524305555556
 41
2450309.63054398
 42
2451814.648137268
  1

 90
        0
  0
DICTIONARY
  5
123F
102
{ACAD_REACTORS
330
C
102
}
330
C
100
AcDbDictionary
  3
TSTACKALIGN
350
1240
  3
TSTACKSIZE
350
1241
  3
HYPERLINKBASE
350
1242
  3
STYLESHEET
350
1243
  3
LAYOUTDICT
350
1244
  3
PLOTSETDICT
350
1245
  3
PLOTSTYLNAMDICT
350
1246
  3
LWETCUNION
350
1247
  3
INSUNITS
350
1248
  3
CEPSNTYPE
350
1249
  3
FINGERPRINTGUID
350
124A
  3
VERSIONGUID
350
124B
  3
PSVPSCALE
350
124C
  3
PUCSORTHOREF
350
124D
  3
PUCSORTHOVIEW
350
124E
  3
PUCSBASE
350
124F
  3
PUCSORGTOP
350
1250
  3
PUCSORGBOTTOM
350
1251
  3
PUCSORGLEFT
350
1252
  3
PUCSORGRIGHT
350
1253
  3
PUCSORGFRONT
350
1254
  3
PUCSORGBACK
350
1255
  3
UCSORTHOREF
350
1256
  3
UCSORTHOVIEW
350
1257
  3
UCSBASE
350
1258
  3
UCSORGTOP
350
1259
  3
UCSORGBOTTOM
350
125A
  3
UCSORGLEFT
350
125B
  3
UCSORGRIGHT
350
125C
  3
UCSORGFRONT
350
125D
  3
UCSORGBACK
350
125E
  0
XRECORD
  5
1260
102
{ACAD_REACTORS
330
1234
102
}
330
1234
100
AcDbXrecord
340
1E
  0
XRECORD
  5
125F
102
{ACAD_REACTORS
330
1232
102
}
330
1232
100
AcDbXrecord
340
1A
  0
MLINESTYLE
  5
17
102
{ACAD_REACTORS
330
16
102
}
330
16
100
AcDbMlineStyle
  2
STANDARD
 70
     0
  3

 62
   256
 51
90.0
 52
90.0
 71
     2
 49
0.5
 62
   256
  6
BYLAYER
 49
-0.5
 62
   256
  6
BYLAYER
  0
ACDBPLACEHOLDER
  5
F
102
{ACAD_REACTORS
330
E
102
}
330
E
100
AcDbPlaceHolder
280
     0
  0
XRECORD
  5
1240
102
{ACAD_REACTORS
330
123F
102
}
330
123F
100
AcDbXrecord
 90
        1
  0
XRECORD
  5
1241
102
{ACAD_REACTORS
330
123F
102
}
330
123F
100
AcDbXrecord
 90
       70
  0
XRECORD
  5
1242
102
{ACAD_REACTORS
330
123F
102
}
330
123F
100
AcDbXrecord
  1

  0
XRECORD
  5
1243
102
{ACAD_REACTORS
330
123F
102
}
330
123F
100
AcDbXrecord
  1

  0
XRECORD
  5
1244
102
{ACAD_REACTORS
330
123F
102
}
330
123F
100
AcDbXrecord
340
19
  0
XRECORD
  5
1245
102
{ACAD_REACTORS
330
123F
102
}
330
123F
100
AcDbXrecord
340
18
  0
XRECORD
  5
1246
102
{ACAD_REACTORS
330
123F
102
}
330
123F
100
AcDbXrecord
340
E
  0
XRECORD
  5
1247
102
{ACAD_REACTORS
330
123F
102
}
330
123F
100
AcDbXrecord
 90
    14877
  0
XRECORD
  5
1248
102
{ACAD_REACTORS
330
123F
102
}
330
123F
100
AcDbXrecord
 90
        0
  0
XRECORD
  5
1249
102
{ACAD_REACTORS
330
123F
102
}
330
123F
100
AcDbXrecord
 90
        0
  0
XRECORD
  5
124A
102
{ACAD_REACTORS
330
123F
102
}
330
123F
100
AcDbXrecord
  1
{2E5998BD-6201-11D4-BC29-A0594FC10001}
  0
XRECORD
  5
124B
102
{ACAD_REACTORS
330
123F
102
}
330
123F
100
AcDbXrecord
  1
{5F58A1FC-D301-4705-B296-0EE5A6D20C4A}
  0
XRECORD
  5
124C
102
{ACAD_REACTORS
330
123F
102
}
330
123F
100
AcDbXrecord
 40
0.0
  0
XRECORD
  5
124D
102
{ACAD_REACTORS
330
123F
102
}
330
123F
100
AcDbXrecord
340
0
  0
XRECORD
  5
124E
102
{ACAD_REACTORS
330
123F
102
}
330
123F
100
AcDbXrecord
 70
     0
  0
XRECORD
  5
124F
102
{ACAD_REACTORS
330
123F
102
}
330
123F
100
AcDbXrecord
340
0
  0
XRECORD
  5
1250
102
{ACAD_REACTORS
330
123F
102
}
330
123F
100
AcDbXrecord
 10
0.0
 20
0.0
 30
0.0
  0
XRECORD
  5
1251
102
{ACAD_REACTORS
330
123F
102
}
330
123F
100
AcDbXrecord
 10
0.0
 20
0.0
 30
0.0
  0
XRECORD
  5
1252
102
{ACAD_REACTORS
330
123F
102
}
330
123F
100
AcDbXrecord
 10
0.0
 20
0.0
 30
0.0
  0
XRECORD
  5
1253
102
{ACAD_REACTORS
330
123F
102
}
330
123F
100
AcDbXrecord
 10
0.0
 20
0.0
 30
0.0
  0
XRECORD
  5
1254
102
{ACAD_REACTORS
330
123F
102
}
330
123F
100
AcDbXrecord
 10
0.0
 20
0.0
 30
0.0
  0
XRECORD
  5
1255
102
{ACAD_REACTORS
330
123F
102
}
330
123F
100
AcDbXrecord
 10
0.0
 20
0.0
 30
0.0
  0
XRECORD
  5
1256
102
{ACAD_REACTORS
330
123F
102
}
330
123F
100
AcDbXrecord
340
0
  0
XRECORD
  5
1257
102
{ACAD_REACTORS
330
123F
102
}
330
123F
100
AcDbXrecord
 70
     0
  0
XRECORD
  5
1258
102
{ACAD_REACTORS
330
123F
102
}
330
123F
100
AcDbXrecord
340
0
  0
XRECORD
  5
1259
102
{ACAD_REACTORS
330
123F
102
}
330
123F
100
AcDbXrecord
 10
0.0
 20
0.0
 30
0.0
  0
XRECORD
  5
125A
102
{ACAD_REACTORS
330
123F
102
}
330
123F
100
AcDbXrecord
 10
0.0
 20
0.0
 30
0.0
  0
XRECORD
  5
125B
102
{ACAD_REACTORS
330
123F
102
}
330
123F
100
AcDbXrecord
 10
0.0
 20
0.0
 30
0.0
  0
XRECORD
  5
125C
102
{ACAD_REACTORS
330
123F
102
}
330
123F
100
AcDbXrecord
 10
0.0
 20
0.0
 30
0.0
  0
XRECORD
  5
125D
102
{ACAD_REACTORS
330
123F
102
}
330
123F
100
AcDbXrecord
 10
0.0
 20
0.0
 30
0.0
  0
XRECORD
  5
125E
102
{ACAD_REACTORS
330
123F
102
}
330
123F
100
AcDbXrecord
 10
0.0
 20
0.0
 30
0.0
  0
ENDSEC
  0
EOF
