  0
SECTION
  2
HEADER
  9
$ACADVER
  1
AC1014
  9
$ACADMAINTVER
 70
     9
  9
$DWGCODEPAGE
  3
ANSI_949
  9
$INSBASE
 10
216.25
 20
-44.0
 30
0.0
  9
$EXTMIN
 10
3.463261228701639
 20
70.97735028027296
 30
-0.0000000000000058
  9
$EXTMAX
 10
616.7802189067018
 20
493.3558152367583
 30
0.0000000000000104
  9
$LIMMIN
 10
0.0
 20
0.0
  9
$LIMMAX
 10
597.0
 20
420.0
  9
$ORTHOMODE
 70
     0
  9
$REGENMODE
 70
     1
  9
$FILLMODE
 70
     1
  9
$QTEXTMODE
 70
     0
  9
$MIRRTEXT
 70
     1
  9
$DRAGMODE
 70
     2
  9
$LTSCALE
 40
5.0
  9
$OSMODE
 70
    37
  9
$ATTMODE
 70
     1
  9
$TEXTSIZE
 40
3.0
  9
$TRACEWID
 40
0.05
  9
$TEXTSTYLE
  7
STANDARD
  9
$CLAYER
  8
0
  9
$CELTYPE
  6
BYLAYER
  9
$CECOLOR
 62
   256
  9
$CELTSCALE
 40
1.0
  9
$DELOBJ
 70
     1
  9
$DISPSILH
 70
     0
  9
$DIMSCALE
 40
1.0
  9
$DIMASZ
 40
5.0
  9
$DIMEXO
 40
1.75
  9
$DIMDLI
 40
0.38
  9
$DIMRND
 40
0.0
  9
$DIMDLE
 40
0.0
  9
$DIMEXE
 40
1.75
  9
$DIMTP
 40
0.0
  9
$DIMTM
 40
0.0
  9
$DIMTXT
 40
5.0
  9
$DIMCEN
 40
0.09
  9
$DIMTSZ
 40
0.0
  9
$DIMTOL
 70
     0
  9
$DIMLIM
 70
     0
  9
$DIMTIH
 70
     0
  9
$DIMTOH
 70
     1
  9
$DIMSE1
 70
     0
  9
$DIMSE2
 70
     0
  9
$DIMTAD
 70
     1
  9
$DIMZIN
 70
     8
  9
$DIMBLK
  1

  9
$DIMASO
 70
     0
  9
$DIMSHO
 70
     1
  9
$DIMPOST
  1

  9
$DIMAPOST
  1

  9
$DIMALT
 70
     0
  9
$DIMALTD
 70
     2
  9
$DIMALTF
 40
25.4
  9
$DIMLFAC
 40
1.0
  9
$DIMTOFL
 70
     1
  9
$DIMTVP
 40
0.0
  9
$DIMTIX
 70
     1
  9
$DIMSOXD
 70
     0
  9
$DIMSAH
 70
     0
  9
$DIMBLK1
  1

  9
$DIMBLK2
  1

  9
$DIMSTYLE
  2
STANDARD
  9
$DIMCLRD
 70
     5
  9
$DIMCLRE
 70
     5
  9
$DIMCLRT
 70
     3
  9
$DIMTFAC
 40
0.6
  9
$DIMGAP
 40
0.09
  9
$DIMJUST
 70
     0
  9
$DIMSD1
 70
     0
  9
$DIMSD2
 70
     0
  9
$DIMTOLJ
 70
     1
  9
$DIMTZIN
 70
     8
  9
$DIMALTZ
 70
     8
  9
$DIMALTTZ
 70
     8
  9
$DIMFIT
 70
     3
  9
$DIMUPT
 70
     0
  9
$DIMUNIT
 70
     2
  9
$DIMDEC
 70
     4
  9
$DIMTDEC
 70
     4
  9
$DIMALTU
 70
     2
  9
$DIMALTTD
 70
     2
  9
$DIMTXSTY
  7
STANDARD
  9
$DIMAUNIT
 70
     0
  9
$LUNITS
 70
     2
  9
$LUPREC
 70
     4
  9
$SKETCHINC
 40
0.1
  9
$FILLETRAD
 40
2.0
  9
$AUNITS
 70
     0
  9
$AUPREC
 70
     0
  9
$MENU
  1
acad
  9
$ELEVATION
 40
0.0
  9
$PELEVATION
 40
0.0
  9
$THICKNESS
 40
0.0
  9
$LIMCHECK
 70
     0
  9
$BLIPMODE
 70
     0
  9
$CHAMFERA
 40
0.25
  9
$CHAMFERB
 40
0.25
  9
$CHAMFERC
 40
0.0
  9
$CHAMFERD
 40
0.0
  9
$SKPOLY
 70
     0
  9
$TDCREATE
 40
2450310.491546180
  9
$TDUPDATE
 40
2452761.633167674
  9
$TDINDWG
 40
0.5678545949
  9
$TDUSRTIMER
 40
0.5678545949
  9
$USRTIMER
 70
     1
  9
$ANGBASE
 50
0.0
  9
$ANGDIR
 70
     0
  9
$PDMODE
 70
     0
  9
$PDSIZE
 40
0.0
  9
$PLINEWID
 40
0.0
  9
$COORDS
 70
     2
  9
$SPLFRAME
 70
     0
  9
$SPLINETYPE
 70
     6
  9
$SPLINESEGS
 70
     8
  9
$ATTDIA
 70
     0
  9
$ATTREQ
 70
     1
  9
$HANDLING
 70
 12289
  9
$HANDSEED
  5
15B2
  9
$SURFTAB1
 70
     6
  9
$SURFTAB2
 70
     6
  9
$SURFTYPE
 70
     6
  9
$SURFU
 70
     6
  9
$SURFV
 70
     6
  9
$UCSNAME
  2

  9
$UCSORG
 10
0.0
 20
0.0
 30
0.0
  9
$UCSXDIR
 10
1.0
 20
0.0
 30
0.0
  9
$UCSYDIR
 10
0.0
 20
1.0
 30
0.0
  9
$PUCSNAME
  2

  9
$PUCSORG
 10
0.0
 20
0.0
 30
0.0
  9
$PUCSXDIR
 10
1.0
 20
0.0
 30
0.0
  9
$PUCSYDIR
 10
0.0
 20
1.0
 30
0.0
  9
$USERI1
 70
     0
  9
$USERI2
 70
     0
  9
$USERI3
 70
     0
  9
$USERI4
 70
     0
  9
$USERI5
 70
     0
  9
$USERR1
 40
0.0
  9
$USERR2
 40
0.0
  9
$USERR3
 40
0.0
  9
$USERR4
 40
0.0
  9
$USERR5
 40
0.0
  9
$WORLDVIEW
 70
     1
  9
$SHADEDGE
 70
     3
  9
$SHADEDIF
 70
    70
  9
$TILEMODE
 70
     1
  9
$MAXACTVP
 70
    16
  9
$PINSBASE
 10
0.0
 20
0.0
 30
0.0
  9
$PLIMCHECK
 70
     0
  9
$PEXTMIN
 10
1.000000000000000E+20
 20
1.000000000000000E+20
 30
1.000000000000000E+20
  9
$PEXTMAX
 10
-1.000000000000000E+20
 20
-1.000000000000000E+20
 30
-1.000000000000000E+20
  9
$PLIMMIN
 10
-260.7499999999999
 20
-335.4999999999999
  9
$PLIMMAX
 10
-248.75
 20
-326.5
  9
$UNITMODE
 70
     0
  9
$VISRETAIN
 70
     0
  9
$PLINEGEN
 70
     0
  9
$PSLTSCALE
 70
     1
  9
$TREEDEPTH
 70
  3020
  9
$PICKSTYLE
 70
     1
  9
$CMLSTYLE
  2
STANDARD
  9
$CMLJUST
 70
     0
  9
$CMLSCALE
 40
1.0
  9
$PROXYGRAPHICS
 70
     1
  9
$MEASUREMENT
 70
     0
  0
ENDSEC
  0
SECTION
  2
CLASSES
  0
CLASS
  1
ACDBDICTIONARYWDFLT
  2
AcDbDictionaryWithDefault
  3
AutoCAD 2000
 90
        0
280
     0
281
     0
  0
CLASS
  1
ACDBPLACEHOLDER
  2
AcDbPlaceHolder
  3
AutoCAD 2000
 90
        0
280
     0
281
     0
  0
CLASS
  1
LAYOUT
  2
AcDbLayout
  3
AutoCAD 2000
 90
        0
280
     0
281
     0
  0
CLASS
  1
LONG_TRANSACTION
  2
AcDbLongTransaction
  3
AutoCAD 2000
 90
        0
280
     0
281
     0
  0
CLASS
  1
LWPOLYLINE
  2
AcDbPolyline
  3
AutoCAD 2000
 90
        0
280
     0
281
     1
  0
CLASS
  1
HATCH
  2
AcDbHatch
  3
AutoCAD 2000
 90
        0
280
     0
281
     1
  0
CLASS
  1
XRECORD
  2
AcDbXrecord
  3
AutoCAD 2000
 90
        0
280
     0
281
     0
  0
CLASS
  1
LONG_TRANSACTION
  2
AcDbLongTransaction
  3
AutoCAD 2000
 90
        0
280
     0
281
     0
  0
CLASS
  1
LWPOLYLINE
  2
AcDbPolyline
  3
AutoCAD 2000
 90
        0
280
     0
281
     1
  0
CLASS
  1
HATCH
  2
AcDbHatch
  3
AutoCAD 2000
 90
        0
280
     0
281
     1
  0
CLASS
  1
XRECORD
  2
AcDbXrecord
  3
AutoCAD 2000
 90
        0
280
     0
281
     0
  0
ENDSEC
  0
SECTION
  2
TABLES
  0
TABLE
  2
VPORT
  5
1188
330
0
100
AcDbSymbolTable
 70
     2
  0
VPORT
  5
158F
330
1188
100
AcDbSymbolTableRecord
100
AcDbViewportTableRecord
  2
*ACTIVE
 70
     0
 10
0.0
 20
0.0
 11
1.0
 21
1.0
 12
570.8717400677016
 22
617.6665827585155
 13
0.0
 23
0.0
 14
0.25
 24
0.25
 15
5.0
 25
5.0
 16
0.0
 26
0.0
 36
1.0
 17
-260.7499999999999
 27
-335.4999999999999
 37
0.0
 40
425.3599600032371
 41
1.481743227326266
 42
50.0
 43
0.0
 44
0.0
 50
0.0
 51
0.0
 71
     0
 72
   100
 73
     1
 74
     1
 75
     1
 76
     0
 77
     0
 78
     0
  0
ENDTAB
  0
TABLE
  2
LTYPE
  5
1185
330
0
100
AcDbSymbolTable
 70
     4
  0
LTYPE
  5
1193
330
1185
100
AcDbSymbolTableRecord
100
AcDbLinetypeTableRecord
  2
BYBLOCK
 70
     0
  3

 72
    65
 73
     0
 40
0.0
  0
LTYPE
  5
1194
330
1185
100
AcDbSymbolTableRecord
100
AcDbLinetypeTableRecord
  2
BYLAYER
 70
     0
  3

 72
    65
 73
     0
 40
0.0
  0
LTYPE
  5
1195
330
1185
100
AcDbSymbolTableRecord
100
AcDbLinetypeTableRecord
  2
CONTINUOUS
 70
     0
  3
Solid line
 72
    65
 73
     0
 40
0.0
  0
LTYPE
  5
11AA
330
1185
100
AcDbSymbolTableRecord
100
AcDbLinetypeTableRecord
  2
CENTER
 70
     0
  3
____ _ ____ _ ____ _ ____ _ ____ _ ____ _ ____ 
 72
    65
 73
     4
 40
2.0
 49
1.25
 74
     0
 49
-0.25
 74
     0
 49
0.25
 74
     0
 49
-0.25
 74
     0
  0
LTYPE
  5
11AB
330
1185
100
AcDbSymbolTableRecord
100
AcDbLinetypeTableRecord
  2
DASHED
 70
     0
  3
__ __ __ __ __ __ __ __ __ __ __ __ __ __ __ __
 72
    65
 73
     2
 40
0.75
 49
0.5
 74
     0
 49
-0.25
 74
     0
  0
LTYPE
  5
11AC
330
1185
100
AcDbSymbolTableRecord
100
AcDbLinetypeTableRecord
  2
PHANTOM
 70
     0
  3
______  __  __  ______  __  __  ______  __  __ 
 72
    65
 73
     6
 40
2.5
 49
1.25
 74
     0
 49
-0.25
 74
     0
 49
0.25
 74
     0
 49
-0.25
 74
     0
 49
0.25
 74
     0
 49
-0.25
 74
     0
  0
ENDTAB
  0
TABLE
  2
LAYER
  5
1182
330
0
100
AcDbSymbolTable
 70
     2
  0
LAYER
  5
1190
330
1182
100
AcDbSymbolTableRecord
100
AcDbLayerTableRecord
  2
0
 70
     0
 62
     7
  6
CONTINUOUS
  0
LAYER
  5
11B9
330
1182
100
AcDbSymbolTableRecord
100
AcDbLayerTableRecord
  2
PEF-250AG
 70
     0
 62
     7
  6
CONTINUOUS
  0
ENDTAB
  0
TABLE
  2
STYLE
  5
1183
330
0
100
AcDbSymbolTable
 70
     1
  0
STYLE
  5
1191
330
1183
100
AcDbSymbolTableRecord
100
AcDbTextStyleTableRecord
  2
STANDARD
 70
     0
 40
5.0
 41
1.0
 50
0.0
 71
     0
 42
3.0
  3
ROMANS
  4
HBRDS
  0
ENDTAB
  0
TABLE
  2
VIEW
  5
1186
330
0
100
AcDbSymbolTable
 70
     0
  0
ENDTAB
  0
TABLE
  2
UCS
  5
1187
330
0
100
AcDbSymbolTable
 70
     0
  0
ENDTAB
  0
TABLE
  2
APPID
  5
1189
330
0
100
AcDbSymbolTable
 70
     4
  0
APPID
  5
1192
330
1189
100
AcDbSymbolTableRecord
100
AcDbRegAppTableRecord
  2
ACAD
 70
     0
  0
APPID
  5
11BB
330
1189
100
AcDbSymbolTableRecord
100
AcDbRegAppTableRecord
  2
MCAD_NO_VIS
 70
     0
  0
APPID
  5
11BC
330
1189
100
AcDbSymbolTableRecord
100
AcDbRegAppTableRecord
  2
ACAD_TEMP_GRAPHIC
 70
     0
  0
APPID
  5
136C
330
1189
100
AcDbSymbolTableRecord
100
AcDbRegAppTableRecord
  2
DCO15
 70
     0
  0
ENDTAB
  0
TABLE
  2
DIMSTYLE
  5
118A
330
0
100
AcDbSymbolTable
 70
     1
  0
DIMSTYLE
105
11B7
330
118A
100
AcDbSymbolTableRecord
100
AcDbDimStyleTableRecord
  2
STANDARD
 70
     0
  3

  4

  5

  6

  7

 40
1.0
 41
0.18
 42
0.0625
 43
0.38
 44
0.18
 45
0.0
 46
0.0
 47
0.0
 48
0.0
140
0.18
141
0.09
142
0.0
143
25.4
144
1.0
145
0.0
146
1.0
147
0.09
 71
     0
 72
     0
 73
     1
 74
     1
 75
     0
 76
     0
 77
     0
 78
     0
170
     0
171
     2
172
     0
173
     0
174
     0
175
     0
176
     0
177
     0
178
     0
270
     2
271
     4
272
     4
273
     2
274
     2
340
1191
275
     0
280
     0
281
     0
282
     0
283
     1
284
     0
285
     0
286
     0
287
     3
288
     0
  0
ENDTAB
  0
TABLE
  2
BLOCK_RECORD
  5
1181
330
0
100
AcDbSymbolTable
 70
     0
  0
BLOCK_RECORD
  5
119E
102
{ACAD_XDICTIONARY
360
1586
102
}
330
1181
100
AcDbSymbolTableRecord
100
AcDbBlockTableRecord
  2
*MODEL_SPACE
  0
BLOCK_RECORD
  5
119A
102
{ACAD_XDICTIONARY
360
1584
102
}
330
1181
100
AcDbSymbolTableRecord
100
AcDbBlockTableRecord
  2
*PAPER_SPACE
  0
ENDTAB
  0
ENDSEC
  0
SECTION
  2
BLOCKS
  0
BLOCK
  5
11B2
330
119E
100
AcDbEntity
  8
0
100
AcDbBlockBegin
  2
*MODEL_SPACE
 70
     0
 10
0.0
 20
0.0
 30
0.0
  3
*MODEL_SPACE
  1

  0
ENDBLK
  5
11B3
330
119E
100
AcDbEntity
  8
0
100
AcDbBlockEnd
  0
BLOCK
  5
11B0
330
119A
100
AcDbEntity
 67
     1
  8
0
100
AcDbBlockBegin
  2
*PAPER_SPACE
 70
     0
 10
0.0
 20
0.0
 30
0.0
  3
*PAPER_SPACE
  1

  0
ENDBLK
  5
11B1
330
119A
100
AcDbEntity
 67
     1
  8
0
100
AcDbBlockEnd
  0
ENDSEC
  0
SECTION
  2
ENTITIES
  0
LINE
  5
1
330
119E
100
AcDbEntity
  8
PEF-250AG
100
AcDbLine
 10
571.75
 20
133.4119089345364
 30
0.0
 11
571.75
 21
146.1619089356763
 31
0.0
  0
LINE
  5
2
330
119E
100
AcDbEntity
  8
PEF-250AG
100
AcDbLine
 10
571.75
 20
150.9119089345364
 30
0.0
 11
563.0
 21
150.9119089345364
 31
0.0
  0
LINE
  5
3
330
119E
100
AcDbEntity
  8
PEF-250AG
100
AcDbLine
 10
471.75
 20
150.9119089345364
 30
0.0
 11
471.75
 21
133.4119089345364
 31
0.0
  0
LINE
  5
4
330
119E
100
AcDbEntity
  8
PEF-250AG
100
AcDbLine
 10
546.7499999999999
 20
230.9119089345363
 30
0.0
 11
565.6673583487084
 21
230.9119089345363
 31
0.0
  0
LINE
  5
5
330
119E
100
AcDbEntity
  8
PEF-250AG
  6
CENTER
100
AcDbLine
 10
521.75
 20
87.66190893453645
 30
0.0
 11
521.75
 21
268.6619089345364
 31
0.0
  0
LINE
  5
6
330
119E
100
AcDbEntity
  8
PEF-250AG
100
AcDbLine
 10
570.6701271081494
 20
151.8247419842555
 30
0.0
 11
567.6597457837007
 21
229.0862428350981
 31
0.0
  0
ARC
  5
7
330
119E
100
AcDbEntity
  8
PEF-250AG
100
AcDbCircle
 10
571.6663208256457
 20
151.9119089345364
 30
0.0
 40
1.0
100
AcDbArc
 50
185.000644597558
 51
270.0
  0
ARC
  5
8
330
119E
100
AcDbEntity
  8
PEF-250AG
100
AcDbCircle
 10
565.6673583487084
 20
228.9119089345363
 30
0.0
 40
2.0
100
AcDbArc
 50
5.000644597558436
 51
89.99999999999998
  0
LINE
  5
9
330
119E
100
AcDbEntity
  8
PEF-250AG
100
AcDbLine
 10
472.8298728918505
 20
151.8247419842555
 30
0.0
 11
475.8402542162992
 21
229.0862428350981
 31
0.0
  0
LINE
  5
A
330
119E
100
AcDbEntity
  8
PEF-250AG
100
AcDbLine
 10
496.75
 20
230.9119089345363
 30
0.0
 11
477.8326416512912
 21
230.9119089345363
 31
0.0
  0
ARC
  5
B
330
119E
100
AcDbEntity
  8
PEF-250AG
100
AcDbCircle
 10
477.8326416512912
 20
228.9119089345363
 30
0.0
 40
2.0
100
AcDbArc
 50
90.00000000000005
 51
174.9993554024414
  0
ARC
  5
C
330
119E
100
AcDbEntity
  8
PEF-250AG
100
AcDbCircle
 10
471.8336791743543
 20
151.9119089345364
 30
0.0
 40
1.0
100
AcDbArc
 50
270.0
 51
354.9993554024418
  0
LINE
  5
D
330
119E
100
AcDbEntity
  8
PEF-250AG
  6
CENTER
100
AcDbLine
 10
145.50000004712
 20
127.4119089356764
 30
0.0
 11
162.2500000439374
 21
127.4119089356764
 31
0.0
  0
LINE
  5
E
330
119E
100
AcDbEntity
  8
PEF-250AG
100
AcDbLine
 10
192.2454000382383
 20
117.2119089376145
 30
0.0
 11
143.4940486961497
 21
117.2119089376145
 31
0.0
  0
LINE
  5
F
330
119E
100
AcDbEntity
  8
PEF-250AG
100
AcDbLine
 10
144.2128129670076
 20
133.4119089345364
 30
0.0
 11
3.5000000741
 21
133.4119089345364
 31
0.0
  0
LINE
  5
10
330
119E
100
AcDbEntity
  8
PEF-250AG
100
AcDbLine
 10
231.5000000307799
 20
93.9119089420415
 30
0.0
 11
65.50000006232005
 21
93.9119089420415
 31
0.0
  0
LINE
  5
11
330
119E
100
AcDbEntity
  8
PEF-250AG
100
AcDbLine
 10
393.5
 20
114.9119089380514
 30
0.0
 11
130.5000000499699
 21
114.9119089380514
 31
0.0
  0
LINE
  5
12
330
119E
100
AcDbEntity
  8
PEF-250AG
100
AcDbLine
 10
296.5940107859971
 20
100.9119089407114
 30
0.0
 11
250.4059892596028
 21
100.9119089407114
 31
0.0
  0
LINE
  5
13
330
119E
100
AcDbEntity
  8
PEF-250AG
100
AcDbLine
 10
393.5
 20
91.91190894242149
 30
0.0
 11
233.5000000303999
 21
91.91190894242149
 31
0.0
  0
ARC
  5
14
330
119E
100
AcDbEntity
  8
PEF-250AG
100
AcDbCircle
 10
333.5000000114
 20
127.4119089356764
 30
0.0
 40
2.999999999429998
100
AcDbArc
 50
9.462322208025618
 51
270.0
  0
CIRCLE
  5
15
330
119E
100
AcDbEntity
  8
PEF-250AG
100
AcDbCircle
 10
333.5000000114
 20
127.4119089356764
 30
0.0
 40
1.999999999619998
  0
LINE
  5
16
330
119E
100
AcDbEntity
  8
PEF-250AG
  6
CENTER
100
AcDbLine
 10
325.8380911099233
 20
127.4119089356764
 30
0.0
 11
341.1619089812763
 21
127.4119089356764
 31
0.0
  0
LINE
  5
17
330
119E
100
AcDbEntity
  8
PEF-250AG
100
AcDbLine
 10
372.4999517367996
 20
117.2119089376145
 30
0.0
 11
323.7486486619013
 21
117.2119089376145
 31
0.0
  0
LINE
  5
19
330
119E
100
AcDbEntity
  8
PEF-250AG
100
AcDbLine
 10
393.5
 20
91.91190894242149
 30
0.0
 11
393.5
 21
114.9119089380514
 31
0.0
  0
LINE
  5
1E
330
119E
100
AcDbEntity
  8
PEF-250AG
100
AcDbLine
 10
372.4999517367996
 20
117.2119089376145
 30
0.0
 11
372.4999517367996
 21
114.9119089380514
 31
0.0
  0
LINE
  5
1F
330
119E
100
AcDbEntity
  8
PEF-250AG
  6
CENTER
100
AcDbLine
 10
333.5000000114
 20
119.75
 30
0.0
 11
333.5000000114
 21
135.0738178713529
 31
0.0
  0
LINE
  5
28
330
119E
100
AcDbEntity
  8
PEF-250AG
  6
CENTER
100
AcDbLine
 10
273.5000000228
 20
71.41190894341902
 30
0.0
 11
273.5000000228
 21
118.9119089372915
 31
0.0
  0
LINE
  5
29
330
119E
100
AcDbEntity
  8
PEF-250AG
100
AcDbLine
 10
298.9034118623168
 20
114.9119089380514
 30
0.0
 11
296.5940107859971
 21
100.9119089407114
 31
0.0
  0
LINE
  5
2A
330
119E
100
AcDbEntity
  8
PEF-250AG
  6
DASHED
100
AcDbLine
 10
277.000000022135
 20
91.91190894242149
 30
0.0
 11
277.000000022135
 21
100.9119089407114
 31
0.0
  0
LINE
  5
2B
330
119E
100
AcDbEntity
  8
PEF-250AG
100
AcDbLine
 10
323.5000000133
 20
114.9119089380514
 30
0.0
 11
323.7702702833134
 21
117.4119089356764
 31
0.0
  0
LINE
  5
2C
330
119E
100
AcDbEntity
  8
PEF-250AG
100
AcDbLine
 10
248.096588183283
 20
114.9119089380514
 30
0.0
 11
250.4059892596028
 21
100.9119089407114
 31
0.0
  0
LINE
  5
2D
330
119E
100
AcDbEntity
  8
PEF-250AG
  6
DASHED
100
AcDbLine
 10
270.0000000234648
 20
91.91190894242149
 30
0.0
 11
270.0000000234648
 21
100.9119089407114
 31
0.0
  0
ARC
  5
2E
330
119E
100
AcDbEntity
  8
PEF-250AG
100
AcDbCircle
 10
231.5000000307799
 20
91.91190894242149
 30
0.0
 40
1.999999999619998
100
AcDbArc
 50
0.0
 51
90.0
  0
LINE
  5
30
330
119E
100
AcDbEntity
  8
PEF-250AG
100
AcDbLine
 10
192.2454000382383
 20
117.2119089376145
 30
0.0
 11
192.2454000382383
 21
114.9119089380514
 31
0.0
  0
LINE
  5
31
330
119E
100
AcDbEntity
  8
PEF-250AG
  6
CENTER
100
AcDbLine
 10
153.5000000455999
 20
118.9119089372915
 30
0.0
 11
153.5000000455999
 21
136.0
 31
0.0
  0
CIRCLE
  5
32
330
119E
100
AcDbEntity
  8
PEF-250AG
100
AcDbCircle
 10
153.5000000455999
 20
127.4119089356764
 30
0.0
 40
1.999999999619998
  0
ARC
  5
33
330
119E
100
AcDbEntity
  8
PEF-250AG
100
AcDbCircle
 10
153.5000000455999
 20
127.4119089356764
 30
0.0
 40
2.999999999429998
100
AcDbArc
 50
9.462322208025618
 51
270.0
  0
LINE
  5
34
330
119E
100
AcDbEntity
  8
PEF-250AG
100
AcDbLine
 10
28.50000006934999
 20
100.9119089407114
 30
0.0
 11
3.5000000741
 21
100.9119089407114
 31
0.0
  0
LINE
  5
35
330
119E
100
AcDbEntity
  8
PEF-250AG
100
AcDbLine
 10
63.50000006270011
 20
91.91190894242149
 30
0.0
 11
3.5000000741
 21
91.91190894242149
 31
0.0
  0
LINE
  5
36
330
119E
100
AcDbEntity
  8
PEF-250AG
  6
DASHED
100
AcDbLine
 10
118.50000005225
 20
118.4119089373863
 30
0.0
 11
3.5000000741
 21
118.4119089373863
 31
0.0
  0
LINE
  5
37
330
119E
100
AcDbEntity
  8
PEF-250AG
100
AcDbLine
 10
128.7702703205687
 20
130.9119089350115
 30
0.0
 11
29.54161653494258
 21
130.9119089350115
 31
0.0
  0
LINE
  5
38
330
119E
100
AcDbEntity
  8
PEF-250AG
  6
DASHED
100
AcDbLine
 10
118.50000005225
 20
118.4119089373863
 30
0.0
 11
118.50000005225
 21
93.9119089420415
 31
0.0
  0
LINE
  5
39
330
119E
100
AcDbEntity
  8
PEF-250AG
100
AcDbLine
 10
128.50000005035
 20
133.4119089345364
 30
0.0
 11
130.5000000499699
 21
114.9119089380514
 31
0.0
  0
LINE
  5
3A
330
119E
100
AcDbEntity
  8
PEF-250AG
100
AcDbLine
 10
143.2454000475483
 20
114.9119089380514
 30
0.0
 11
144.9485542326262
 21
130.6660851500224
 31
0.0
  0
LINE
  5
3B
330
119E
100
AcDbEntity
  8
PEF-250AG
  6
DASHED
100
AcDbLine
 10
103.5000000551
 20
133.4119089345364
 30
0.0
 11
103.5000000551
 21
118.4119089373863
 31
0.0
  0
LINE
  5
3C
330
119E
100
AcDbEntity
  8
PEF-250AG
100
AcDbLine
 10
28.50000006934999
 20
100.9119089407114
 30
0.0
 11
31.50000006878014
 21
133.4119089345364
 31
0.0
  0
ARC
  5
3D
330
119E
100
AcDbEntity
  8
PEF-250AG
100
AcDbCircle
 10
65.50000006232005
 20
91.91190894242149
 30
0.0
 40
1.999999999619998
100
AcDbArc
 50
90.0
 51
180.0
  0
LINE
  5
3E
330
119E
100
AcDbEntity
  8
PEF-250AG
100
AcDbLine
 10
29.54161653494258
 20
133.4119089345364
 30
0.0
 11
29.54161653494258
 21
130.9119089350115
 31
0.0
  0
LINE
  5
3F
330
119E
100
AcDbEntity
  8
PEF-250AG
100
AcDbLine
 10
3.5000000741
 20
91.91190894242149
 30
0.0
 11
3.5000000741
 21
133.4119089345364
 31
0.0
  0
LINE
  5
40
330
119E
100
AcDbEntity
  8
PEF-250AG
  6
CENTER
100
AcDbLine
 10
13.50000007220006
 20
71.16190894337155
 30
0.0
 11
13.50000007220006
 21
113.911908939619
 31
0.0
  0
LINE
  5
41
330
119E
100
AcDbEntity
  8
PEF-250AG
  6
DASHED
100
AcDbLine
 10
17.000000071535
 20
100.9119089407114
 30
0.0
 11
17.000000071535
 21
91.91190894242149
 31
0.0
  0
LINE
  5
42
330
119E
100
AcDbEntity
  8
PEF-250AG
  6
DASHED
100
AcDbLine
 10
10.00000007286502
 20
100.9119089407114
 30
0.0
 11
10.00000007286502
 21
91.91190894242149
 31
0.0
  0
LINE
  5
43
330
119E
100
AcDbEntity
  8
PEF-250AG
100
AcDbLine
 10
157.7500000474999
 20
430.3536940277036
 30
0.0
 11
206.7500000381898
 21
430.3536940277036
 31
0.0
  0
LINE
  5
44
330
119E
100
AcDbEntity
  8
PEF-250AG
100
AcDbLine
 10
157.7500000474999
 20
427.3536940282737
 30
0.0
 11
206.7500000381898
 21
427.3536940282737
 31
0.0
  0
LINE
  5
45
330
119E
100
AcDbEntity
  8
PEF-250AG
100
AcDbLine
 10
157.7500000474999
 20
354.3536940421438
 30
0.0
 11
206.7500000381898
 21
354.3536940421438
 31
0.0
  0
LINE
  5
46
330
119E
100
AcDbEntity
  8
PEF-250AG
100
AcDbLine
 10
159.75000004712
 20
357.3536940415738
 30
0.0
 11
206.7500000381898
 21
357.3536940415738
 31
0.0
  0
LINE
  5
47
330
119E
100
AcDbEntity
  8
PEF-250AG
100
AcDbLine
 10
17.7500000741
 20
442.3536940254238
 30
0.0
 11
407.7499999999998
 21
442.3536940254238
 31
0.0
  0
LINE
  5
48
330
119E
100
AcDbEntity
  8
PEF-250AG
100
AcDbLine
 10
17.7500000741
 20
342.3536940444238
 30
0.0
 11
407.7499999999998
 21
342.3536940444238
 31
0.0
  0
LINE
  5
49
330
119E
100
AcDbEntity
  8
PEF-250AG
100
AcDbLine
 10
206.7500000381898
 20
354.3536940421438
 30
0.0
 11
206.7500000381898
 21
357.3536940349237
 31
0.0
  0
LINE
  5
4A
330
119E
100
AcDbEntity
  8
PEF-250AG
100
AcDbLine
 10
271.0068422156426
 20
427.3536940349237
 30
0.0
 11
262.3465881832832
 21
442.3536940254238
 31
0.0
  0
LINE
  5
4B
330
119E
100
AcDbEntity
  8
PEF-250AG
100
AcDbLine
 10
273.3162432919623
 20
427.3536940349237
 30
0.0
 11
264.6559892596028
 21
442.3536940254238
 31
0.0
  0
LINE
  5
4C
330
119E
100
AcDbEntity
  8
PEF-250AG
  6
CENTER
100
AcDbLine
 10
287.7500000228
 20
294.2499999999999
 30
0.0
 11
287.7500000228
 21
490.2499999999998
 31
0.0
  0
LINE
  5
4D
330
119E
100
AcDbEntity
  8
PEF-250AG
100
AcDbLine
 10
386.7500000039898
 20
354.3536940421438
 30
0.0
 11
386.7500000039898
 21
430.3536940277036
 31
0.0
  0
LINE
  5
4E
330
119E
100
AcDbEntity
  8
PEF-250AG
100
AcDbLine
 10
337.7500000133
 20
354.3536940421438
 30
0.0
 11
337.7500000133
 21
357.3536940349237
 31
0.0
  0
LINE
  5
4F
330
119E
100
AcDbEntity
  8
PEF-250AG
100
AcDbLine
 10
302.1837567536375
 20
427.3536940349237
 30
0.0
 11
310.8440107859971
 21
442.3536940254238
 31
0.0
  0
LINE
  5
50
330
119E
100
AcDbEntity
  8
PEF-250AG
100
AcDbLine
 10
304.4931578299572
 20
427.3536940349237
 30
0.0
 11
313.1534118623168
 21
442.3536940254238
 31
0.0
  0
LINE
  5
51
330
119E
100
AcDbEntity
  8
PEF-250AG
100
AcDbLine
 10
407.7499999999998
 20
342.3536940444238
 30
0.0
 11
407.7499999999998
 21
442.3536940254238
 31
0.0
  0
LINE
  5
52
330
119E
100
AcDbEntity
  8
PEF-250AG
100
AcDbLine
 10
304.4931578299573
 20
357.3536940349237
 30
0.0
 11
313.1534118623168
 21
342.3536940444238
 31
0.0
  0
LINE
  5
53
330
119E
100
AcDbEntity
  8
PEF-250AG
100
AcDbLine
 10
302.1837567536375
 20
357.3536940349237
 30
0.0
 11
310.8440107859971
 21
342.3536940444238
 31
0.0
  0
LINE
  5
54
330
119E
100
AcDbEntity
  8
PEF-250AG
100
AcDbLine
 10
337.7500000133
 20
427.3536940282737
 30
0.0
 11
386.7500000039898
 21
427.3536940282737
 31
0.0
  0
LINE
  5
55
330
119E
100
AcDbEntity
  8
PEF-250AG
100
AcDbLine
 10
337.7500000133
 20
354.3536940421438
 30
0.0
 11
386.7500000039898
 21
354.3536940421438
 31
0.0
  0
LINE
  5
56
330
119E
100
AcDbEntity
  8
PEF-250AG
100
AcDbLine
 10
339.7500000129198
 20
357.3536940415738
 30
0.0
 11
386.7500000039898
 21
357.3536940415738
 31
0.0
  0
LINE
  5
57
330
119E
100
AcDbEntity
  8
PEF-250AG
100
AcDbLine
 10
378.6637748209516
 20
357.3536940415738
 30
0.0
 11
378.6637748209516
 21
427.3536940282737
 31
0.0
  0
LINE
  5
58
330
119E
100
AcDbEntity
  8
PEF-250AG
100
AcDbLine
 10
382.7366025451308
 20
357.3536940415738
 30
0.0
 11
382.7366025451308
 21
427.3536940282737
 31
0.0
  0
LINE
  5
59
330
119E
100
AcDbEntity
  8
PEF-250AG
  6
CENTER
100
AcDbLine
 10
388.5000000036573
 20
372.3536940387239
 30
0.0
 11
373.2500000065549
 21
372.3536940387239
 31
0.0
  0
LINE
  5
5A
330
119E
100
AcDbEntity
  8
PEF-250AG
  6
CENTER
100
AcDbLine
 10
380.8609581984693
 20
365.6036940400064
 30
0.0
 11
380.8609581984693
 21
379.3536940373939
 31
0.0
  0
LINE
  5
5B
330
119E
100
AcDbEntity
  8
PEF-250AG
  6
CENTER
100
AcDbLine
 10
388.5000000036573
 20
412.3536940311238
 30
0.0
 11
373.2500000065549
 21
412.3536940311238
 31
0.0
  0
LINE
  5
5C
330
119E
100
AcDbEntity
  8
PEF-250AG
  6
CENTER
100
AcDbLine
 10
380.8609581984693
 20
405.3536940324538
 30
0.0
 11
380.8609581984693
 21
419.1036940298413
 31
0.0
  0
LINE
  5
5D
330
119E
100
AcDbEntity
  8
PEF-250AG
100
AcDbLine
 10
339.7500000129198
 20
357.3536940415738
 30
0.0
 11
337.7500000133
 21
357.3536940415738
 31
0.0
  0
ARC
  5
5E
330
119E
100
AcDbEntity
  8
PEF-250AG
100
AcDbCircle
 10
287.7500000228
 20
392.3536940349237
 30
0.0
 40
1.999999999619998
100
AcDbArc
 50
7.125016348901787
 51
275.7105931374997
  0
CIRCLE
  5
5F
330
119E
100
AcDbEntity
  8
PEF-250AG
100
AcDbCircle
 10
287.7500000228
 20
392.3536940349237
 30
0.0
 40
1.249999999762499
  0
LINE
  5
60
330
119E
100
AcDbEntity
  8
PEF-250AG
100
AcDbLine
 10
273.3162432919623
 20
357.3536940349237
 30
0.0
 11
264.6559892596028
 21
342.3536940444238
 31
0.0
  0
LINE
  5
61
330
119E
100
AcDbEntity
  8
PEF-250AG
100
AcDbLine
 10
271.0068422156425
 20
357.3536940349237
 30
0.0
 11
262.3465881832832
 21
342.3536940444238
 31
0.0
  0
LINE
  5
62
330
119E
100
AcDbEntity
  8
PEF-250AG
100
AcDbLine
 10
337.7500000133
 20
430.3536940277036
 30
0.0
 11
386.7500000039898
 21
430.3536940277036
 31
0.0
  0
LINE
  5
63
330
119E
100
AcDbEntity
  8
PEF-250AG
100
AcDbLine
 10
17.7500000741
 20
342.3536940444238
 30
0.0
 11
17.7500000741
 21
442.3536940254238
 31
0.0
  0
LINE
  5
64
330
119E
100
AcDbEntity
  8
PEF-250AG
  6
CENTER
100
AcDbLine
 10
27.75000007220006
 20
419.8536940290336
 30
0.0
 11
27.75000007220006
 21
493.3536940256613
 31
0.0
  0
LINE
  5
65
330
119E
100
AcDbEntity
  8
PEF-250AG
100
AcDbLine
 10
157.7500000474999
 20
427.3536940349237
 30
0.0
 11
157.7500000474999
 21
430.3536940277036
 31
0.0
  0
LINE
  5
66
330
119E
100
AcDbEntity
  8
PEF-250AG
100
AcDbLine
 10
142.7500000503499
 20
419.3536940297937
 30
0.0
 11
142.7500000503499
 21
442.3536940254238
 31
0.0
  0
LINE
  5
67
330
119E
100
AcDbEntity
  8
PEF-250AG
100
AcDbLine
 10
144.7500000499699
 20
421.3536940294138
 30
0.0
 11
144.7500000499699
 21
442.3536940254238
 31
0.0
  0
LINE
  5
68
330
119E
100
AcDbEntity
  8
PEF-250AG
  6
DASHED
100
AcDbLine
 10
17.7500000741
 20
402.3536940330238
 30
0.0
 11
122.7500000541499
 21
402.3536940330238
 31
0.0
  0
LINE
  5
69
330
119E
100
AcDbEntity
  8
PEF-250AG
  6
DASHED
100
AcDbLine
 10
17.7500000741
 20
382.3536940368238
 30
0.0
 11
122.7500000541499
 21
382.3536940368238
 31
0.0
  0
LINE
  5
6A
330
119E
100
AcDbEntity
  8
PEF-250AG
100
AcDbLine
 10
142.7500000503499
 20
342.3536940444238
 30
0.0
 11
142.7500000503499
 21
365.3536940400537
 31
0.0
  0
LINE
  5
6B
330
119E
100
AcDbEntity
  8
PEF-250AG
100
AcDbLine
 10
144.7500000499699
 20
342.3536940444238
 30
0.0
 11
144.7500000499699
 21
363.3536940404338
 31
0.0
  0
LINE
  5
6C
330
119E
100
AcDbEntity
  8
PEF-250AG
  6
DASHED
100
AcDbLine
 10
47.75000006840001
 20
397.3536940339738
 30
0.0
 11
112.75000005605
 21
397.3536940339738
 31
0.0
  0
LINE
  5
6D
330
119E
100
AcDbEntity
  8
PEF-250AG
  6
DASHED
100
AcDbLine
 10
47.75000006840001
 20
387.3536940358738
 30
0.0
 11
112.75000005605
 21
387.3536940358738
 31
0.0
  0
LINE
  5
6E
330
119E
100
AcDbEntity
  8
PEF-250AG
  6
CENTER
100
AcDbLine
 10
112.75000005605
 20
381.1036940370613
 30
0.0
 11
112.75000005605
 21
404.6036940325963
 31
0.0
  0
LINE
  5
6F
330
119E
100
AcDbEntity
  8
PEF-250AG
  6
CENTER
100
AcDbLine
 10
122.7500000541499
 20
376.6036940379164
 30
0.0
 11
122.7500000541499
 21
407.3536940320738
 31
0.0
  0
ARC
  5
70
330
119E
100
AcDbEntity
  8
PEF-250AG
  6
DASHED
100
AcDbCircle
 10
122.7500000541499
 20
392.3536940349237
 30
0.0
 40
9.999999998099998
100
AcDbArc
 50
270.0
 51
90.0
  0
ARC
  5
71
330
119E
100
AcDbEntity
  8
PEF-250AG
  6
DASHED
100
AcDbCircle
 10
112.75000005605
 20
392.3536940349237
 30
0.0
 40
4.999999999049999
100
AcDbArc
 50
270.0
 51
90.0
  0
ARC
  5
72
330
119E
100
AcDbEntity
  8
PEF-250AG
100
AcDbCircle
 10
144.7500000499699
 20
365.3536940400537
 30
0.0
 40
1.999999999619998
100
AcDbArc
 50
90.0
 51
180.0
  0
ARC
  5
73
330
119E
100
AcDbEntity
  8
PEF-250AG
100
AcDbCircle
 10
146.7500000495899
 20
363.3536940404338
 30
0.0
 40
1.999999999619998
100
AcDbArc
 50
90.00000000000012
 51
180.0
  0
LINE
  5
74
330
119E
100
AcDbEntity
  8
PEF-250AG
100
AcDbLine
 10
157.7500000474999
 20
354.3536940421438
 30
0.0
 11
157.7500000474999
 21
357.3536940349237
 31
0.0
  0
LINE
  5
75
330
119E
100
AcDbEntity
  8
PEF-250AG
100
AcDbLine
 10
146.7500000495899
 20
365.3536940400537
 30
0.0
 11
155.7500000478798
 21
365.3536940400538
 31
0.0
  0
ARC
  5
76
330
119E
100
AcDbEntity
  8
PEF-250AG
100
AcDbCircle
 10
155.7500000478798
 20
363.353694040434
 30
0.0
 40
1.999999999619998
100
AcDbArc
 50
67.87929169921524
 51
90.0000000000003
  0
LINE
  5
77
330
119E
100
AcDbEntity
  8
PEF-250AG
100
AcDbLine
 10
159.75000004712
 20
357.3536940415738
 30
0.0
 11
157.7500000474999
 21
357.3536940415738
 31
0.0
  0
LINE
  5
78
330
119E
100
AcDbEntity
  8
PEF-250AG
100
AcDbLine
 10
144.7500000499699
 20
367.3536940396738
 30
0.0
 11
156.5031182716924
 21
367.3536940396738
 31
0.0
  0
ARC
  5
79
330
119E
100
AcDbEntity
  8
PEF-250AG
100
AcDbCircle
 10
146.7500000495899
 20
421.3536940294138
 30
0.0
 40
1.999999999619998
100
AcDbArc
 50
180.0
 51
270.0
  0
LINE
  5
7A
330
119E
100
AcDbEntity
  8
PEF-250AG
100
AcDbLine
 10
144.7500000499699
 20
417.3536940301739
 30
0.0
 11
156.5031182716924
 21
417.3536940301739
 31
0.0
  0
ARC
  5
7B
330
119E
100
AcDbEntity
  8
PEF-250AG
100
AcDbCircle
 10
155.7500000478798
 20
421.3536940294138
 30
0.0
 40
1.999999999619998
100
AcDbArc
 50
270.0
 51
292.1207083007848
  0
LINE
  5
7C
330
119E
100
AcDbEntity
  8
PEF-250AG
100
AcDbLine
 10
146.7500000495899
 20
419.3536940297937
 30
0.0
 11
155.7500000478798
 21
419.3536940297937
 31
0.0
  0
ARC
  5
7D
330
119E
100
AcDbEntity
  8
PEF-250AG
100
AcDbCircle
 10
144.7500000499699
 20
419.3536940297937
 30
0.0
 40
1.999999999619998
100
AcDbArc
 50
180.0
 51
270.0
  0
LINE
  5
7E
330
119E
100
AcDbEntity
  8
PEF-250AG
  6
CENTER
100
AcDbLine
 10
47.75000006840001
 20
381.1036940370613
 30
0.0
 11
47.75000006840001
 21
404.6036940325963
 31
0.0
  0
ARC
  5
7F
330
119E
100
AcDbEntity
  8
PEF-250AG
  6
DASHED
100
AcDbCircle
 10
47.75000006840001
 20
392.3536940349237
 30
0.0
 40
4.999999999049999
100
AcDbArc
 50
90.0
 51
270.0
  0
LINE
  5
80
330
119E
100
AcDbEntity
  8
PEF-250AG
  6
CENTER
100
AcDbLine
 10
13.50000007386251
 20
432.3536940273238
 30
0.0
 11
42.00000007049005
 21
432.3536940273238
 31
0.0
  0
LINE
  5
81
330
119E
100
AcDbEntity
  8
PEF-250AG
100
AcDbLine
 10
47.59996306447242
 20
230.9119089350114
 30
0.0
 11
105.5294107036522
 21
230.9119089350115
 31
0.0
  0
LINE
  5
82
330
119E
100
AcDbEntity
  8
PEF-250AG
100
AcDbLine
 10
3.5000000741
 20
150.9119089350114
 30
0.0
 11
128.5000000741
 21
150.9119089350114
 31
0.0
  0
LINE
  5
83
330
119E
100
AcDbEntity
  8
PEF-250AG
100
AcDbLine
 10
128.5000000741
 20
150.9119089350114
 30
0.0
 11
107.4612623562304
 21
229.4295470252165
 31
0.0
  0
LINE
  5
84
330
119E
100
AcDbEntity
  8
PEF-250AG
100
AcDbLine
 10
128.5000000741
 20
130.9119089350115
 30
0.0
 11
128.5000000741
 21
150.9119089350114
 31
0.0
  0
ARC
  5
85
330
119E
100
AcDbEntity
  8
PEF-250AG
100
AcDbCircle
 10
105.5294107036522
 20
228.9119089350115
 30
0.0
 40
2.0
100
AcDbArc
 50
14.99999999999998
 51
90.00000000000005
  0
LINE
  5
86
330
119E
100
AcDbEntity
  8
PEF-250AG
  6
DASHED
100
AcDbLine
 10
98.50000007410001
 20
132.9119089350115
 30
0.0
 11
98.50000007410001
 21
230.9119089350115
 31
0.0
  0
LINE
  5
87
330
119E
100
AcDbEntity
  8
PEF-250AG
  6
DASHED
100
AcDbLine
 10
88.50000007410001
 20
132.9119089350115
 30
0.0
 11
88.50000007410001
 21
230.9119089350115
 31
0.0
  0
LINE
  5
88
330
119E
100
AcDbEntity
  8
PEF-250AG
100
AcDbLine
 10
46.59996306447243
 20
230.6439597425803
 30
0.0
 11
9.402616905666775
 21
209.1680619246542
 31
0.0
  0
ARC
  5
89
330
119E
100
AcDbEntity
  8
PEF-250AG
100
AcDbCircle
 10
10.40261690566677
 20
207.4360111170853
 30
0.0
 40
2.0
100
AcDbArc
 50
119.9999999999999
 51
175.050389316613
  0
ARC
  5
8A
330
119E
100
AcDbEntity
  8
PEF-250AG
100
AcDbCircle
 10
47.59996306447242
 20
228.9119089350114
 30
0.0
 40
2.0
100
AcDbArc
 50
90.0
 51
119.9999999999999
  0
LINE
  5
8B
330
119E
100
AcDbEntity
  8
PEF-250AG
  6
DASHED
100
AcDbLine
 10
3.5000000741
 20
132.9119089350115
 30
0.0
 11
128.5000000741
 21
132.9119089350115
 31
0.0
  0
LINE
  5
8C
330
119E
100
AcDbEntity
  8
PEF-250AG
100
AcDbLine
 10
3.5000000741
 20
130.9119089350115
 30
0.0
 11
128.5000000741
 21
130.9119089350115
 31
0.0
  0
LINE
  5
8D
330
119E
100
AcDbEntity
  8
PEF-250AG
100
AcDbLine
 10
3.5000000741
 20
150.9119089350114
 30
0.0
 11
8.410074980119871
 21
207.6085703096481
 31
0.0
  0
LINE
  5
8E
330
119E
100
AcDbEntity
  8
PEF-250AG
100
AcDbLine
 10
3.5000000741
 20
130.9119089350115
 30
0.0
 11
3.5000000741
 21
150.9119089350114
 31
0.0
  0
LINE
  5
94
330
119E
100
AcDbEntity
  8
PEF-250AG
100
AcDbLine
 10
156.5031182716924
 20
427.3536940349237
 30
0.0
 11
352.7499999999998
 21
427.3536940349237
 31
0.0
  0
LINE
  5
95
330
119E
100
AcDbEntity
  8
PEF-250AG
100
AcDbLine
 10
338.5
 20
261.9119089424215
 30
0.0
 11
148.4232932767088
 21
261.9119089424215
 31
0.0
  0
LINE
  5
96
330
119E
100
AcDbEntity
  8
PEF-250AG
100
AcDbLine
 10
156.5031182716924
 20
357.3536940349237
 30
0.0
 11
352.7499999999998
 21
357.3536940349237
 31
0.0
  0
LINE
  5
97
330
119E
100
AcDbEntity
  8
PEF-250AG
  6
CENTER
100
AcDbLine
 10
196.9798249949836
 20
401.3536940349237
 30
0.0
 11
196.9798249949836
 21
383.3536940349237
 31
0.0
  0
LINE
  5
98
330
119E
100
AcDbEntity
  8
PEF-250AG
  6
CENTER
100
AcDbLine
 10
256.9798249949835
 20
401.3536940349237
 30
0.0
 11
256.9798249949835
 21
383.3536940349237
 31
0.0
  0
LINE
  5
99
330
119E
100
AcDbEntity
  8
PEF-250AG
  6
CENTER
100
AcDbLine
 10
316.9798249949834
 20
401.3536940349237
 30
0.0
 11
316.9798249949834
 21
383.3536940349237
 31
0.0
  0
LINE
  5
9A
330
119E
100
AcDbEntity
  8
PEF-250AG
100
AcDbLine
 10
346.5798249949836
 20
357.3536940349237
 30
0.0
 11
346.5798249949836
 21
427.3536940349237
 31
0.0
  0
LINE
  5
9B
330
119E
100
AcDbEntity
  8
PEF-250AG
100
AcDbLine
 10
352.7499999999998
 20
357.3536940349237
 30
0.0
 11
352.7499999999998
 21
427.3536940349237
 31
0.0
  0
LINE
  5
9D
330
119E
100
AcDbEntity
  8
PEF-250AG
  6
DASHED
100
AcDbLine
 10
312.9
 20
261.9119089424215
 30
0.0
 11
312.9
 21
259.4119089356762
 31
0.0
  0
LINE
  5
9E
330
119E
100
AcDbEntity
  8
PEF-250AG
  6
DASHED
100
AcDbLine
 10
304.8999999999998
 20
261.9119089424215
 30
0.0
 11
304.8999999999999
 21
259.4119089356762
 31
0.0
  0
LINE
  5
9F
330
119E
100
AcDbEntity
  8
PEF-250AG
  6
DASHED
100
AcDbLine
 10
311.6499999999998
 20
259.4119089356762
 30
0.0
 11
311.6499999999998
 21
261.9119089424215
 31
0.0
  0
LINE
  5
A0
330
119E
100
AcDbEntity
  8
PEF-250AG
  6
DASHED
100
AcDbLine
 10
306.1499999999998
 20
259.4119089356762
 30
0.0
 11
306.1499999999998
 21
261.9119089424215
 31
0.0
  0
LINE
  5
A1
330
119E
100
AcDbEntity
  8
PEF-250AG
  6
CENTER
100
AcDbLine
 10
308.8999999999998
 20
266.4119089424215
 30
0.0
 11
308.8999999999998
 21
259.4119089356762
 31
0.0
  0
LINE
  5
A9
330
119E
100
AcDbEntity
  8
PEF-250AG
  6
CENTER
100
AcDbLine
 10
355.6641455259581
 20
372.3536940349237
 30
0.0
 11
345.6641455259581
 21
372.3536940349237
 31
0.0
  0
LINE
  5
AA
330
119E
100
AcDbEntity
  8
PEF-250AG
  6
CENTER
100
AcDbLine
 10
350.6794476391796
 20
367.1286940349236
 30
0.0
 11
350.6794476391796
 21
377.5786940349238
 31
0.0
  0
LINE
  5
AE
330
119E
100
AcDbEntity
  8
PEF-250AG
  6
DASHED
100
AcDbLine
 10
192.8999999999999
 20
261.9119089424215
 30
0.0
 11
192.8999999999998
 21
259.4119089356762
 31
0.0
  0
LINE
  5
AF
330
119E
100
AcDbEntity
  8
PEF-250AG
  6
DASHED
100
AcDbLine
 10
191.6499999999999
 20
259.4119089356762
 30
0.0
 11
191.6499999999999
 21
261.9119089424215
 31
0.0
  0
LINE
  5
B0
330
119E
100
AcDbEntity
  8
PEF-250AG
  6
DASHED
100
AcDbLine
 10
186.1499999999999
 20
259.4119089356762
 30
0.0
 11
186.1499999999999
 21
261.9119089424215
 31
0.0
  0
LINE
  5
B1
330
119E
100
AcDbEntity
  8
PEF-250AG
  6
DASHED
100
AcDbLine
 10
184.8999999999999
 20
261.9119089424215
 30
0.0
 11
184.8999999999999
 21
259.4119089356762
 31
0.0
  0
LINE
  5
B2
330
119E
100
AcDbEntity
  8
PEF-250AG
  6
CENTER
100
AcDbLine
 10
188.8999999999999
 20
266.4119089424215
 30
0.0
 11
188.8999999999999
 21
259.4119089356762
 31
0.0
  0
LINE
  5
B3
330
119E
100
AcDbEntity
  8
PEF-250AG
  6
DASHED
100
AcDbLine
 10
244.8999999999999
 20
261.9119089424215
 30
0.0
 11
244.8999999999999
 21
259.4119089356762
 31
0.0
  0
LINE
  5
B4
330
119E
100
AcDbEntity
  8
PEF-250AG
  6
DASHED
100
AcDbLine
 10
246.15
 20
259.4119089356762
 30
0.0
 11
246.15
 21
261.9119089424215
 31
0.0
  0
LINE
  5
B5
330
119E
100
AcDbEntity
  8
PEF-250AG
  6
DASHED
100
AcDbLine
 10
251.6499999999999
 20
259.4119089356762
 30
0.0
 11
251.6499999999999
 21
261.9119089424215
 31
0.0
  0
LINE
  5
B6
330
119E
100
AcDbEntity
  8
PEF-250AG
  6
DASHED
100
AcDbLine
 10
252.8999999999999
 20
261.9119089424215
 30
0.0
 11
252.8999999999999
 21
259.4119089356762
 31
0.0
  0
LINE
  5
B7
330
119E
100
AcDbEntity
  8
PEF-250AG
  6
CENTER
100
AcDbLine
 10
248.8999999999999
 20
266.4119089424215
 30
0.0
 11
248.8999999999999
 21
259.4119089356762
 31
0.0
  0
LINE
  5
BC
330
119E
100
AcDbEntity
  8
PEF-250AG
  6
CENTER
100
AcDbLine
 10
355.6641455259581
 20
412.3536940349238
 30
0.0
 11
345.6641455259581
 21
412.3536940349238
 31
0.0
  0
LINE
  5
BD
330
119E
100
AcDbEntity
  8
PEF-250AG
  6
CENTER
100
AcDbLine
 10
350.6794476391796
 20
417.5786940349238
 30
0.0
 11
350.6794476391796
 21
407.1286940349238
 31
0.0
  0
CIRCLE
  5
BE
330
119E
100
AcDbEntity
  8
PEF-250AG
100
AcDbCircle
 10
316.9798249949834
 20
392.3536940349237
 30
0.0
 40
2.749999999999984
  0
ARC
  5
BF
330
119E
100
AcDbEntity
  8
PEF-250AG
100
AcDbCircle
 10
316.9798249949834
 20
392.3536940349237
 30
0.0
 40
3.999999999999984
100
AcDbArc
 50
1.584694394787406
 51
269.4239070797204
  0
CIRCLE
  5
C0
330
119E
100
AcDbEntity
  8
PEF-250AG
100
AcDbCircle
 10
256.9798249949835
 20
392.3536940349237
 30
0.0
 40
2.749999999999984
  0
ARC
  5
C1
330
119E
100
AcDbEntity
  8
PEF-250AG
100
AcDbCircle
 10
256.9798249949835
 20
392.3536940349237
 30
0.0
 40
3.999999999999984
100
AcDbArc
 50
1.584694394787406
 51
269.4239070797204
  0
CIRCLE
  5
C2
330
119E
100
AcDbEntity
  8
PEF-250AG
100
AcDbCircle
 10
196.9798249949836
 20
392.3536940349237
 30
0.0
 40
2.749999999999984
  0
ARC
  5
C3
330
119E
100
AcDbEntity
  8
PEF-250AG
100
AcDbCircle
 10
196.9798249949836
 20
392.3536940349237
 30
0.0
 40
3.999999999999984
100
AcDbArc
 50
1.584694394787406
 51
269.4239070797204
  0
LINE
  5
C4
330
119E
100
AcDbEntity
  8
PEF-250AG
100
AcDbLine
 10
156.5031182716924
 20
357.3536940349237
 30
0.0
 11
156.5031182716924
 21
427.3536940349237
 31
0.0
  0
LINE
  5
C5
330
119E
100
AcDbEntity
  8
PEF-250AG
100
AcDbLine
 10
149.093166259594
 20
259.4119089356763
 30
0.0
 11
148.4232932767088
 21
261.9119089424215
 31
0.0
  0
LINE
  5
C7
330
119E
100
AcDbEntity
  8
PEF-250AG
  6
CENTER
100
AcDbLine
 10
155.832402383055
 20
372.3536940349237
 30
0.0
 11
165.832402383055
 21
372.3536940349237
 31
0.0
  0
LINE
  5
C8
330
119E
100
AcDbEntity
  8
PEF-250AG
  6
CENTER
100
AcDbLine
 10
160.8171002698335
 20
367.6036940349237
 30
0.0
 11
160.8171002698335
 21
377.1036940349237
 31
0.0
  0
LINE
  5
C9
330
119E
100
AcDbEntity
  8
PEF-250AG
  6
CENTER
100
AcDbLine
 10
155.832402383055
 20
412.3536940349238
 30
0.0
 11
165.832402383055
 21
412.3536940349238
 31
0.0
  0
LINE
  5
CA
330
119E
100
AcDbEntity
  8
PEF-250AG
  6
CENTER
100
AcDbLine
 10
160.8171002698335
 20
417.1036940349237
 30
0.0
 11
160.8171002698335
 21
407.6036940349237
 31
0.0
  0
LINE
  5
CB
330
119E
100
AcDbEntity
  8
PEF-250AG
100
AcDbLine
 10
3.500000072200066
 20
76.91190894242149
 30
0.0
 11
68.50000007220007
 21
76.91190894242149
 31
0.0
  0
LINE
  5
CC
330
119E
100
AcDbEntity
  8
PEF-250AG
100
AcDbLine
 10
3.500000072200066
 20
79.16190894242149
 30
0.0
 11
68.50000007220007
 21
79.16190894242149
 31
0.0
  0
LINE
  5
CD
330
119E
100
AcDbEntity
  8
PEF-250AG
100
AcDbLine
 10
62.00000007220006
 20
76.91190894242149
 30
0.0
 11
62.00000007220006
 21
79.16190894242149
 31
0.0
  0
LINE
  5
CE
330
119E
100
AcDbEntity
  8
PEF-250AG
100
AcDbLine
 10
68.50000007220007
 20
76.91190894242149
 30
0.0
 11
68.50000007220007
 21
79.16190894242149
 31
0.0
  0
LINE
  5
CF
330
119E
100
AcDbEntity
  8
PEF-250AG
100
AcDbLine
 10
35.00000007220005
 20
76.91190894242149
 30
0.0
 11
35.00000007220005
 21
79.16190894242149
 31
0.0
  0
LINE
  5
D0
330
119E
100
AcDbEntity
  8
PEF-250AG
100
AcDbLine
 10
3.500000072200066
 20
76.91190894242149
 30
0.0
 11
3.500000072200066
 21
79.16190894242149
 31
0.0
  0
LINE
  5
D1
330
119E
100
AcDbEntity
  8
PEF-250AG
100
AcDbLine
 10
3.500000072200066
 20
89.41190894242149
 30
0.0
 11
3.500000072200066
 21
91.91190894242149
 31
0.0
  0
LINE
  5
D2
330
119E
100
AcDbEntity
  8
PEF-250AG
100
AcDbLine
 10
3.500000072200066
 20
91.91190894242149
 30
0.0
 11
13.50000007220006
 21
91.91190894242149
 31
0.0
  0
LINE
  5
D3
330
119E
100
AcDbEntity
  8
PEF-250AG
100
AcDbLine
 10
4.250000072200066
 20
79.91190894242149
 30
0.0
 11
4.250000072200066
 21
88.6619089424215
 31
0.0
  0
ARC
  5
D4
330
119E
100
AcDbEntity
  8
PEF-250AG
100
AcDbCircle
 10
3.500000072200066
 20
79.91190894242149
 30
0.0
 40
0.75
100
AcDbArc
 50
270.0
 51
0.0
  0
ARC
  5
D5
330
119E
100
AcDbEntity
  8
PEF-250AG
100
AcDbCircle
 10
3.500000072200066
 20
88.6619089424215
 30
0.0
 40
0.75
100
AcDbArc
 50
0.0
 51
90.0
  0
LINE
  5
D6
330
119E
100
AcDbEntity
  8
PEF-250AG
100
AcDbLine
 10
22.75000007220005
 20
79.91190894242149
 30
0.0
 11
22.75000007220005
 21
88.6619089424215
 31
0.0
  0
LINE
  5
D7
330
119E
100
AcDbEntity
  8
PEF-250AG
100
AcDbLine
 10
23.50000007220006
 20
89.41190894242149
 30
0.0
 11
23.50000007220006
 21
91.91190894242149
 31
0.0
  0
ARC
  5
D8
330
119E
100
AcDbEntity
  8
PEF-250AG
100
AcDbCircle
 10
23.50000007220006
 20
88.6619089424215
 30
0.0
 40
0.75
100
AcDbArc
 50
90.0
 51
180.0
  0
ARC
  5
D9
330
119E
100
AcDbEntity
  8
PEF-250AG
100
AcDbCircle
 10
23.50000007220006
 20
79.91190894242149
 30
0.0
 40
0.75
100
AcDbArc
 50
180.0
 51
270.0
  0
LINE
  5
DA
330
119E
100
AcDbEntity
  8
PEF-250AG
100
AcDbLine
 10
23.50000007220006
 20
91.91190894242149
 30
0.0
 11
13.50000007220006
 21
91.91190894242149
 31
0.0
  0
LINE
  5
DB
330
119E
100
AcDbEntity
  8
PEF-250AG
100
AcDbLine
 10
23.50000007220006
 20
89.41190894242149
 30
0.0
 11
3.500000072200066
 21
89.41190894242149
 31
0.0
  0
LINE
  5
DC
330
119E
100
AcDbEntity
  8
PEF-250AG
  6
CENTER
100
AcDbLine
 10
48.50000007220007
 20
71.0
 30
0.0
 11
48.50000007220007
 21
85.16190894242148
 31
0.0
  0
LINE
  5
DD
330
119E
100
AcDbEntity
  8
PEF-250AG
100
AcDbLine
 10
283.4999999999999
 20
76.91190894242149
 30
0.0
 11
218.5
 21
76.91190894242149
 31
0.0
  0
LINE
  5
DE
330
119E
100
AcDbEntity
  8
PEF-250AG
100
AcDbLine
 10
283.4999999999999
 20
79.16190894242149
 30
0.0
 11
218.5
 21
79.16190894242149
 31
0.0
  0
LINE
  5
DF
330
119E
100
AcDbEntity
  8
PEF-250AG
100
AcDbLine
 10
252.0
 20
76.91190894242149
 30
0.0
 11
252.0
 21
79.16190894242149
 31
0.0
  0
LINE
  5
E0
330
119E
100
AcDbEntity
  8
PEF-250AG
  6
CENTER
100
AcDbLine
 10
238.5
 20
71.0
 30
0.0
 11
238.5
 21
85.16190894242148
 31
0.0
  0
LINE
  5
E1
330
119E
100
AcDbEntity
  8
PEF-250AG
100
AcDbLine
 10
218.5
 20
76.91190894242149
 30
0.0
 11
218.5
 21
79.16190894242149
 31
0.0
  0
LINE
  5
E2
330
119E
100
AcDbEntity
  8
PEF-250AG
100
AcDbLine
 10
225.0
 20
76.91190894242149
 30
0.0
 11
225.0
 21
79.16190894242149
 31
0.0
  0
LINE
  5
E3
330
119E
100
AcDbEntity
  8
PEF-250AG
100
AcDbLine
 10
263.5
 20
89.41190894242149
 30
0.0
 11
283.4999999999999
 21
89.41190894242149
 31
0.0
  0
LINE
  5
E4
330
119E
100
AcDbEntity
  8
PEF-250AG
100
AcDbLine
 10
264.25
 20
79.91190894242149
 30
0.0
 11
264.25
 21
88.6619089424215
 31
0.0
  0
ARC
  5
E5
330
119E
100
AcDbEntity
  8
PEF-250AG
100
AcDbCircle
 10
263.5
 20
79.91190894242149
 30
0.0
 40
0.75
100
AcDbArc
 50
270.0
 51
0.0
  0
ARC
  5
E6
330
119E
100
AcDbEntity
  8
PEF-250AG
100
AcDbCircle
 10
263.5
 20
88.6619089424215
 30
0.0
 40
0.75
100
AcDbArc
 50
0.0
 51
90.0
  0
LINE
  5
E7
330
119E
100
AcDbEntity
  8
PEF-250AG
100
AcDbLine
 10
263.5
 20
89.41190894242149
 30
0.0
 11
263.5
 21
91.91190894242149
 31
0.0
  0
LINE
  5
E8
330
119E
100
AcDbEntity
  8
PEF-250AG
100
AcDbLine
 10
283.4999999999999
 20
76.91190894242149
 30
0.0
 11
283.4999999999999
 21
79.16190894242149
 31
0.0
  0
LINE
  5
E9
330
119E
100
AcDbEntity
  8
PEF-250AG
100
AcDbLine
 10
282.75
 20
79.91190894242149
 30
0.0
 11
282.75
 21
88.6619089424215
 31
0.0
  0
ARC
  5
EA
330
119E
100
AcDbEntity
  8
PEF-250AG
100
AcDbCircle
 10
283.4999999999999
 20
79.91190894242149
 30
0.0
 40
0.75
100
AcDbArc
 50
180.0
 51
270.0
  0
ARC
  5
EB
330
119E
100
AcDbEntity
  8
PEF-250AG
100
AcDbCircle
 10
283.4999999999999
 20
88.6619089424215
 30
0.0
 40
0.75
100
AcDbArc
 50
90.0
 51
180.0
  0
LINE
  5
EC
330
119E
100
AcDbEntity
  8
PEF-250AG
100
AcDbLine
 10
283.4999999999999
 20
89.41190894242149
 30
0.0
 11
283.4999999999999
 21
91.91190894242149
 31
0.0
  0
LINE
  5
180
330
119E
100
AcDbEntity
  8
PEF-250AG
100
AcDbLine
 10
337.7500000133
 20
427.3536940349237
 30
0.0
 11
337.7500000133
 21
430.3536940277036
 31
0.0
  0
LINE
  5
181
330
119E
100
AcDbEntity
  8
PEF-250AG
100
AcDbLine
 10
206.7500000381898
 20
427.3536940349237
 30
0.0
 11
206.7500000381898
 21
430.3536940277036
 31
0.0
  0
LINE
  5
182
330
119E
100
AcDbEntity
  8
PEF-250AG
100
AcDbLine
 10
22.75000007409999
 20
345.3536940444239
 30
0.0
 11
22.75000007409999
 21
439.3536940444239
 31
0.0
  0
LINE
  5
183
330
119E
100
AcDbEntity
  8
PEF-250AG
100
AcDbLine
 10
17.7500000741
 20
342.3536940444238
 30
0.0
 11
17.7500000741
 21
442.3536940444239
 31
0.0
  0
LINE
  5
184
330
119E
100
AcDbEntity
  8
PEF-250AG
100
AcDbLine
 10
121.0000000741
 20
348.3536940444238
 30
0.0
 11
121.0000000741
 21
436.3536940444238
 31
0.0
  0
LINE
  5
185
330
119E
100
AcDbEntity
  8
PEF-250AG
100
AcDbLine
 10
61.0000000741
 20
348.3536940444238
 30
0.0
 11
61.0000000741
 21
436.3536940444238
 31
0.0
  0
LINE
  5
186
330
119E
100
AcDbEntity
  8
PEF-250AG
100
AcDbLine
 10
142.7500000741
 20
342.3536940444238
 30
0.0
 11
142.7500000741
 21
442.3536940444239
 31
0.0
  0
LINE
  5
187
330
119E
100
AcDbEntity
  8
PEF-250AG
100
AcDbLine
 10
120.4142136364731
 20
346.9394804820507
 30
0.0
 11
142.1642136364731
 21
343.9394804820508
 31
0.0
  0
LINE
  5
188
330
119E
100
AcDbEntity
  8
PEF-250AG
100
AcDbLine
 10
142.7500000741
 20
342.3536940444238
 30
0.0
 11
17.7500000741
 21
342.3536940444238
 31
0.0
  0
LINE
  5
189
330
119E
100
AcDbEntity
  8
PEF-250AG
100
AcDbLine
 10
140.7500000741
 20
343.3536940444239
 30
0.0
 11
24.75000007409999
 21
343.3536940444239
 31
0.0
  0
ARC
  5
18A
330
119E
100
AcDbEntity
  8
PEF-250AG
100
AcDbCircle
 10
140.7500000741
 20
345.3536940444239
 30
0.0
 40
2.0
100
AcDbArc
 50
270.0
 51
0.0
  0
LINE
  5
18B
330
119E
100
AcDbEntity
  8
PEF-250AG
100
AcDbLine
 10
119.0000000741
 20
346.3536940444238
 30
0.0
 11
63.0000000741
 21
346.3536940444238
 31
0.0
  0
ARC
  5
18C
330
119E
100
AcDbEntity
  8
PEF-250AG
100
AcDbCircle
 10
119.0000000741
 20
348.3536940444238
 30
0.0
 40
2.0
100
AcDbArc
 50
270.0
 51
0.0
  0
LINE
  5
18D
330
119E
100
AcDbEntity
  8
PEF-250AG
100
AcDbLine
 10
23.33578651172689
 20
343.9394804820508
 30
0.0
 11
61.58578651172689
 21
346.9394804820507
 31
0.0
  0
ARC
  5
18E
330
119E
100
AcDbEntity
  8
PEF-250AG
100
AcDbCircle
 10
63.0000000741
 20
348.3536940444238
 30
0.0
 40
2.0
100
AcDbArc
 50
180.0
 51
270.0
  0
ARC
  5
18F
330
119E
100
AcDbEntity
  8
PEF-250AG
100
AcDbCircle
 10
24.75000007409999
 20
345.3536940444239
 30
0.0
 40
2.0
100
AcDbArc
 50
180.0
 51
270.0
  0
LINE
  5
190
330
119E
100
AcDbEntity
  8
PEF-250AG
100
AcDbLine
 10
120.4142136364731
 20
437.767907606797
 30
0.0
 11
142.1642136364731
 21
440.767907606797
 31
0.0
  0
LINE
  5
191
330
119E
100
AcDbEntity
  8
PEF-250AG
100
AcDbLine
 10
142.7500000741
 20
442.3536940444239
 30
0.0
 11
17.7500000741
 21
442.3536940444239
 31
0.0
  0
LINE
  5
192
330
119E
100
AcDbEntity
  8
PEF-250AG
  6
CENTER
100
AcDbLine
 10
7.500000074099999
 20
392.3536940444238
 30
0.0
 11
392.0000000740998
 21
392.3536940444238
 31
0.0
  0
LINE
  5
193
330
119E
100
AcDbEntity
  8
PEF-250AG
100
AcDbLine
 10
140.7500000741
 20
441.3536940444238
 30
0.0
 11
24.75000007409999
 21
441.3536940444238
 31
0.0
  0
ARC
  5
194
330
119E
100
AcDbEntity
  8
PEF-250AG
100
AcDbCircle
 10
140.7500000741
 20
439.3536940444239
 30
0.0
 40
2.0
100
AcDbArc
 50
0.0
 51
90.0
  0
LINE
  5
195
330
119E
100
AcDbEntity
  8
PEF-250AG
  6
CENTER
100
AcDbLine
 10
107.7500000741
 20
380.6036940444239
 30
0.0
 11
107.7500000741
 21
403.8536940444238
 31
0.0
  0
LINE
  5
196
330
119E
100
AcDbEntity
  8
PEF-250AG
100
AcDbLine
 10
119.0000000741
 20
438.3536940444239
 30
0.0
 11
63.0000000741
 21
438.3536940444239
 31
0.0
  0
ARC
  5
197
330
119E
100
AcDbEntity
  8
PEF-250AG
100
AcDbCircle
 10
119.0000000741
 20
436.3536940444238
 30
0.0
 40
2.0
100
AcDbArc
 50
0.0
 51
90.0
  0
LINE
  5
198
330
119E
100
AcDbEntity
  8
PEF-250AG
100
AcDbLine
 10
23.33578651172689
 20
440.767907606797
 30
0.0
 11
61.58578651172689
 21
437.767907606797
 31
0.0
  0
ARC
  5
199
330
119E
100
AcDbEntity
  8
PEF-250AG
100
AcDbCircle
 10
63.0000000741
 20
436.3536940444238
 30
0.0
 40
2.0
100
AcDbArc
 50
90.0
 51
180.0
  0
ARC
  5
19A
330
119E
100
AcDbEntity
  8
PEF-250AG
100
AcDbCircle
 10
24.75000007409999
 20
439.3536940444239
 30
0.0
 40
2.0
100
AcDbArc
 50
90.0
 51
180.0
  0
LINE
  5
19B
330
119E
100
AcDbEntity
  8
PEF-250AG
100
AcDbLine
 10
471.75
 20
91.91190894242149
 30
0.0
 11
571.7499999999999
 21
91.91190894242149
 31
0.0
  0
LINE
  5
19C
330
119E
100
AcDbEntity
  8
PEF-250AG
100
AcDbLine
 10
471.75
 20
114.9119089424214
 30
0.0
 11
571.75
 21
114.9119089424214
 31
0.0
  0
LINE
  5
19D
330
119E
100
AcDbEntity
  8
PEF-250AG
100
AcDbLine
 10
471.75
 20
91.91190894242149
 30
0.0
 11
471.75
 21
114.9119089424214
 31
0.0
  0
LINE
  5
19E
330
119E
100
AcDbEntity
  8
PEF-250AG
100
AcDbLine
 10
571.7499999999999
 20
91.91190894242149
 30
0.0
 11
571.75
 21
114.9119089424214
 31
0.0
  0
LINE
  5
19F
330
119E
100
AcDbEntity
  8
PEF-250AG
100
AcDbLine
 10
481.7499999999998
 20
117.2119089376145
 30
0.0
 11
561.7499999999998
 21
117.2119089376145
 31
0.0
  0
LINE
  5
1A0
330
119E
100
AcDbEntity
  8
PEF-250AG
100
AcDbLine
 10
561.7500000000001
 20
117.2119089376145
 30
0.0
 11
561.7499999999998
 21
114.9119089424214
 31
0.0
  0
LINE
  5
1A1
330
119E
100
AcDbEntity
  8
PEF-250AG
100
AcDbLine
 10
521.75
 20
261.9119089424215
 30
0.0
 11
556.7499999999999
 21
261.9119089424215
 31
0.0
  0
LINE
  5
1A2
330
119E
100
AcDbEntity
  8
PEF-250AG
100
AcDbLine
 10
486.7500000000001
 20
261.9119089424215
 30
0.0
 11
486.7499999999998
 21
233.9119089424214
 31
0.0
  0
LINE
  5
1A3
330
119E
100
AcDbEntity
  8
PEF-250AG
100
AcDbLine
 10
521.75
 20
261.9119089424215
 30
0.0
 11
486.7500000000001
 21
261.9119089424215
 31
0.0
  0
LINE
  5
1A4
330
119E
100
AcDbEntity
  8
PEF-250AG
100
AcDbLine
 10
383.5000000455998
 20
117.4119089356764
 30
0.0
 11
156.1732699253896
 21
117.4119089356764
 31
0.0
  0
LINE
  5
1A5
330
119E
100
AcDbEntity
  8
PEF-250AG
100
AcDbLine
 10
355.8164206135246
 20
259.4119089356762
 30
0.0
 11
138.5000000456002
 21
259.4119089356762
 31
0.0
  0
LINE
  5
1A6
330
119E
100
AcDbEntity
  8
PEF-250AG
100
AcDbLine
 10
379.963763986738
 20
197.9298296505946
 30
0.0
 11
365.4756788764152
 21
252.0000993867015
 31
0.0
  0
LINE
  5
1A7
330
119E
100
AcDbEntity
  8
PEF-250AG
100
AcDbLine
 10
393.5000000455999
 20
127.4119089356764
 30
0.0
 11
393.5000000455999
 21
145.0307737207331
 31
0.0
  0
ARC
  5
1A8
330
119E
100
AcDbEntity
  8
PEF-250AG
100
AcDbCircle
 10
383.5000000455998
 20
127.4119089356764
 30
0.0
 40
9.999999999999991
100
AcDbArc
 50
270.0
 51
0.0
  0
CIRCLE
  5
1A9
330
119E
100
AcDbEntity
  8
PEF-250AG
100
AcDbCircle
 10
333.5000000455998
 20
127.4119089356764
 30
0.0
 40
3.499999999999996
  0
LINE
  5
1AA
330
119E
100
AcDbEntity
  8
PEF-250AG
100
AcDbLine
 10
393.5000000455999
 20
147.4119089356763
 30
0.0
 11
380.5590477904738
 21
195.7082002501298
 31
0.0
  0
LINE
  5
1AB
330
119E
100
AcDbEntity
  8
PEF-250AG
100
AcDbLine
 10
391.2783706451349
 20
146.8166251319405
 30
0.0
 11
378.337418390009
 21
195.1129164463939
 31
0.0
  0
LINE
  5
1AC
330
119E
100
AcDbEntity
  8
PEF-250AG
100
AcDbLine
 10
393.5000000455999
 20
147.4119089356763
 30
0.0
 11
391.2783706451349
 21
146.8166251319405
 31
0.0
  0
ARC
  5
1AD
330
119E
100
AcDbEntity
  8
PEF-250AG
100
AcDbCircle
 10
392.6868272472353
 20
146.003452333576
 30
0.0
 40
1.149999999999999
100
AcDbArc
 50
105.0
 51
285.0000000000001
  0
LINE
  5
1AE
330
119E
100
AcDbEntity
  8
PEF-250AG
100
AcDbLine
 10
393.5000000455999
 20
145.0307737207331
 30
0.0
 11
392.9844691491031
 21
144.8926376333436
 31
0.0
  0
LINE
  5
1AF
330
119E
100
AcDbEntity
  8
PEF-250AG
100
AcDbLine
 10
380.5590477904738
 20
195.7082002501298
 30
0.0
 11
378.337418390009
 21
195.1129164463939
 31
0.0
  0
LINE
  5
1B0
330
119E
100
AcDbEntity
  8
PEF-250AG
100
AcDbLine
 10
379.963763986738
 20
197.9298296505946
 30
0.0
 11
378.8529492865056
 21
197.6321877487267
 31
0.0
  0
ARC
  5
1B1
330
119E
100
AcDbEntity
  8
PEF-250AG
100
AcDbCircle
 10
379.1505911883735
 20
196.5213730484943
 30
0.0
 40
1.149999999999999
100
AcDbArc
 50
104.9999999999996
 51
285.0000000000002
  0
LINE
  5
1B2
330
119E
100
AcDbEntity
  8
PEF-250AG
  6
CENTER
100
AcDbLine
 10
265.0
 20
147.4119089356763
 30
0.0
 11
242.0000000911999
 21
147.4119089356763
 31
0.0
  0
LINE
  5
1B3
330
119E
100
AcDbEntity
  8
PEF-250AG
  6
CENTER
100
AcDbLine
 10
253.5000000456
 20
135.9119089812764
 30
0.0
 11
253.5000000456
 21
158.9119088900764
 31
0.0
  0
CIRCLE
  5
1B4
330
119E
100
AcDbEntity
  8
PEF-250AG
100
AcDbCircle
 10
253.5000000456
 20
147.4119089356763
 30
0.0
 40
4.999999999999995
  0
ARC
  5
1B5
330
119E
100
AcDbEntity
  8
PEF-250AG
100
AcDbCircle
 10
355.8164206135246
 20
249.4119089356764
 30
0.0
 40
9.999999999999991
100
AcDbArc
 50
15.00000000000002
 51
90.0
  0
LINE
  5
1B6
330
119E
100
AcDbEntity
  8
PEF-250AG
100
AcDbLine
 10
128.5000000456001
 20
192.0529250870539
 30
0.0
 11
128.5000000456001
 21
249.4119089356764
 31
0.0
  0
ARC
  5
1B7
330
119E
100
AcDbEntity
  8
PEF-250AG
100
AcDbCircle
 10
144.7230320470756
 20
135.9510042056605
 30
0.0
 40
1.149999999999999
100
AcDbArc
 50
285.0000000000002
 51
105.0
  0
LINE
  5
1B8
330
119E
100
AcDbEntity
  8
PEF-250AG
  6
PHANTOM
100
AcDbLine
 10
146.5140116624989
 20
124.8237184846512
 30
0.0
 11
143.9098592487113
 21
134.5425476035601
 31
0.0
  0
LINE
  5
1B9
330
119E
100
AcDbEntity
  8
PEF-250AG
100
AcDbLine
 10
145.0206739489436
 20
134.840189505428
 30
0.0
 11
143.9098592487113
 21
134.5425476035601
 31
0.0
  0
ARC
  5
1BA
330
119E
100
AcDbEntity
  8
PEF-250AG
100
AcDbCircle
 10
156.1732699253896
 20
127.4119089356764
 30
0.0
 40
9.999999999999991
100
AcDbArc
 50
194.9999999999999
 51
270.0
  0
CIRCLE
  5
1BB
330
119E
100
AcDbEntity
  8
PEF-250AG
100
AcDbCircle
 10
153.5000000455999
 20
127.4119089356764
 30
0.0
 40
3.499999999999996
  0
LINE
  5
1BC
330
119E
100
AcDbEntity
  8
PEF-250AG
100
AcDbLine
 10
145.5362048454403
 20
137.3594608077608
 30
0.0
 11
132.5952525903142
 21
185.6557521222141
 31
0.0
  0
LINE
  5
1BD
330
119E
100
AcDbEntity
  8
PEF-250AG
100
AcDbLine
 10
143.3145754449754
 20
136.764177004025
 30
0.0
 11
130.3736231898494
 21
185.0604683184783
 31
0.0
  0
LINE
  5
1BE
330
119E
100
AcDbEntity
  8
PEF-250AG
100
AcDbLine
 10
145.5362048454403
 20
137.3594608077608
 30
0.0
 11
143.3145754449754
 21
136.764177004025
 31
0.0
  0
LINE
  5
1BF
330
119E
100
AcDbEntity
  8
PEF-250AG
100
AcDbLine
 10
132.5952525903142
 20
185.6557521222142
 30
0.0
 11
130.3736231898494
 21
185.0604683184783
 31
0.0
  0
ARC
  5
1C0
330
119E
100
AcDbEntity
  8
PEF-250AG
100
AcDbCircle
 10
131.1867959882139
 20
186.4689249205786
 30
0.0
 40
1.149999999999999
100
AcDbArc
 50
285.0000000000005
 51
104.9999999999996
  0
LINE
  5
1C1
330
119E
100
AcDbEntity
  8
PEF-250AG
100
AcDbLine
 10
130.889154086346
 20
187.579739620811
 30
0.0
 11
129.7783393861136
 21
187.2820977189431
 31
0.0
  0
LINE
  5
1C2
330
119E
100
AcDbEntity
  8
PEF-250AG
100
AcDbLine
 10
129.7783393861136
 20
187.2820977189431
 30
0.0
 11
128.5000000456002
 21
192.0529250870538
 31
0.0
  0
ARC
  5
1C3
330
119E
100
AcDbEntity
  8
PEF-250AG
100
AcDbCircle
 10
138.5000000456002
 20
249.4119089356764
 30
0.0
 40
9.999999999999991
100
AcDbArc
 50
90.0
 51
180.0
  0
LINE
  5
1C4
330
119E
100
AcDbEntity
  8
PEF-250AG
100
AcDbLine
 10
559.25
 20
117.2119089376145
 30
0.0
 11
559.2499999999999
 21
147.4119089356763
 31
0.0
  0
LINE
  5
1C5
330
119E
100
AcDbEntity
  8
PEF-250AG
100
AcDbLine
 10
484.25
 20
117.2119089376145
 30
0.0
 11
484.25
 21
147.4119089356763
 31
0.0
  0
LINE
  5
1C6
330
119E
100
AcDbEntity
  8
PEF-250AG
  6
DASHED
100
AcDbLine
 10
471.7500000000002
 20
100.9119089407114
 30
0.0
 11
495.0154091965798
 21
100.9119089407114
 31
0.0
  0
LINE
  5
1C7
330
119E
100
AcDbEntity
  8
PEF-250AG
  6
CENTER
100
AcDbLine
 10
481.7499999999998
 20
72.25
 30
0.0
 11
481.7499999999998
 21
105.75
 31
0.0
  0
LINE
  5
1C8
330
119E
100
AcDbEntity
  8
PEF-250AG
100
AcDbLine
 10
491.7499999771998
 20
76.91190894242149
 30
0.0
 11
426.7499999772
 21
76.91190894242149
 31
0.0
  0
LINE
  5
1C9
330
119E
100
AcDbEntity
  8
PEF-250AG
100
AcDbLine
 10
491.7499999771998
 20
79.16190894242149
 30
0.0
 11
426.7499999772
 21
79.16190894242149
 31
0.0
  0
LINE
  5
1CA
330
119E
100
AcDbEntity
  8
PEF-250AG
100
AcDbLine
 10
426.7499999772
 20
76.91190894242149
 30
0.0
 11
426.7499999772
 21
79.16190894242149
 31
0.0
  0
LINE
  5
1CB
330
119E
100
AcDbEntity
  8
PEF-250AG
100
AcDbLine
 10
491.7499999771998
 20
76.91190894242149
 30
0.0
 11
491.7499999771998
 21
79.16190894242149
 31
0.0
  0
LINE
  5
1CC
330
119E
100
AcDbEntity
  8
PEF-250AG
100
AcDbLine
 10
460.2499999772
 20
76.91190894242149
 30
0.0
 11
460.2499999772
 21
79.16190894242149
 31
0.0
  0
LINE
  5
1CD
330
119E
100
AcDbEntity
  8
PEF-250AG
  6
CENTER
100
AcDbLine
 10
446.7499999772
 20
71.0
 30
0.0
 11
446.7499999772
 21
85.16190894242148
 31
0.0
  0
LINE
  5
1CE
330
119E
100
AcDbEntity
  8
PEF-250AG
100
AcDbLine
 10
433.2499999771998
 20
76.91190894242149
 30
0.0
 11
433.2499999771998
 21
79.16190894242149
 31
0.0
  0
ARC
  5
1CF
330
119E
100
AcDbEntity
  8
PEF-250AG
100
AcDbCircle
 10
471.7499999772
 20
79.91190894242149
 30
0.0
 40
0.75
100
AcDbArc
 50
270.0
 51
0.0
  0
ARC
  5
1D0
330
119E
100
AcDbEntity
  8
PEF-250AG
100
AcDbCircle
 10
491.7499999771998
 20
79.91190894242149
 30
0.0
 40
0.75
100
AcDbArc
 50
180.0
 51
270.0
  0
LINE
  5
1D1
330
119E
100
AcDbEntity
  8
PEF-250AG
100
AcDbLine
 10
471.7499999772
 20
89.41190894242149
 30
0.0
 11
491.7499999771998
 21
89.41190894242149
 31
0.0
  0
LINE
  5
1D2
330
119E
100
AcDbEntity
  8
PEF-250AG
100
AcDbLine
 10
490.9999999772
 20
79.91190894242149
 30
0.0
 11
490.9999999772
 21
88.6619089424215
 31
0.0
  0
ARC
  5
1D3
330
119E
100
AcDbEntity
  8
PEF-250AG
100
AcDbCircle
 10
491.7499999771998
 20
88.6619089424215
 30
0.0
 40
0.75
100
AcDbArc
 50
90.0
 51
180.0
  0
LINE
  5
1D4
330
119E
100
AcDbEntity
  8
PEF-250AG
100
AcDbLine
 10
491.7499999771998
 20
89.41190894242149
 30
0.0
 11
491.7499999771998
 21
91.91190894242149
 31
0.0
  0
LINE
  5
1D5
330
119E
100
AcDbEntity
  8
PEF-250AG
100
AcDbLine
 10
472.4999999771998
 20
79.91190894242149
 30
0.0
 11
472.4999999771998
 21
88.6619089424215
 31
0.0
  0
ARC
  5
1D6
330
119E
100
AcDbEntity
  8
PEF-250AG
100
AcDbCircle
 10
471.7499999772
 20
88.6619089424215
 30
0.0
 40
0.75
100
AcDbArc
 50
0.0
 51
90.0
  0
LINE
  5
1D7
330
119E
100
AcDbEntity
  8
PEF-250AG
100
AcDbLine
 10
471.7499999772
 20
89.41190894242149
 30
0.0
 11
471.7499999772
 21
91.91190894242149
 31
0.0
  0
LINE
  5
1D8
330
119E
100
AcDbEntity
  8
PEF-250AG
100
AcDbLine
 10
551.7500000227999
 20
79.16190894242149
 30
0.0
 11
616.7500000228
 21
79.16190894242149
 31
0.0
  0
LINE
  5
1D9
330
119E
100
AcDbEntity
  8
PEF-250AG
100
AcDbLine
 10
551.7500000227999
 20
76.91190894242149
 30
0.0
 11
616.7500000228
 21
76.91190894242149
 31
0.0
  0
LINE
  5
1DA
330
119E
100
AcDbEntity
  8
PEF-250AG
100
AcDbLine
 10
551.7500000227999
 20
76.91190894242149
 30
0.0
 11
551.7500000227999
 21
79.16190894242149
 31
0.0
  0
LINE
  5
1DB
330
119E
100
AcDbEntity
  8
PEF-250AG
100
AcDbLine
 10
571.7500000228
 20
89.41190894242149
 30
0.0
 11
551.7500000227999
 21
89.41190894242149
 31
0.0
  0
LINE
  5
1DC
330
119E
100
AcDbEntity
  8
PEF-250AG
100
AcDbLine
 10
552.5000000228
 20
79.91190894242149
 30
0.0
 11
552.5000000228
 21
88.6619089424215
 31
0.0
  0
ARC
  5
1DD
330
119E
100
AcDbEntity
  8
PEF-250AG
100
AcDbCircle
 10
551.7500000227999
 20
79.91190894242149
 30
0.0
 40
0.75
100
AcDbArc
 50
270.0
 51
0.0
  0
LINE
  5
1DE
330
119E
100
AcDbEntity
  8
PEF-250AG
100
AcDbLine
 10
551.7500000227999
 20
89.41190894242149
 30
0.0
 11
551.7500000227999
 21
91.91190894242149
 31
0.0
  0
ARC
  5
1DF
330
119E
100
AcDbEntity
  8
PEF-250AG
100
AcDbCircle
 10
551.7500000227999
 20
88.6619089424215
 30
0.0
 40
0.75
100
AcDbArc
 50
0.0
 51
90.0
  0
LINE
  5
1E0
330
119E
100
AcDbEntity
  8
PEF-250AG
100
AcDbLine
 10
610.2500000227998
 20
76.91190894242149
 30
0.0
 11
610.2500000227998
 21
79.16190894242149
 31
0.0
  0
LINE
  5
1E1
330
119E
100
AcDbEntity
  8
PEF-250AG
  6
CENTER
100
AcDbLine
 10
596.7500000228
 20
71.0
 30
0.0
 11
596.7500000228
 21
85.16190894242148
 31
0.0
  0
LINE
  5
1E2
330
119E
100
AcDbEntity
  8
PEF-250AG
100
AcDbLine
 10
583.2500000228
 20
76.91190894242149
 30
0.0
 11
583.2500000228
 21
79.16190894242149
 31
0.0
  0
LINE
  5
1E3
330
119E
100
AcDbEntity
  8
PEF-250AG
100
AcDbLine
 10
571.0000000227998
 20
79.91190894242149
 30
0.0
 11
571.0000000227998
 21
88.6619089424215
 31
0.0
  0
ARC
  5
1E4
330
119E
100
AcDbEntity
  8
PEF-250AG
100
AcDbCircle
 10
571.7500000228
 20
79.91190894242149
 30
0.0
 40
0.75
100
AcDbArc
 50
180.0
 51
270.0
  0
LINE
  5
1E5
330
119E
100
AcDbEntity
  8
PEF-250AG
100
AcDbLine
 10
571.7500000228
 20
89.41190894242149
 30
0.0
 11
571.7500000228
 21
91.91190894242149
 31
0.0
  0
ARC
  5
1E6
330
119E
100
AcDbEntity
  8
PEF-250AG
100
AcDbCircle
 10
571.7500000228
 20
88.6619089424215
 30
0.0
 40
0.75
100
AcDbArc
 50
90.0
 51
180.0
  0
LINE
  5
1E7
330
119E
100
AcDbEntity
  8
PEF-250AG
100
AcDbLine
 10
616.7500000228
 20
76.91190894242149
 30
0.0
 11
616.7500000228
 21
79.16190894242149
 31
0.0
  0
LINE
  5
1E8
330
119E
100
AcDbEntity
  8
PEF-250AG
  6
DASHED
100
AcDbLine
 10
496.995308183907
 20
102.6290662282707
 30
0.0
 11
498.7499999999998
 21
114.9119089424214
 31
0.0
  0
LINE
  5
1E9
330
119E
100
AcDbEntity
  8
PEF-250AG
  6
DASHED
100
AcDbLine
 10
546.5046918160928
 20
102.6290662282707
 30
0.0
 11
544.7499999999998
 21
114.9119089424214
 31
0.0
  0
LINE
  5
1EA
330
119E
100
AcDbEntity
  8
PEF-250AG
  6
DASHED
100
AcDbLine
 10
548.4845908034201
 20
100.9119089407114
 30
0.0
 11
571.75
 21
100.9119089407114
 31
0.0
  0
ARC
  5
1EB
330
119E
100
AcDbEntity
  8
PEF-250AG
  6
DASHED
100
AcDbCircle
 10
495.0154091965798
 20
102.9119089407114
 30
0.0
 40
2.0
100
AcDbArc
 50
270.0
 51
351.8698976468236
  0
ARC
  5
1EC
330
119E
100
AcDbEntity
  8
PEF-250AG
  6
DASHED
100
AcDbCircle
 10
548.4845908034201
 20
102.9119089407114
 30
0.0
 40
2.0
100
AcDbArc
 50
188.1301023531761
 51
270.0
  0
LINE
  5
1ED
330
119E
100
AcDbEntity
  8
PEF-250AG
100
AcDbLine
 10
486.7499999999998
 20
233.9119089424214
 30
0.0
 11
496.75
 21
233.9119089424213
 31
0.0
  0
LINE
  5
1EE
330
119E
100
AcDbEntity
  8
PEF-250AG
100
AcDbLine
 10
488.25
 20
241.759663251993
 30
0.0
 11
555.25
 21
241.759663251993
 31
0.0
  0
LINE
  5
1EF
330
119E
100
AcDbEntity
  8
PEF-250AG
100
AcDbLine
 10
488.25
 20
240.2067489813779
 30
0.0
 11
555.25
 21
240.2067489813779
 31
0.0
  0
LINE
  5
214
330
119E
100
AcDbEntity
  8
PEF-250AG
100
AcDbLine
 10
484.25
 20
133.4119089345364
 30
0.0
 11
488.25
 21
133.4119089345364
 31
0.0
  0
LINE
  5
215
330
119E
100
AcDbEntity
  8
PEF-250AG
100
AcDbLine
 10
571.75
 20
114.9119089424214
 30
0.0
 11
571.75
 21
133.4119089345364
 31
0.0
  0
LINE
  5
216
330
119E
100
AcDbEntity
  8
PEF-250AG
100
AcDbLine
 10
471.75
 20
114.9119089424214
 30
0.0
 11
471.75
 21
133.4119089345364
 31
0.0
  0
LINE
  5
217
330
119E
100
AcDbEntity
  8
PEF-250AG
100
AcDbLine
 10
488.2500000000002
 20
202.0526788429598
 30
0.0
 11
555.25
 21
202.0526788429598
 31
0.0
  0
LINE
  5
218
330
119E
100
AcDbEntity
  8
PEF-250AG
100
AcDbLine
 10
488.2500000000002
 20
203.6055931135749
 30
0.0
 11
555.25
 21
203.6055931135749
 31
0.0
  0
LINE
  5
219
330
119E
100
AcDbEntity
  8
PEF-250AG
  6
CENTER
100
AcDbLine
 10
489.4045323336918
 20
213.6623711298101
 30
0.0
 11
514.095467666308
 21
213.6623711298101
 31
0.0
  0
LINE
  5
21A
330
119E
100
AcDbEntity
  8
PEF-250AG
100
AcDbLine
 10
480.4999999999998
 20
150.9119089345364
 30
0.0
 11
471.75
 21
150.9119089345364
 31
0.0
  0
LINE
  5
21B
330
119E
100
AcDbEntity
  8
PEF-250AG
  6
DASHED
100
AcDbLine
 10
89.5000000741
 20
109.2499999259
 30
0.0
 11
89.5000000741
 21
230.9119089350115
 31
0.0
  0
LINE
  5
21C
330
119E
100
AcDbEntity
  8
PEF-250AG
  6
DASHED
100
AcDbLine
 10
90.7500000741
 20
108.0
 30
0.0
 11
90.7500000741
 21
230.9119089350115
 31
0.0
  0
LINE
  5
21D
330
119E
100
AcDbEntity
  8
PEF-250AG
  6
DASHED
100
AcDbLine
 10
96.25000007410001
 20
108.0000000741
 30
0.0
 11
96.25000007410001
 21
230.9119089350115
 31
0.0
  0
LINE
  5
21E
330
119E
100
AcDbEntity
  8
PEF-250AG
100
AcDbLine
 10
87.0
 20
231.0
 30
0.0
 11
87.0
 21
232.0
 31
0.0
  0
LINE
  5
21F
330
119E
100
AcDbEntity
  8
PEF-250AG
100
AcDbLine
 10
87.0
 20
232.0
 30
0.0
 11
100.0
 21
232.0
 31
0.0
  0
LINE
  5
220
330
119E
100
AcDbEntity
  8
PEF-250AG
100
AcDbLine
 10
100.0
 20
232.0
 30
0.0
 11
100.0
 21
231.0
 31
0.0
  0
LINE
  5
221
330
119E
100
AcDbEntity
  8
PEF-250AG
100
AcDbLine
 10
100.0
 20
232.0
 30
0.0
 11
100.0
 21
237.0
 31
0.0
  0
LINE
  5
222
330
119E
100
AcDbEntity
  8
PEF-250AG
100
AcDbLine
 10
98.50000000000001
 20
237.5
 30
0.0
 11
88.49999999999999
 21
237.5
 31
0.0
  0
LINE
  5
223
330
119E
100
AcDbEntity
  8
PEF-250AG
100
AcDbLine
 10
87.0
 20
237.0
 30
0.0
 11
87.0
 21
232.0
 31
0.0
  0
ARC
  5
224
330
119E
100
AcDbEntity
  8
PEF-250AG
100
AcDbCircle
 10
88.49999999999999
 20
235.0
 30
0.0
 40
2.5
100
AcDbArc
 50
53.13010235415597
 51
126.869897645844
  0
ARC
  5
225
330
119E
100
AcDbEntity
  8
PEF-250AG
100
AcDbCircle
 10
93.49999999999999
 20
225.0
 30
0.0
 40
12.5
100
AcDbArc
 50
73.73979529168805
 51
106.2602047083119
  0
ARC
  5
226
330
119E
100
AcDbEntity
  8
PEF-250AG
100
AcDbCircle
 10
98.50000000000001
 20
235.0
 30
0.0
 40
2.5
100
AcDbArc
 50
53.13010235415597
 51
126.869897645844
  0
LINE
  5
227
330
119E
100
AcDbEntity
  8
PEF-250AG
100
AcDbLine
 10
90.0
 20
237.0
 30
0.0
 11
90.0
 21
232.0
 31
0.0
  0
LINE
  5
228
330
119E
100
AcDbEntity
  8
PEF-250AG
100
AcDbLine
 10
97.0
 20
237.0
 30
0.0
 11
97.0
 21
232.0
 31
0.0
  0
LINE
  5
229
330
119E
100
AcDbEntity
  8
PEF-250AG
100
AcDbLine
 10
96.75
 20
232.0
 30
0.0
 11
95.75000000000001
 21
231.0
 31
0.0
  0
LINE
  5
22A
330
119E
100
AcDbEntity
  8
PEF-250AG
100
AcDbLine
 10
97.0
 20
231.0
 30
0.0
 11
98.0
 21
232.0
 31
0.0
  0
LINE
  5
22B
330
119E
100
AcDbEntity
  8
PEF-250AG
100
AcDbLine
 10
90.0
 20
232.0
 30
0.0
 11
89.0
 21
231.0
 31
0.0
  0
LINE
  5
22C
330
119E
100
AcDbEntity
  8
PEF-250AG
100
AcDbLine
 10
90.25
 20
231.0
 30
0.0
 11
91.25
 21
232.0
 31
0.0
  0
LINE
  5
22D
330
119E
100
AcDbEntity
  8
PEF-250AG
100
AcDbLine
 10
19.25000007220005
 20
101.9119089407114
 30
0.0
 11
7.750000072200065
 21
101.9119089407114
 31
0.0
  0
LINE
  5
22E
330
119E
100
AcDbEntity
  8
PEF-250AG
100
AcDbLine
 10
19.25000007220005
 20
101.9119089407114
 30
0.0
 11
19.25000007220005
 21
105.4119089407113
 31
0.0
  0
LINE
  5
22F
330
119E
100
AcDbEntity
  8
PEF-250AG
100
AcDbLine
 10
18.00000007220005
 20
105.9119089407114
 30
0.0
 11
9.000000072200066
 21
105.9119089407114
 31
0.0
  0
LINE
  5
230
330
119E
100
AcDbEntity
  8
PEF-250AG
100
AcDbLine
 10
7.750000072200065
 20
105.4119089407113
 30
0.0
 11
7.750000072200065
 21
101.9119089407114
 31
0.0
  0
LINE
  5
231
330
119E
100
AcDbEntity
  8
PEF-250AG
100
AcDbLine
 10
10.25000007220006
 20
105.4119089407113
 30
0.0
 11
10.25000007220006
 21
101.9119089407114
 31
0.0
  0
LINE
  5
232
330
119E
100
AcDbEntity
  8
PEF-250AG
100
AcDbLine
 10
16.75000007220005
 20
101.9119089407114
 30
0.0
 11
16.75000007220005
 21
105.4119089407113
 31
0.0
  0
ARC
  5
233
330
119E
100
AcDbEntity
  8
PEF-250AG
100
AcDbCircle
 10
9.000000072200066
 20
104.0994089407113
 30
0.0
 40
1.8125
100
AcDbArc
 50
46.39718102729639
 51
133.6028189727036
  0
ARC
  5
234
330
119E
100
AcDbEntity
  8
PEF-250AG
100
AcDbCircle
 10
13.50000007220006
 20
95.09940894071148
 30
0.0
 40
10.8125
100
AcDbArc
 50
72.50767547488957
 51
107.4923245251103
  0
ARC
  5
235
330
119E
100
AcDbEntity
  8
PEF-250AG
100
AcDbCircle
 10
18.00000007220005
 20
104.0994089407113
 30
0.0
 40
1.8125
100
AcDbArc
 50
46.39718102729639
 51
133.6028189727036
  0
LINE
  5
236
330
119E
100
AcDbEntity
  8
PEF-250AG
100
AcDbLine
 10
7.750000072200065
 20
101.9119089407114
 30
0.0
 11
7.750000072200065
 21
100.9119089407114
 31
0.0
  0
LINE
  5
237
330
119E
100
AcDbEntity
  8
PEF-250AG
100
AcDbLine
 10
7.750000072200065
 20
100.9119089407114
 30
0.0
 11
19.25000007220005
 21
100.9119089407114
 31
0.0
  0
LINE
  5
238
330
119E
100
AcDbEntity
  8
PEF-250AG
100
AcDbLine
 10
19.25000007220005
 20
100.9119089407114
 30
0.0
 11
19.25000007220005
 21
101.9119089407114
 31
0.0
  0
LINE
  5
239
330
119E
100
AcDbEntity
  8
PEF-250AG
100
AcDbLine
 10
17.50000007220005
 20
101.9119089407114
 30
0.0
 11
16.50000007220006
 21
100.9119089407114
 31
0.0
  0
LINE
  5
23A
330
119E
100
AcDbEntity
  8
PEF-250AG
100
AcDbLine
 10
16.75000007220005
 20
101.9119089407114
 30
0.0
 11
15.75000007220006
 21
100.9119089407114
 31
0.0
  0
LINE
  5
23B
330
119E
100
AcDbEntity
  8
PEF-250AG
100
AcDbLine
 10
10.25000007220006
 20
101.9119089407114
 30
0.0
 11
9.250000072200066
 21
100.9119089407114
 31
0.0
  0
LINE
  5
23C
330
119E
100
AcDbEntity
  8
PEF-250AG
100
AcDbLine
 10
11.00000007220006
 20
101.9119089407114
 30
0.0
 11
10.00000007220006
 21
100.9119089407114
 31
0.0
  0
LINE
  5
23D
330
119E
100
AcDbEntity
  8
PEF-250AG
100
AcDbLine
 10
13.5
 20
110.4999999999999
 30
0.0
 11
15.5
 21
110.4999999999999
 31
0.0
  0
LINE
  5
23E
330
119E
100
AcDbEntity
  8
PEF-250AG
100
AcDbLine
 10
16.5
 20
109.4999999999999
 30
0.0
 11
16.5
 21
105.9119089407114
 31
0.0
  0
LINE
  5
23F
330
119E
100
AcDbEntity
  8
PEF-250AG
100
AcDbLine
 10
15.5
 20
110.4999999999999
 30
0.0
 11
15.5
 21
105.9119089407114
 31
0.0
  0
LINE
  5
240
330
119E
100
AcDbEntity
  8
PEF-250AG
100
AcDbLine
 10
13.5
 20
110.4999999999999
 30
0.0
 11
11.5
 21
110.4999999999999
 31
0.0
  0
LINE
  5
241
330
119E
100
AcDbEntity
  8
PEF-250AG
100
AcDbLine
 10
11.5
 20
110.4999999999999
 30
0.0
 11
11.5
 21
105.9119089407114
 31
0.0
  0
LINE
  5
242
330
119E
100
AcDbEntity
  8
PEF-250AG
100
AcDbLine
 10
10.5
 20
109.4999999999999
 30
0.0
 11
10.5
 21
105.9119089407114
 31
0.0
  0
LINE
  5
243
330
119E
100
AcDbEntity
  8
PEF-250AG
100
AcDbLine
 10
11.5
 20
110.4999999999999
 30
0.0
 11
10.5
 21
109.4999999999999
 31
0.0
  0
LINE
  5
244
330
119E
100
AcDbEntity
  8
PEF-250AG
100
AcDbLine
 10
10.5
 20
109.4999999999999
 30
0.0
 11
16.5
 21
109.4999999999999
 31
0.0
  0
LINE
  5
245
330
119E
100
AcDbEntity
  8
PEF-250AG
100
AcDbLine
 10
16.5
 20
109.4999999999999
 30
0.0
 11
15.5
 21
110.4999999999999
 31
0.0
  0
ARC
  5
246
330
119E
100
AcDbEntity
  8
PEF-250AG
  6
DASHED
100
AcDbCircle
 10
93.50000007410001
 20
126.0408151873864
 30
0.0
 40
14.19140625
100
AcDbArc
 50
252.5076754748896
 51
287.4923245251103
  0
LINE
  5
247
330
119E
100
AcDbEntity
  8
PEF-250AG
  6
DASHED
100
AcDbLine
 10
87.5937500741
 20
111.8494089373863
 30
0.0
 11
99.4062500741
 21
111.8494089373863
 31
0.0
  0
ARC
  5
248
330
119E
100
AcDbEntity
  8
PEF-250AG
  6
DASHED
100
AcDbCircle
 10
99.4062500741
 20
114.2283151873864
 30
0.0
 40
2.37890625
100
AcDbArc
 50
226.3971810272964
 51
313.6028189727036
  0
LINE
  5
249
330
119E
100
AcDbEntity
  8
PEF-250AG
  6
DASHED
100
AcDbLine
 10
97.7656250741
 20
112.5056589373863
 30
0.0
 11
97.7656250741
 21
117.0994089373863
 31
0.0
  0
LINE
  5
24A
330
119E
100
AcDbEntity
  8
PEF-250AG
  6
DASHED
100
AcDbLine
 10
101.0468750740999
 20
112.5056589373863
 30
0.0
 11
101.0468750740999
 21
117.0994089373863
 31
0.0
  0
ARC
  5
24B
330
119E
100
AcDbEntity
  8
PEF-250AG
  6
DASHED
100
AcDbCircle
 10
87.5937500741
 20
114.2283151873864
 30
0.0
 40
2.37890625
100
AcDbArc
 50
226.3971810272964
 51
313.6028189727036
  0
LINE
  5
24C
330
119E
100
AcDbEntity
  8
PEF-250AG
  6
DASHED
100
AcDbLine
 10
85.9531250741
 20
117.0994089373863
 30
0.0
 11
85.9531250741
 21
112.5056589373863
 31
0.0
  0
LINE
  5
24D
330
119E
100
AcDbEntity
  8
PEF-250AG
  6
DASHED
100
AcDbLine
 10
89.2343750741
 20
117.0994089373863
 30
0.0
 11
89.2343750741
 21
112.5056589373863
 31
0.0
  0
LINE
  5
24E
330
119E
100
AcDbEntity
  8
PEF-250AG
  6
DASHED
100
AcDbLine
 10
89.2343750741
 20
117.0994089373863
 30
0.0
 11
90.54687507409999
 21
118.4119089373863
 31
0.0
  0
LINE
  5
24F
330
119E
100
AcDbEntity
  8
PEF-250AG
  6
DASHED
100
AcDbLine
 10
85.9531250741
 20
117.0994089373863
 30
0.0
 11
101.0468750740999
 21
117.0994089373863
 31
0.0
  0
LINE
  5
250
330
119E
100
AcDbEntity
  8
PEF-250AG
  6
DASHED
100
AcDbLine
 10
96.78125007410001
 20
117.0994089373863
 30
0.0
 11
98.0937500741
 21
118.4119089373863
 31
0.0
  0
LINE
  5
251
330
119E
100
AcDbEntity
  8
PEF-250AG
  6
DASHED
100
AcDbLine
 10
101.0468750740999
 20
117.0994089373863
 30
0.0
 11
101.0468750740999
 21
118.4119089373863
 31
0.0
  0
LINE
  5
252
330
119E
100
AcDbEntity
  8
PEF-250AG
  6
DASHED
100
AcDbLine
 10
97.7656250741
 20
117.0994089373863
 30
0.0
 11
99.0781250741
 21
118.4119089373863
 31
0.0
  0
LINE
  5
253
330
119E
100
AcDbEntity
  8
PEF-250AG
  6
DASHED
100
AcDbLine
 10
85.9531250741
 20
118.4119089373863
 30
0.0
 11
85.9531250741
 21
117.0994089373863
 31
0.0
  0
LINE
  5
254
330
119E
100
AcDbEntity
  8
PEF-250AG
  6
DASHED
100
AcDbLine
 10
88.2500000741
 20
117.0994089373863
 30
0.0
 11
89.5625000741
 21
118.4119089373863
 31
0.0
  0
LINE
  5
255
330
119E
100
AcDbEntity
  8
PEF-250AG
  6
DASHED
100
AcDbLine
 10
97.5
 20
109.25
 30
0.0
 11
96.25
 21
108.0
 31
0.0
  0
LINE
  5
256
330
119E
100
AcDbEntity
  8
PEF-250AG
  6
DASHED
100
AcDbLine
 10
96.25
 20
108.0
 30
0.0
 11
90.75000000000001
 21
108.0
 31
0.0
  0
LINE
  5
257
330
119E
100
AcDbEntity
  8
PEF-250AG
  6
DASHED
100
AcDbLine
 10
90.75000000000001
 20
108.0
 30
0.0
 11
89.50000000000001
 21
109.25
 31
0.0
  0
LINE
  5
258
330
119E
100
AcDbEntity
  8
PEF-250AG
  6
DASHED
100
AcDbLine
 10
89.50000000000001
 20
109.25
 30
0.0
 11
97.5
 21
109.25
 31
0.0
  0
LINE
  5
259
330
119E
100
AcDbEntity
  8
PEF-250AG
  6
DASHED
100
AcDbLine
 10
97.50000007410001
 20
109.25
 30
0.0
 11
97.50000007410001
 21
230.9119089350115
 31
0.0
  0
LINE
  5
25A
330
119E
100
AcDbEntity
  8
PEF-250AG
100
AcDbLine
 10
276.4999999505998
 20
109.4999999999999
 30
0.0
 11
275.4999999505999
 21
110.4999999999999
 31
0.0
  0
LINE
  5
25B
330
119E
100
AcDbEntity
  8
PEF-250AG
100
AcDbLine
 10
270.4999999505998
 20
109.4999999999999
 30
0.0
 11
276.4999999505998
 21
109.4999999999999
 31
0.0
  0
LINE
  5
25C
330
119E
100
AcDbEntity
  8
PEF-250AG
100
AcDbLine
 10
276.7500000228
 20
101.9119089407114
 30
0.0
 11
275.7500000228
 21
100.9119089407114
 31
0.0
  0
ARC
  5
25D
330
119E
100
AcDbEntity
  8
PEF-250AG
100
AcDbCircle
 10
273.5000000228
 20
95.09940894071148
 30
0.0
 40
10.8125
100
AcDbArc
 50
72.50767547488957
 51
107.4923245251103
  0
LINE
  5
25E
330
119E
100
AcDbEntity
  8
PEF-250AG
100
AcDbLine
 10
278.0000000228
 20
105.9119089407114
 30
0.0
 11
269.0000000228
 21
105.9119089407114
 31
0.0
  0
LINE
  5
25F
330
119E
100
AcDbEntity
  8
PEF-250AG
100
AcDbLine
 10
279.2500000228
 20
101.9119089407114
 30
0.0
 11
267.7500000228
 21
101.9119089407114
 31
0.0
  0
LINE
  5
260
330
119E
100
AcDbEntity
  8
PEF-250AG
100
AcDbLine
 10
270.2500000227999
 20
105.4119089407113
 30
0.0
 11
270.2500000227999
 21
101.9119089407114
 31
0.0
  0
LINE
  5
261
330
119E
100
AcDbEntity
  8
PEF-250AG
100
AcDbLine
 10
267.7500000228
 20
105.4119089407113
 30
0.0
 11
267.7500000228
 21
101.9119089407114
 31
0.0
  0
LINE
  5
262
330
119E
100
AcDbEntity
  8
PEF-250AG
100
AcDbLine
 10
271.0000000228
 20
101.9119089407114
 30
0.0
 11
270.0000000228
 21
100.9119089407114
 31
0.0
  0
LINE
  5
263
330
119E
100
AcDbEntity
  8
PEF-250AG
100
AcDbLine
 10
267.7500000228
 20
101.9119089407114
 30
0.0
 11
267.7500000228
 21
100.9119089407114
 31
0.0
  0
LINE
  5
264
330
119E
100
AcDbEntity
  8
PEF-250AG
100
AcDbLine
 10
270.2500000227999
 20
101.9119089407114
 30
0.0
 11
269.2500000228
 21
100.9119089407114
 31
0.0
  0
LINE
  5
265
330
119E
100
AcDbEntity
  8
PEF-250AG
100
AcDbLine
 10
271.4999999505999
 20
110.4999999999999
 30
0.0
 11
270.4999999505998
 21
109.4999999999999
 31
0.0
  0
LINE
  5
266
330
119E
100
AcDbEntity
  8
PEF-250AG
100
AcDbLine
 10
270.4999999505998
 20
109.4999999999999
 30
0.0
 11
270.4999999505998
 21
105.9119089407114
 31
0.0
  0
ARC
  5
267
330
119E
100
AcDbEntity
  8
PEF-250AG
100
AcDbCircle
 10
269.0000000228
 20
104.0994089407113
 30
0.0
 40
1.8125
100
AcDbArc
 50
46.39718102729639
 51
133.6028189727036
  0
LINE
  5
268
330
119E
100
AcDbEntity
  8
PEF-250AG
100
AcDbLine
 10
271.4999999505999
 20
110.4999999999999
 30
0.0
 11
271.4999999505999
 21
105.9119089407114
 31
0.0
  0
LINE
  5
269
330
119E
100
AcDbEntity
  8
PEF-250AG
100
AcDbLine
 10
275.4999999505999
 20
110.4999999999999
 30
0.0
 11
275.4999999505999
 21
105.9119089407114
 31
0.0
  0
LINE
  5
26A
330
119E
100
AcDbEntity
  8
PEF-250AG
100
AcDbLine
 10
273.4999999505999
 20
110.4999999999999
 30
0.0
 11
271.4999999505999
 21
110.4999999999999
 31
0.0
  0
LINE
  5
26B
330
119E
100
AcDbEntity
  8
PEF-250AG
100
AcDbLine
 10
273.4999999505999
 20
110.4999999999999
 30
0.0
 11
275.4999999505999
 21
110.4999999999999
 31
0.0
  0
LINE
  5
26C
330
119E
100
AcDbEntity
  8
PEF-250AG
100
AcDbLine
 10
279.2500000228
 20
101.9119089407114
 30
0.0
 11
279.2500000228
 21
105.4119089407113
 31
0.0
  0
LINE
  5
26D
330
119E
100
AcDbEntity
  8
PEF-250AG
100
AcDbLine
 10
276.7500000228
 20
101.9119089407114
 30
0.0
 11
276.7500000228
 21
105.4119089407113
 31
0.0
  0
LINE
  5
26E
330
119E
100
AcDbEntity
  8
PEF-250AG
100
AcDbLine
 10
279.2500000228
 20
100.9119089407114
 30
0.0
 11
279.2500000228
 21
101.9119089407114
 31
0.0
  0
LINE
  5
26F
330
119E
100
AcDbEntity
  8
PEF-250AG
100
AcDbLine
 10
277.5000000228
 20
101.9119089407114
 30
0.0
 11
276.5000000227999
 21
100.9119089407114
 31
0.0
  0
LINE
  5
270
330
119E
100
AcDbEntity
  8
PEF-250AG
100
AcDbLine
 10
276.4999999505998
 20
109.4999999999999
 30
0.0
 11
276.4999999505998
 21
105.9119089407114
 31
0.0
  0
ARC
  5
271
330
119E
100
AcDbEntity
  8
PEF-250AG
100
AcDbCircle
 10
278.0000000228
 20
104.0994089407113
 30
0.0
 40
1.8125
100
AcDbArc
 50
46.39718102729639
 51
133.6028189727036
  0
LINE
  5
272
330
119E
100
AcDbEntity
  8
PEF-250AG
100
AcDbLine
 10
488.25
 20
257.2144764726181
 30
0.0
 11
498.6323708726287
 21
257.2144764726181
 31
0.0
  0
LINE
  5
273
330
119E
100
AcDbEntity
  8
PEF-250AG
  6
CENTER
100
AcDbLine
 10
541.75
 20
118.514448352259
 30
0.0
 11
541.75
 21
144.205383684875
 31
0.0
  0
LINE
  5
274
330
119E
100
AcDbEntity
  8
PEF-250AG
  6
CENTER
100
AcDbLine
 10
501.75
 20
119.014448352259
 30
0.0
 11
501.75
 21
143.7053836848751
 31
0.0
  0
LINE
  5
275
330
119E
100
AcDbEntity
  8
PEF-250AG
  6
CENTER
100
AcDbLine
 10
489.4045323336918
 20
131.359916018567
 30
0.0
 11
514.095467666308
 21
131.359916018567
 31
0.0
  0
LWPOLYLINE
  5
276
330
119E
100
AcDbEntity
  8
PEF-250AG
100
AcDbPolyline
 90
       16
 70
     1
 43
0.0
 10
495.2499999999998
 20
251.8164412682283
 42
0.1035437591821219
 10
495.7390958202657
 20
249.4799794855633
 42
0.1004425375700987
 10
497.1538059222873
 20
247.4683650568751
 42
0.0963468393521889
 10
499.2459338486993
 20
246.1404330417333
 42
0.0936380886666272
 10
501.75
 20
245.6673329199007
 42
0.0936380886666327
 10
504.2540661513006
 20
246.1404330417333
 42
0.0963468393521938
 10
506.3461940777124
 20
247.4683650568751
 42
0.1004425375701004
 10
507.7609041797338
 20
249.4799794855631
 42
0.1035437591821473
 10
508.25
 20
251.8164412682283
 42
0.1035437591821069
 10
507.7609041797343
 20
254.1529030508931
 42
0.1004425375701033
 10
506.3461940777124
 20
256.1645174795816
 42
0.0963468393521936
 10
504.2540661513006
 20
257.4924494947234
 42
0.0936380886666327
 10
501.75
 20
257.965549616556
 42
0.0936380886666293
 10
499.2459338486993
 20
257.4924494947234
 42
0.0963468393521948
 10
497.1538059222873
 20
256.1645174795816
 42
0.1004425375700855
 10
495.7390958202657
 20
254.1529030508935
 42
0.103543759182117
  0
LINE
  5
288
330
119E
100
AcDbEntity
  8
PEF-250AG
100
AcDbLine
 10
504.8676291273712
 20
257.2144764726181
 30
0.0
 11
538.6323708726288
 21
257.2144764726181
 31
0.0
  0
LINE
  5
289
330
119E
100
AcDbEntity
  8
PEF-250AG
100
AcDbLine
 10
508.25
 20
249.6164793848569
 30
0.0
 11
508.25
 21
251.8164412682283
 31
0.0
  0
LINE
  5
28A
330
119E
100
AcDbEntity
  8
PEF-250AG
100
AcDbLine
 10
495.2499999999998
 20
249.6164793848569
 30
0.0
 11
495.2499999999998
 21
251.8164412682283
 31
0.0
  0
LWPOLYLINE
  5
28B
330
119E
100
AcDbEntity
  8
PEF-250AG
100
AcDbPolyline
 90
        9
 70
     0
 43
0.0
 10
495.2499999999998
 20
249.6164793848569
 42
0.1035437591821223
 10
495.7390958202657
 20
247.2800176021919
 42
0.1004425375700987
 10
497.1538059222873
 20
245.2684031735036
 42
0.0963468393521889
 10
499.2459338486993
 20
243.9404711583619
 42
0.0936380886666272
 10
501.75
 20
243.4673710365292
 42
0.0936380886666327
 10
504.2540661513006
 20
243.9404711583619
 42
0.0963468393521938
 10
506.3461940777124
 20
245.2684031735036
 42
0.1004425375701004
 10
507.7609041797338
 20
247.2800176021916
 42
0.1035437591821472
 10
508.25
 20
249.6164793848569
 42
0.1035437591821069
  0
LWPOLYLINE
  5
296
330
119E
100
AcDbEntity
  8
PEF-250AG
100
AcDbPolyline
 90
        6
 70
     1
 43
0.0
 10
505.4999999999998
 20
251.8164412682283
 10
503.6249999999998
 20
255.06403653242
 10
499.875
 20
255.06403653242
 10
498.0
 20
251.8164412682283
 10
499.875
 20
248.5688460040366
 10
503.6249999999998
 20
248.5688460040366
  0
LWPOLYLINE
  5
29E
330
119E
100
AcDbEntity
  8
PEF-250AG
100
AcDbPolyline
 90
        4
 70
     0
 43
0.0
 10
505.2113248654051
 20
251.3164412682284
 10
503.6249999999998
 20
254.06403653242
 10
499.875
 20
254.06403653242
 10
498.2886751345946
 20
251.3164412682284
  0
LWPOLYLINE
  5
2A4
330
119E
100
AcDbEntity
  8
PEF-250AG
100
AcDbPolyline
 90
       10
 70
     0
 43
0.0
 10
495.2499999999998
 20
251.5576222231258
 42
0.1035437591821219
 10
495.7390958202657
 20
249.2211604404608
 42
0.1004425375700987
 10
497.1538059222873
 20
247.2095460117724
 42
0.0963468393521889
 10
499.2459338486993
 20
245.8816139966308
 42
0.0936380886666272
 10
501.75
 20
245.4085138747982
 42
0.0936380886666327
 10
504.2540661513006
 20
245.8816139966308
 42
0.0963468393521938
 10
506.3461940777124
 20
247.2095460117724
 42
0.1004425375701004
 10
507.7609041797338
 20
249.2211604404605
 42
0.1035437591821473
 10
508.25
 20
251.5576222231258
 42
0.0055542763512697
 10
508.2485624031486
 20
251.6870317456771
 42
0.1004425375701033
  0
LWPOLYLINE
  5
2B0
330
119E
100
AcDbEntity
  8
PEF-250AG
100
AcDbPolyline
 90
        2
 70
     0
 43
0.0
 10
495.2514375968512
 20
251.6870317456771
 42
0.0055542763512683
 10
495.2499999999998
 20
251.5576222231258
 42
0.1035437591821219
  0
LWPOLYLINE
  5
2B4
330
119E
100
AcDbEntity
  8
PEF-250AG
100
AcDbPolyline
 90
       10
 70
     0
 43
0.0
 10
535.25
 20
251.5576222231258
 42
0.1035437591821219
 10
535.7390958202659
 20
249.2211604404608
 42
0.1004425375700987
 10
537.1538059222873
 20
247.2095460117724
 42
0.0963468393521889
 10
539.2459338486993
 20
245.8816139966308
 42
0.0936380886666272
 10
541.75
 20
245.4085138747982
 42
0.0936380886666327
 10
544.2540661513006
 20
245.8816139966308
 42
0.0963468393521938
 10
546.3461940777124
 20
247.2095460117724
 42
0.1004425375701004
 10
547.7609041797339
 20
249.2211604404605
 42
0.1035437591821473
 10
548.2499999999999
 20
251.5576222231258
 42
0.0055542763512697
 10
548.2485624031486
 20
251.6870317456771
 42
0.1004425375701033
  0
LWPOLYLINE
  5
2C0
330
119E
100
AcDbEntity
  8
PEF-250AG
100
AcDbPolyline
 90
        6
 70
     1
 43
0.0
 10
545.5
 20
251.8164412682283
 10
543.625
 20
255.06403653242
 10
539.8749999999998
 20
255.06403653242
 10
538.0
 20
251.8164412682283
 10
539.8749999999998
 20
248.5688460040366
 10
543.625
 20
248.5688460040366
  0
LWPOLYLINE
  5
2C8
330
119E
100
AcDbEntity
  8
PEF-250AG
100
AcDbPolyline
 90
        9
 70
     0
 43
0.0
 10
535.25
 20
249.6164793848569
 42
0.1035437591821223
 10
535.7390958202659
 20
247.2800176021919
 42
0.1004425375700987
 10
537.1538059222873
 20
245.2684031735036
 42
0.0963468393521889
 10
539.2459338486993
 20
243.9404711583619
 42
0.0936380886666272
 10
541.75
 20
243.4673710365292
 42
0.0936380886666327
 10
544.2540661513006
 20
243.9404711583619
 42
0.0963468393521938
 10
546.3461940777124
 20
245.2684031735036
 42
0.1004425375701004
 10
547.7609041797339
 20
247.2800176021916
 42
0.1035437591821472
 10
548.2499999999999
 20
249.6164793848569
 42
0.1035437591821069
  0
LWPOLYLINE
  5
2D3
330
119E
100
AcDbEntity
  8
PEF-250AG
100
AcDbPolyline
 90
       16
 70
     1
 43
0.0
 10
535.25
 20
251.8164412682283
 42
0.1035437591821219
 10
535.7390958202659
 20
249.4799794855633
 42
0.1004425375700987
 10
537.1538059222873
 20
247.4683650568751
 42
0.0963468393521889
 10
539.2459338486993
 20
246.1404330417333
 42
0.0936380886666272
 10
541.75
 20
245.6673329199007
 42
0.0936380886666327
 10
544.2540661513006
 20
246.1404330417333
 42
0.0963468393521938
 10
546.3461940777124
 20
247.4683650568751
 42
0.1004425375701004
 10
547.7609041797339
 20
249.4799794855631
 42
0.1035437591821473
 10
548.2499999999999
 20
251.8164412682283
 42
0.1035437591821069
 10
547.7609041797343
 20
254.1529030508931
 42
0.1004425375701033
 10
546.3461940777124
 20
256.1645174795816
 42
0.0963468393521936
 10
544.2540661513006
 20
257.4924494947234
 42
0.0936380886666327
 10
541.75
 20
257.965549616556
 42
0.0936380886666293
 10
539.2459338486993
 20
257.4924494947234
 42
0.0963468393521948
 10
537.1538059222873
 20
256.1645174795816
 42
0.1004425375700855
 10
535.7390958202659
 20
254.1529030508935
 42
0.103543759182117
  0
LINE
  5
2E5
330
119E
100
AcDbEntity
  8
PEF-250AG
100
AcDbLine
 10
548.2499999999999
 20
249.6164793848569
 30
0.0
 11
548.2499999999999
 21
251.8164412682283
 31
0.0
  0
LWPOLYLINE
  5
2E6
330
119E
100
AcDbEntity
  8
PEF-250AG
100
AcDbPolyline
 90
        4
 70
     0
 43
0.0
 10
545.2113248654052
 20
251.3164412682284
 10
543.625
 20
254.06403653242
 10
539.8749999999998
 20
254.06403653242
 10
538.2886751345948
 20
251.3164412682284
  0
LINE
  5
2EC
330
119E
100
AcDbEntity
  8
PEF-250AG
100
AcDbLine
 10
544.8676291273711
 20
257.2144764726181
 30
0.0
 11
555.25
 21
257.2144764726181
 31
0.0
  0
LWPOLYLINE
  5
2ED
330
119E
100
AcDbEntity
  8
PEF-250AG
100
AcDbPolyline
 90
       16
 70
     1
 43
0.0
 10
495.2499999999998
 20
213.6623711298101
 42
0.1035437591821219
 10
495.7390958202657
 20
211.325909347145
 42
0.1004425375700987
 10
497.1538059222873
 20
209.3142949184569
 42
0.0963468393521889
 10
499.2459338486993
 20
207.986362903315
 42
0.0936380886666272
 10
501.75
 20
207.5132627814824
 42
0.0936380886666327
 10
504.2540661513006
 20
207.9863629033152
 42
0.0963468393521938
 10
506.3461940777124
 20
209.3142949184569
 42
0.1004425375701004
 10
507.7609041797338
 20
211.3259093471449
 42
0.1035437591821473
 10
508.25
 20
213.6623711298101
 42
0.1035437591821069
 10
507.7609041797343
 20
215.998832912475
 42
0.1004425375701033
 10
506.3461940777124
 20
218.0104473411634
 42
0.0963468393521936
 10
504.2540661513006
 20
219.3383793563052
 42
0.0936380886666327
 10
501.75
 20
219.8114794781378
 42
0.0936380886666293
 10
499.2459338486993
 20
219.3383793563052
 42
0.0963468393521948
 10
497.1538059222873
 20
218.0104473411634
 42
0.1004425375700855
 10
495.7390958202657
 20
215.9988329124753
 42
0.103543759182117
  0
LWPOLYLINE
  5
2FF
330
119E
100
AcDbEntity
  8
PEF-250AG
100
AcDbPolyline
 90
       10
 70
     0
 43
0.0
 10
495.2499999999998
 20
213.4035520847076
 42
0.1035437591821219
 10
495.7390958202657
 20
211.0670903020425
 42
0.1004425375700987
 10
497.1538059222873
 20
209.0554758733543
 42
0.0963468393521889
 10
499.2459338486993
 20
207.7275438582125
 42
0.0936380886666272
 10
501.75
 20
207.25444373638
 42
0.0936380886666327
 10
504.2540661513006
 20
207.7275438582125
 42
0.0963468393521938
 10
506.3461940777124
 20
209.0554758733543
 42
0.1004425375701004
 10
507.7609041797338
 20
211.0670903020424
 42
0.1035437591821473
 10
508.25
 20
213.4035520847076
 42
0.0055542763512697
 10
508.2485624031486
 20
213.5329616072588
 42
0.1004425375701033
  0
LWPOLYLINE
  5
30B
330
119E
100
AcDbEntity
  8
PEF-250AG
100
AcDbPolyline
 90
        6
 70
     1
 43
0.0
 10
505.4999999999998
 20
213.6623711298101
 10
503.6249999999998
 20
216.9099663940018
 10
499.875
 20
216.9099663940019
 10
498.0
 20
213.6623711298101
 10
499.875
 20
210.4147758656186
 10
503.6249999999998
 20
210.4147758656185
  0
LWPOLYLINE
  5
313
330
119E
100
AcDbEntity
  8
PEF-250AG
100
AcDbPolyline
 90
        4
 70
     0
 43
0.0
 10
505.2113248654051
 20
213.1623711298101
 10
503.6249999999998
 20
215.9099663940017
 10
499.875
 20
215.9099663940017
 10
498.2886751345946
 20
213.1623711298101
  0
LWPOLYLINE
  5
319
330
119E
100
AcDbEntity
  8
PEF-250AG
100
AcDbPolyline
 90
        9
 70
     0
 43
0.0
 10
495.2499999999998
 20
211.4624092464388
 42
0.1035437591821223
 10
495.7390958202657
 20
209.1259474637737
 42
0.1004425375700987
 10
497.1538059222873
 20
207.1143330350854
 42
0.0963468393521889
 10
499.2459338486993
 20
205.7864010199437
 42
0.0936380886666272
 10
501.75
 20
205.313300898111
 42
0.0936380886666327
 10
504.2540661513006
 20
205.7864010199437
 42
0.0963468393521938
 10
506.3461940777124
 20
207.1143330350854
 42
0.1004425375701004
 10
507.7609041797338
 20
209.1259474637734
 42
0.1035437591821472
 10
508.25
 20
211.4624092464388
 42
0.1035437591821069
  0
LWPOLYLINE
  5
324
330
119E
100
AcDbEntity
  8
PEF-250AG
100
AcDbPolyline
 90
        2
 70
     0
 43
0.0
 10
495.2514375968512
 20
213.5329616072588
 42
0.0055542763512683
 10
495.2499999999998
 20
213.4035520847076
 42
0.1035437591821219
  0
LINE
  5
328
330
119E
100
AcDbEntity
  8
PEF-250AG
100
AcDbLine
 10
495.2499999999998
 20
211.4624092464388
 30
0.0
 11
495.2499999999998
 21
213.6623711298101
 31
0.0
  0
LINE
  5
329
330
119E
100
AcDbEntity
  8
PEF-250AG
100
AcDbLine
 10
508.25
 20
211.4624092464388
 30
0.0
 11
508.25
 21
213.6623711298101
 31
0.0
  0
LWPOLYLINE
  5
32A
330
119E
100
AcDbEntity
  8
PEF-250AG
100
AcDbPolyline
 90
        4
 70
     0
 43
0.0
 10
545.2113248654052
 20
213.1623711298101
 10
543.625
 20
215.9099663940017
 10
539.8749999999998
 20
215.9099663940017
 10
538.2886751345948
 20
213.1623711298101
  0
LWPOLYLINE
  5
330
330
119E
100
AcDbEntity
  8
PEF-250AG
100
AcDbPolyline
 90
       16
 70
     1
 43
0.0
 10
535.25
 20
213.6623711298101
 42
0.1035437591821219
 10
535.7390958202659
 20
211.325909347145
 42
0.1004425375700987
 10
537.1538059222873
 20
209.3142949184569
 42
0.0963468393521889
 10
539.2459338486993
 20
207.986362903315
 42
0.0936380886666272
 10
541.75
 20
207.5132627814824
 42
0.0936380886666327
 10
544.2540661513006
 20
207.9863629033152
 42
0.0963468393521938
 10
546.3461940777124
 20
209.3142949184569
 42
0.1004425375701004
 10
547.7609041797339
 20
211.3259093471449
 42
0.1035437591821473
 10
548.2499999999999
 20
213.6623711298101
 42
0.1035437591821069
 10
547.7609041797343
 20
215.998832912475
 42
0.1004425375701033
 10
546.3461940777124
 20
218.0104473411634
 42
0.0963468393521936
 10
544.2540661513006
 20
219.3383793563052
 42
0.0936380886666327
 10
541.75
 20
219.8114794781378
 42
0.0936380886666293
 10
539.2459338486993
 20
219.3383793563052
 42
0.0963468393521948
 10
537.1538059222873
 20
218.0104473411634
 42
0.1004425375700855
 10
535.7390958202659
 20
215.9988329124753
 42
0.103543759182117
  0
LWPOLYLINE
  5
342
330
119E
100
AcDbEntity
  8
PEF-250AG
100
AcDbPolyline
 90
        6
 70
     1
 43
0.0
 10
545.5
 20
213.6623711298101
 10
543.625
 20
216.9099663940018
 10
539.8749999999998
 20
216.9099663940019
 10
538.0
 20
213.6623711298101
 10
539.8749999999998
 20
210.4147758656186
 10
543.625
 20
210.4147758656185
  0
LWPOLYLINE
  5
34A
330
119E
100
AcDbEntity
  8
PEF-250AG
100
AcDbPolyline
 90
        9
 70
     0
 43
0.0
 10
535.25
 20
211.4624092464388
 42
0.1035437591821223
 10
535.7390958202659
 20
209.1259474637737
 42
0.1004425375700987
 10
537.1538059222873
 20
207.1143330350854
 42
0.0963468393521889
 10
539.2459338486993
 20
205.7864010199437
 42
0.0936380886666272
 10
541.75
 20
205.313300898111
 42
0.0936380886666327
 10
544.2540661513006
 20
205.7864010199437
 42
0.0963468393521938
 10
546.3461940777124
 20
207.1143330350854
 42
0.1004425375701004
 10
547.7609041797339
 20
209.1259474637734
 42
0.1035437591821472
 10
548.2499999999999
 20
211.4624092464388
 42
0.1035437591821069
  0
LWPOLYLINE
  5
355
330
119E
100
AcDbEntity
  8
PEF-250AG
100
AcDbPolyline
 90
       10
 70
     0
 43
0.0
 10
535.25
 20
213.4035520847076
 42
0.1035437591821219
 10
535.7390958202659
 20
211.0670903020425
 42
0.1004425375700987
 10
537.1538059222873
 20
209.0554758733543
 42
0.0963468393521889
 10
539.2459338486993
 20
207.7275438582125
 42
0.0936380886666272
 10
541.75
 20
207.25444373638
 42
0.0936380886666327
 10
544.2540661513006
 20
207.7275438582125
 42
0.0963468393521938
 10
546.3461940777124
 20
209.0554758733543
 42
0.1004425375701004
 10
547.7609041797339
 20
211.0670903020424
 42
0.1035437591821473
 10
548.2499999999999
 20
213.4035520847076
 42
0.0055542763512697
 10
548.2485624031486
 20
213.5329616072588
 42
0.1004425375701033
  0
LINE
  5
361
330
119E
100
AcDbEntity
  8
PEF-250AG
100
AcDbLine
 10
548.2499999999999
 20
211.4624092464388
 30
0.0
 11
548.2499999999999
 21
213.6623711298101
 31
0.0
  0
LINE
  5
362
330
119E
100
AcDbEntity
  8
PEF-250AG
100
AcDbLine
 10
546.7499999999999
 20
240.2067489813779
 30
0.0
 11
546.75
 21
219.0604063341999
 31
0.0
  0
LINE
  5
363
330
119E
100
AcDbEntity
  8
PEF-250AG
100
AcDbLine
 10
496.7500000000002
 20
240.2067489813779
 30
0.0
 11
496.75
 21
219.0604063341999
 31
0.0
  0
LINE
  5
364
330
119E
100
AcDbEntity
  8
PEF-250AG
100
AcDbLine
 10
488.2500000000002
 20
219.0604063341999
 30
0.0
 11
498.6323708726287
 21
219.0604063341999
 31
0.0
  0
LINE
  5
365
330
119E
100
AcDbEntity
  8
PEF-250AG
100
AcDbLine
 10
488.2500000000002
 20
219.0604063341999
 30
0.0
 11
488.2500000000002
 21
202.0526788429598
 31
0.0
  0
LINE
  5
366
330
119E
100
AcDbEntity
  8
PEF-250AG
100
AcDbLine
 10
555.25
 20
219.0604063341999
 30
0.0
 11
555.25
 21
202.0526788429598
 31
0.0
  0
LINE
  5
367
330
119E
100
AcDbEntity
  8
PEF-250AG
100
AcDbLine
 10
544.8676291273711
 20
219.0604063341999
 30
0.0
 11
555.25
 21
219.0604063341999
 31
0.0
  0
LINE
  5
368
330
119E
100
AcDbEntity
  8
PEF-250AG
100
AcDbLine
 10
504.8676291273712
 20
219.0604063341999
 30
0.0
 11
538.6323708726288
 21
219.0604063341999
 31
0.0
  0
LWPOLYLINE
  5
369
330
119E
100
AcDbEntity
  8
PEF-250AG
100
AcDbPolyline
 90
       16
 70
     1
 43
0.0
 10
493.75
 20
131.359916018567
 42
0.1039728282064569
 10
494.3513610670516
 20
128.499264085269
 42
0.1005953896119901
 10
496.0931457505076
 20
126.0330739298483
 42
0.0961605035198474
 10
498.6664280613007
 20
124.4067131245643
 42
0.0932434763556141
 10
501.75
 20
123.8266236920814
 42
0.0932434763556163
 10
504.833571938699
 20
124.4067131245643
 42
0.0961605035198565
 10
507.4068542494923
 20
126.0330739298483
 42
0.1005953896119816
 10
509.1486389329483
 20
128.4992640852688
 42
0.1039728282064672
 10
509.75
 20
131.359916018567
 42
0.1039728282064578
 10
509.1486389329483
 20
134.2205679518652
 42
0.1005953896119761
 10
507.4068542494923
 20
136.6867581072855
 42
0.0961605035198573
 10
504.833571938699
 20
138.3131189125697
 42
0.0932434763556146
 10
501.75
 20
138.8932083450526
 42
0.0932434763556152
 10
498.6664280613007
 20
138.3131189125697
 42
0.0961605035198545
 10
496.0931457505076
 20
136.6867581072855
 42
0.1005953896119924
 10
494.3513610670516
 20
134.220567951865
 42
0.1039728282064639
  0
LWPOLYLINE
  5
37B
330
119E
100
AcDbEntity
  8
PEF-250AG
100
AcDbPolyline
 90
       10
 70
     0
 43
0.0
 10
493.75
 20
130.9716874509132
 42
0.1039728282064569
 10
494.3513610670516
 20
128.1110355176153
 42
0.1005953896119901
 10
496.0931457505076
 20
125.6448453621947
 42
0.0961605035198474
 10
498.6664280613007
 20
124.0184845569104
 42
0.0932434763556141
 10
501.75
 20
123.4383951244277
 42
0.0932434763556163
 10
504.833571938699
 20
124.0184845569104
 42
0.0961605035198565
 10
507.4068542494923
 20
125.6448453621947
 42
0.1005953896119816
 10
509.1486389329483
 20
128.111035517615
 42
0.1039728282064672
 10
509.75
 20
130.9716874509132
 42
0.0068314570303451
 10
509.7473477094429
 20
131.1658017347401
 42
0.1005953896119761
  0
LWPOLYLINE
  5
387
330
119E
100
AcDbEntity
  8
PEF-250AG
100
AcDbPolyline
 90
        2
 70
     0
 43
0.0
 10
493.752652290557
 20
131.16580173474
 42
0.0068314570303439
 10
493.75
 20
130.9716874509132
 42
0.1039728282064569
  0
LWPOLYLINE
  5
38B
330
119E
100
AcDbEntity
  8
PEF-250AG
100
AcDbPolyline
 90
        9
 70
     0
 43
0.0
 10
493.75
 20
128.5776112837148
 42
0.1039728282064569
 10
494.3513610670516
 20
125.7169593504169
 42
0.1005953896119901
 10
496.0931457505076
 20
123.2507691949964
 42
0.0961605035198474
 10
498.6664280613007
 20
121.6244083897122
 42
0.0932434763556141
 10
501.75
 20
121.0443189572292
 42
0.0932434763556163
 10
504.833571938699
 20
121.6244083897122
 42
0.0961605035198565
 10
507.4068542494923
 20
123.2507691949964
 42
0.1005953896119816
 10
509.1486389329483
 20
125.7169593504166
 42
0.1039728282064667
 10
509.75
 20
128.5776112837148
 42
0.1039728282064578
  0
LWPOLYLINE
  5
396
330
119E
100
AcDbEntity
  8
PEF-250AG
100
AcDbPolyline
 90
        6
 70
     1
 43
0.0
 10
506.5
 20
131.359916018567
 10
504.1249999999998
 20
135.473536686543
 10
499.375
 20
135.473536686543
 10
497.0
 20
131.359916018567
 10
499.375
 20
127.2462953505909
 10
504.1249999999998
 20
127.2462953505909
  0
LWPOLYLINE
  5
39E
330
119E
100
AcDbEntity
  8
PEF-250AG
100
AcDbPolyline
 90
        4
 70
     0
 43
0.0
 10
506.2113248654052
 20
130.859916018567
 10
504.1249999999998
 20
134.473536686543
 10
499.375
 20
134.473536686543
 10
497.2886751345948
 20
130.859916018567
  0
LINE
  5
3A4
330
119E
100
AcDbEntity
  8
PEF-250AG
100
AcDbLine
 10
509.75
 20
128.5776112837148
 30
0.0
 11
509.7473477094429
 21
131.1658017347397
 31
0.0
  0
LINE
  5
3A5
330
119E
100
AcDbEntity
  8
PEF-250AG
100
AcDbLine
 10
493.75
 20
128.5776112837148
 30
0.0
 11
493.752652290557
 21
131.1658017347397
 31
0.0
  0
LWPOLYLINE
  5
3A6
330
119E
100
AcDbEntity
  8
PEF-250AG
100
AcDbPolyline
 90
        6
 70
     1
 43
0.0
 10
546.4999999999998
 20
131.359916018567
 10
544.125
 20
135.473536686543
 10
539.3749999999998
 20
135.473536686543
 10
537.0
 20
131.359916018567
 10
539.3749999999998
 20
127.2462953505909
 10
544.125
 20
127.2462953505909
  0
LWPOLYLINE
  5
3AE
330
119E
100
AcDbEntity
  8
PEF-250AG
100
AcDbPolyline
 90
        9
 70
     0
 43
0.0
 10
533.75
 20
128.5776112837148
 42
0.1039728282064569
 10
534.3513610670514
 20
125.7169593504169
 42
0.1005953896119901
 10
536.0931457505074
 20
123.2507691949964
 42
0.0961605035198474
 10
538.6664280613008
 20
121.6244083897122
 42
0.0932434763556141
 10
541.75
 20
121.0443189572292
 42
0.0932434763556163
 10
544.8335719386991
 20
121.6244083897122
 42
0.0961605035198565
 10
547.4068542494923
 20
123.2507691949964
 42
0.1005953896119816
 10
549.1486389329484
 20
125.7169593504166
 42
0.1039728282064667
 10
549.75
 20
128.5776112837148
 42
0.1039728282064578
  0
LWPOLYLINE
  5
3B9
330
119E
100
AcDbEntity
  8
PEF-250AG
100
AcDbPolyline
 90
       10
 70
     0
 43
0.0
 10
533.75
 20
130.9716874509132
 42
0.1039728282064569
 10
534.3513610670514
 20
128.1110355176153
 42
0.1005953896119901
 10
536.0931457505074
 20
125.6448453621947
 42
0.0961605035198474
 10
538.6664280613008
 20
124.0184845569104
 42
0.0932434763556141
 10
541.75
 20
123.4383951244277
 42
0.0932434763556163
 10
544.8335719386991
 20
124.0184845569104
 42
0.0961605035198565
 10
547.4068542494923
 20
125.6448453621947
 42
0.1005953896119816
 10
549.1486389329484
 20
128.111035517615
 42
0.1039728282064672
 10
549.75
 20
130.9716874509132
 42
0.0068314570303451
 10
549.7473477094429
 20
131.1658017347401
 42
0.1005953896119761
  0
LWPOLYLINE
  5
3C5
330
119E
100
AcDbEntity
  8
PEF-250AG
100
AcDbPolyline
 90
       16
 70
     1
 43
0.0
 10
533.75
 20
131.359916018567
 42
0.1039728282064569
 10
534.3513610670514
 20
128.499264085269
 42
0.1005953896119901
 10
536.0931457505074
 20
126.0330739298483
 42
0.0961605035198474
 10
538.6664280613008
 20
124.4067131245643
 42
0.0932434763556141
 10
541.75
 20
123.8266236920814
 42
0.0932434763556163
 10
544.8335719386991
 20
124.4067131245643
 42
0.0961605035198565
 10
547.4068542494923
 20
126.0330739298483
 42
0.1005953896119816
 10
549.1486389329484
 20
128.4992640852688
 42
0.1039728282064672
 10
549.75
 20
131.359916018567
 42
0.1039728282064578
 10
549.1486389329484
 20
134.2205679518652
 42
0.1005953896119761
 10
547.4068542494923
 20
136.6867581072855
 42
0.0961605035198573
 10
544.833571938699
 20
138.3131189125697
 42
0.0932434763556146
 10
541.75
 20
138.8932083450526
 42
0.0932434763556152
 10
538.6664280613008
 20
138.3131189125697
 42
0.0961605035198545
 10
536.0931457505074
 20
136.6867581072855
 42
0.1005953896119924
 10
534.3513610670514
 20
134.220567951865
 42
0.1039728282064639
  0
LINE
  5
3D7
330
119E
100
AcDbEntity
  8
PEF-250AG
100
AcDbLine
 10
549.75
 20
128.5776112837148
 30
0.0
 11
549.7473477094429
 21
131.1658017347397
 31
0.0
  0
LWPOLYLINE
  5
3D8
330
119E
100
AcDbEntity
  8
PEF-250AG
100
AcDbPolyline
 90
        4
 70
     0
 43
0.0
 10
546.2113248654052
 20
130.859916018567
 10
544.125
 20
134.473536686543
 10
539.3749999999998
 20
134.473536686543
 10
537.2886751345946
 20
130.859916018567
  0
LINE
  5
3DE
330
119E
100
AcDbEntity
  8
PEF-250AG
100
AcDbLine
 10
533.75
 20
128.5776112837148
 30
0.0
 11
533.7526522905569
 21
131.1658017347397
 31
0.0
  0
LINE
  5
3DF
330
119E
100
AcDbEntity
  8
PEF-250AG
100
AcDbLine
 10
554.25
 20
147.4119089356763
 30
0.0
 11
554.25
 21
136.2403131327519
 31
0.0
  0
LINE
  5
3E0
330
119E
100
AcDbEntity
  8
PEF-250AG
100
AcDbLine
 10
488.2500000000002
 20
136.2403131327519
 30
0.0
 11
495.6565627673313
 21
136.2403131327519
 31
0.0
  0
LINE
  5
3E1
330
119E
100
AcDbEntity
  8
PEF-250AG
100
AcDbLine
 10
488.2500000000002
 20
120.7854999121267
 30
0.0
 11
555.25
 21
120.7854999121267
 31
0.0
  0
LINE
  5
3E2
330
119E
100
AcDbEntity
  8
PEF-250AG
100
AcDbLine
 10
488.2500000000002
 20
119.2325856415117
 30
0.0
 11
555.25
 21
119.2325856415117
 31
0.0
  0
LINE
  5
3E3
330
119E
100
AcDbEntity
  8
PEF-250AG
100
AcDbLine
 10
507.8434372326685
 20
136.2403131327519
 30
0.0
 11
535.6565627673314
 21
136.2403131327519
 31
0.0
  0
LINE
  5
3E4
330
119E
100
AcDbEntity
  8
PEF-250AG
100
AcDbLine
 10
547.8434372326685
 20
136.2403131327519
 30
0.0
 11
555.2500000000001
 21
136.2403131327519
 31
0.0
  0
LINE
  5
3E5
330
119E
100
AcDbEntity
  8
PEF-250AG
100
AcDbLine
 10
555.2500000000001
 20
136.2403131327519
 30
0.0
 11
555.25
 21
119.2325856415117
 31
0.0
  0
LINE
  5
3E6
330
119E
100
AcDbEntity
  8
PEF-250AG
100
AcDbLine
 10
555.25
 20
133.4119089345364
 30
0.0
 11
559.2499999999999
 21
133.4119089345364
 31
0.0
  0
LINE
  5
3E7
330
119E
100
AcDbEntity
  8
PEF-250AG
100
AcDbLine
 10
489.25
 20
147.4119089356763
 30
0.0
 11
489.25
 21
136.2403131327519
 31
0.0
  0
LINE
  5
3E8
330
119E
100
AcDbEntity
  8
PEF-250AG
  6
CENTER
100
AcDbLine
 10
561.7499999999998
 20
71.75
 30
0.0
 11
561.7499999999998
 21
106.25
 31
0.0
  0
LINE
  5
3E9
330
119E
100
AcDbEntity
  8
PEF-250AG
100
AcDbLine
 10
554.25
 20
202.0526788429598
 30
0.0
 11
554.25
 21
146.4582002501298
 31
0.0
  0
LINE
  5
3EA
330
119E
100
AcDbEntity
  8
PEF-250AG
100
AcDbLine
 10
489.25
 20
202.0526788429598
 30
0.0
 11
489.25
 21
146.4582002501298
 31
0.0
  0
LINE
  5
3EB
330
119E
100
AcDbEntity
  8
PEF-250AG
100
AcDbLine
 10
555.25
 20
257.2144764726181
 30
0.0
 11
555.25
 21
240.2067489813779
 31
0.0
  0
LINE
  5
3EC
330
119E
100
AcDbEntity
  8
PEF-250AG
100
AcDbLine
 10
488.25
 20
257.2144764726181
 30
0.0
 11
488.25
 21
240.2067489813779
 31
0.0
  0
LINE
  5
3ED
330
119E
100
AcDbEntity
  8
PEF-250AG
100
AcDbLine
 10
556.7499999999999
 20
261.9119089424215
 30
0.0
 11
556.7499999999999
 21
233.9119089424214
 31
0.0
  0
LINE
  5
3EE
330
119E
100
AcDbEntity
  8
PEF-250AG
100
AcDbLine
 10
546.7499999999999
 20
233.9119089424213
 30
0.0
 11
556.7499999999999
 21
233.9119089424213
 31
0.0
  0
LINE
  5
3EF
330
119E
100
AcDbEntity
  8
PEF-250AG
100
AcDbLine
 10
484.2500000000002
 20
117.2119089376145
 30
0.0
 11
484.2500000000002
 21
147.4119089356763
 31
0.0
  0
LINE
  5
3F0
330
119E
100
AcDbEntity
  8
PEF-250AG
100
AcDbLine
 10
488.2500000000002
 20
136.2403131327519
 30
0.0
 11
488.25
 21
119.2325856415117
 31
0.0
  0
LINE
  5
3F1
330
119E
100
AcDbEntity
  8
PEF-250AG
  6
CENTER
100
AcDbLine
 10
489.7500000455999
 20
147.4119089356763
 30
0.0
 11
475.25
 21
147.4119089356763
 31
0.0
  0
LINE
  5
3F2
330
119E
100
AcDbEntity
  8
PEF-250AG
100
AcDbLine
 10
471.75
 20
130.9119089350115
 30
0.0
 11
476.4999999999998
 21
130.9119089350115
 31
0.0
  0
LINE
  5
3F3
330
119E
100
AcDbEntity
  8
PEF-250AG
  6
CENTER
100
AcDbLine
 10
489.0
 20
251.8164412682283
 30
0.0
 11
514.095467666308
 21
251.8164412682283
 31
0.0
  0
LINE
  5
3F4
330
119E
100
AcDbEntity
  8
PEF-250AG
  6
CENTER
100
AcDbLine
 10
528.9045323336919
 20
251.8164412682283
 30
0.0
 11
554.4999999999999
 21
251.8164412682283
 31
0.0
  0
LINE
  5
3F5
330
119E
100
AcDbEntity
  8
PEF-250AG
  6
CENTER
100
AcDbLine
 10
528.9045323336919
 20
213.6623711298101
 30
0.0
 11
554.5954676663081
 21
213.6623711298101
 31
0.0
  0
LINE
  5
3F6
330
119E
100
AcDbEntity
  8
PEF-250AG
  6
CENTER
100
AcDbLine
 10
501.75
 20
239.4709736019203
 30
0.0
 11
501.75
 21
264.1619089345364
 31
0.0
  0
LINE
  5
3F7
330
119E
100
AcDbEntity
  8
PEF-250AG
  6
CENTER
100
AcDbLine
 10
541.75
 20
238.9709736019203
 30
0.0
 11
541.75
 21
264.6619089345364
 31
0.0
  0
LINE
  5
3F8
330
119E
100
AcDbEntity
  8
PEF-250AG
  6
CENTER
100
AcDbLine
 10
501.75
 20
201.3169034635021
 30
0.0
 11
501.75
 21
226.0078387961183
 31
0.0
  0
LINE
  5
3F9
330
119E
100
AcDbEntity
  8
PEF-250AG
  6
CENTER
100
AcDbLine
 10
541.75
 20
200.816903463502
 30
0.0
 11
541.75
 21
226.5078387961183
 31
0.0
  0
LINE
  5
3FA
330
119E
100
AcDbEntity
  8
PEF-250AG
  6
CENTER
100
AcDbLine
 10
528.9045323336919
 20
131.359916018567
 30
0.0
 11
554.5954676663081
 21
131.359916018567
 31
0.0
  0
LINE
  5
3FB
330
119E
100
AcDbEntity
  8
PEF-250AG
100
AcDbLine
 10
481.7499999999998
 20
117.2119089376145
 30
0.0
 11
481.7499999999998
 21
114.9119089424214
 31
0.0
  0
LINE
  5
3FC
330
119E
100
AcDbEntity
  8
PEF-250AG
  6
CENTER
100
AcDbLine
 10
553.7499999543999
 20
147.4119089356763
 30
0.0
 11
568.5
 21
147.4119089356763
 31
0.0
  0
LINE
  5
3FD
330
119E
100
AcDbEntity
  8
PEF-250AG
100
AcDbLine
 10
476.4999999999998
 20
127.4119089356764
 30
0.0
 11
476.4999999999998
 21
131.6619089356765
 31
0.0
  0
LINE
  5
3FE
330
119E
100
AcDbEntity
  8
PEF-250AG
100
AcDbLine
 10
476.75
 20
131.9119089356765
 30
0.0
 11
481.5
 21
131.9119089356765
 31
0.0
  0
LINE
  5
3FF
330
119E
100
AcDbEntity
  8
PEF-250AG
100
AcDbLine
 10
481.5
 20
131.9119089356765
 30
0.0
 11
481.5
 21
127.4119089356764
 31
0.0
  0
LINE
  5
400
330
119E
100
AcDbEntity
  8
PEF-250AG
100
AcDbLine
 10
481.5
 20
122.9119089356764
 30
0.0
 11
481.5
 21
127.4119089356764
 31
0.0
  0
LINE
  5
401
330
119E
100
AcDbEntity
  8
PEF-250AG
100
AcDbLine
 10
476.4999999999998
 20
127.4119089356764
 30
0.0
 11
476.4999999999998
 21
123.1619089356764
 31
0.0
  0
LINE
  5
402
330
119E
100
AcDbEntity
  8
PEF-250AG
100
AcDbLine
 10
476.75
 20
122.9119089356764
 30
0.0
 11
481.5
 21
122.9119089356764
 31
0.0
  0
LINE
  5
403
330
119E
100
AcDbEntity
  8
PEF-250AG
100
AcDbLine
 10
481.5
 20
122.9119089356764
 30
0.0
 11
482.0
 21
122.9119089356764
 31
0.0
  0
LINE
  5
404
330
119E
100
AcDbEntity
  8
PEF-250AG
100
AcDbLine
 10
482.0
 20
122.9119089356764
 30
0.0
 11
482.0
 21
131.9119089356765
 31
0.0
  0
LINE
  5
405
330
119E
100
AcDbEntity
  8
PEF-250AG
100
AcDbLine
 10
482.0
 20
131.9119089356765
 30
0.0
 11
481.5
 21
131.9119089356765
 31
0.0
  0
LINE
  5
406
330
119E
100
AcDbEntity
  8
PEF-250AG
100
AcDbLine
 10
482.0
 20
124.1619089356764
 30
0.0
 11
481.5
 21
125.1619089356764
 31
0.0
  0
LINE
  5
407
330
119E
100
AcDbEntity
  8
PEF-250AG
100
AcDbLine
 10
482.0
 20
125.1619089356764
 30
0.0
 11
481.5
 21
126.1619089356764
 31
0.0
  0
LINE
  5
408
330
119E
100
AcDbEntity
  8
PEF-250AG
100
AcDbLine
 10
482.0
 20
129.6619089356765
 30
0.0
 11
481.5
 21
130.6619089356765
 31
0.0
  0
LINE
  5
409
330
119E
100
AcDbEntity
  8
PEF-250AG
100
AcDbLine
 10
482.0
 20
128.6619089356765
 30
0.0
 11
481.5
 21
129.6619089356765
 31
0.0
  0
LINE
  5
40A
330
119E
100
AcDbEntity
  8
PEF-250AG
100
AcDbLine
 10
476.75
 20
122.9119089356764
 30
0.0
 11
476.4999999999998
 21
123.1619089356764
 31
0.0
  0
LINE
  5
40B
330
119E
100
AcDbEntity
  8
PEF-250AG
100
AcDbLine
 10
476.4999999999998
 20
131.6619089356765
 30
0.0
 11
476.75
 21
131.9119089356765
 31
0.0
  0
LINE
  5
40C
330
119E
100
AcDbEntity
  8
PEF-250AG
100
AcDbLine
 10
476.75
 20
122.9119089356764
 30
0.0
 11
476.75
 21
131.9119089356765
 31
0.0
  0
LINE
  5
40D
330
119E
100
AcDbEntity
  8
PEF-250AG
  6
CENTER
100
AcDbLine
 10
487.0
 20
127.4119089356764
 30
0.0
 11
472.5000000455999
 21
127.4119089356764
 31
0.0
  0
LINE
  5
40E
330
119E
100
AcDbEntity
  8
PEF-250AG
100
AcDbLine
 10
566.75
 20
122.9119089356764
 30
0.0
 11
562.0
 21
122.9119089356764
 31
0.0
  0
LINE
  5
40F
330
119E
100
AcDbEntity
  8
PEF-250AG
100
AcDbLine
 10
566.75
 20
131.9119089356765
 30
0.0
 11
562.0
 21
131.9119089356765
 31
0.0
  0
LINE
  5
410
330
119E
100
AcDbEntity
  8
PEF-250AG
100
AcDbLine
 10
566.75
 20
122.9119089356764
 30
0.0
 11
566.75
 21
131.9119089356765
 31
0.0
  0
LINE
  5
411
330
119E
100
AcDbEntity
  8
PEF-250AG
100
AcDbLine
 10
567.0
 20
127.4119089356764
 30
0.0
 11
567.0
 21
131.6619089356765
 31
0.0
  0
LINE
  5
412
330
119E
100
AcDbEntity
  8
PEF-250AG
100
AcDbLine
 10
566.75
 20
122.9119089356764
 30
0.0
 11
567.0
 21
123.1619089356764
 31
0.0
  0
LINE
  5
413
330
119E
100
AcDbEntity
  8
PEF-250AG
100
AcDbLine
 10
567.0
 20
127.4119089356764
 30
0.0
 11
567.0
 21
123.1619089356764
 31
0.0
  0
LINE
  5
414
330
119E
100
AcDbEntity
  8
PEF-250AG
100
AcDbLine
 10
567.0
 20
131.6619089356765
 30
0.0
 11
566.75
 21
131.9119089356765
 31
0.0
  0
LINE
  5
415
330
119E
100
AcDbEntity
  8
PEF-250AG
100
AcDbLine
 10
561.5
 20
129.6619089356765
 30
0.0
 11
562.0
 21
130.6619089356765
 31
0.0
  0
LINE
  5
416
330
119E
100
AcDbEntity
  8
PEF-250AG
100
AcDbLine
 10
562.0
 20
131.9119089356765
 30
0.0
 11
562.0
 21
127.4119089356764
 31
0.0
  0
LINE
  5
417
330
119E
100
AcDbEntity
  8
PEF-250AG
100
AcDbLine
 10
561.5
 20
122.9119089356764
 30
0.0
 11
561.5
 21
131.9119089356765
 31
0.0
  0
LINE
  5
418
330
119E
100
AcDbEntity
  8
PEF-250AG
100
AcDbLine
 10
561.5
 20
124.1619089356764
 30
0.0
 11
562.0
 21
125.1619089356764
 31
0.0
  0
LINE
  5
419
330
119E
100
AcDbEntity
  8
PEF-250AG
100
AcDbLine
 10
561.5
 20
125.1619089356764
 30
0.0
 11
562.0
 21
126.1619089356764
 31
0.0
  0
LINE
  5
41A
330
119E
100
AcDbEntity
  8
PEF-250AG
100
AcDbLine
 10
561.5
 20
128.6619089356765
 30
0.0
 11
562.0
 21
129.6619089356765
 31
0.0
  0
LINE
  5
41B
330
119E
100
AcDbEntity
  8
PEF-250AG
100
AcDbLine
 10
562.0
 20
122.9119089356764
 30
0.0
 11
561.5
 21
122.9119089356764
 31
0.0
  0
LINE
  5
41C
330
119E
100
AcDbEntity
  8
PEF-250AG
100
AcDbLine
 10
562.0
 20
122.9119089356764
 30
0.0
 11
562.0
 21
127.4119089356764
 31
0.0
  0
LINE
  5
41D
330
119E
100
AcDbEntity
  8
PEF-250AG
100
AcDbLine
 10
561.5
 20
131.9119089356765
 30
0.0
 11
562.0
 21
131.9119089356765
 31
0.0
  0
LINE
  5
41E
330
119E
100
AcDbEntity
  8
PEF-250AG
  6
CENTER
100
AcDbLine
 10
556.5
 20
127.4119089356764
 30
0.0
 11
570.9999999544
 21
127.4119089356764
 31
0.0
  0
LINE
  5
41F
330
119E
100
AcDbEntity
  8
PEF-250AG
100
AcDbLine
 10
480.4999999999998
 20
141.9119089812765
 30
0.0
 11
480.4999999999998
 21
147.4119089356763
 31
0.0
  0
ARC
  5
420
330
119E
100
AcDbEntity
  8
PEF-250AG
100
AcDbCircle
 10
482.0
 20
141.9119089812765
 30
0.0
 40
1.5
100
AcDbArc
 50
180.0
 51
270.0000000000021
  0
CIRCLE
  5
421
330
119E
100
AcDbEntity
  8
PEF-250AG
  6
PHANTOM
100
AcDbCircle
 10
253.5000000456
 20
147.4119089356763
 30
0.0
 40
6.999999954399982
  0
LINE
  5
422
330
119E
100
AcDbEntity
  8
PEF-250AG
100
AcDbLine
 10
480.4999999999998
 20
152.9119088900763
 30
0.0
 11
480.4999999999998
 21
147.4119089356763
 31
0.0
  0
ARC
  5
423
330
119E
100
AcDbEntity
  8
PEF-250AG
100
AcDbCircle
 10
482.0
 20
152.9119088900763
 30
0.0
 40
1.5
100
AcDbArc
 50
89.99999999999781
 51
180.0
  0
LINE
  5
424
330
119E
100
AcDbEntity
  8
PEF-250AG
100
AcDbLine
 10
563.0
 20
152.9119088900763
 30
0.0
 11
563.0
 21
147.4119089356763
 31
0.0
  0
LINE
  5
425
330
119E
100
AcDbEntity
  8
PEF-250AG
100
AcDbLine
 10
563.0
 20
141.9119089812765
 30
0.0
 11
563.0
 21
147.4119089356763
 31
0.0
  0
ARC
  5
426
330
119E
100
AcDbEntity
  8
PEF-250AG
100
AcDbCircle
 10
561.5
 20
141.9119089812765
 30
0.0
 40
1.5
100
AcDbArc
 50
269.9999999999976
 51
0.0
  0
ARC
  5
427
330
119E
100
AcDbEntity
  8
PEF-250AG
100
AcDbCircle
 10
561.5
 20
152.9119088900763
 30
0.0
 40
1.5
100
AcDbArc
 50
0.0
 51
90.00000000000218
  0
LINE
  5
428
330
119E
100
AcDbEntity
  8
PEF-250AG
100
AcDbLine
 10
571.75
 20
130.9119089350115
 30
0.0
 11
567.0
 21
130.9119089350115
 31
0.0
  0
LINE
  5
429
330
119E
100
AcDbEntity
  8
PEF-250AG
100
AcDbLine
 10
521.75
 20
117.4119089356764
 30
0.0
 11
555.25
 21
117.4119089356764
 31
0.0
  0
LINE
  5
42A
330
119E
100
AcDbEntity
  8
PEF-250AG
100
AcDbLine
 10
555.25
 20
119.2325856415117
 30
0.0
 11
555.25
 21
117.4119089356764
 31
0.0
  0
LINE
  5
42B
330
119E
100
AcDbEntity
  8
PEF-250AG
100
AcDbLine
 10
521.75
 20
117.4119089356764
 30
0.0
 11
488.25
 21
117.4119089356764
 31
0.0
  0
LINE
  5
42C
330
119E
100
AcDbEntity
  8
PEF-250AG
100
AcDbLine
 10
488.25
 20
119.2325856415117
 30
0.0
 11
488.25
 21
117.4119089356764
 31
0.0
  0
LINE
  5
42D
330
119E
100
AcDbEntity
  8
PEF-250AG
100
AcDbLine
 10
571.75
 20
148.6619089356763
 30
0.0
 11
571.75
 21
150.9119089345364
 31
0.0
  0
LINE
  5
42E
330
119E
100
AcDbEntity
  8
PEF-250AG
100
AcDbLine
 10
583.5913970583788
 20
137.8413970583785
 30
0.0
 11
585.3235949707618
 21
139.5735949707619
 31
0.0
  0
LWPOLYLINE
  5
42F
330
119E
100
AcDbEntity
  8
PEF-250AG
100
AcDbPolyline
 90
        4
 70
     0
 43
0.0
 10
563.0
 20
146.1619089356763
 10
572.25
 20
146.1619089356763
 42
-0.1745178345747603
 10
578.5
 20
143.9119089356764
 10
580.7060141784677
 20
141.2816612613494
  0
LWPOLYLINE
  5
435
330
119E
100
AcDbEntity
  8
PEF-250AG
100
AcDbPolyline
 90
        2
 70
     0
 43
0.0
 10
581.1628809937514
 20
140.7369354431266
 10
583.5913970583788
 20
137.8413970583787
  0
LWPOLYLINE
  5
439
330
119E
100
AcDbEntity
  8
PEF-250AG
100
AcDbPolyline
 90
        4
 70
     0
 43
0.0
 10
563.0
 20
148.6619089356763
 10
572.25
 20
148.6619089356763
 42
-0.230337845715599
 10
581.5
 20
144.1619089356763
 10
582.838444480108
 20
142.5557755595466
  0
LWPOLYLINE
  5
43F
330
119E
100
AcDbEntity
  8
PEF-250AG
100
AcDbPolyline
 90
        2
 70
     0
 43
0.0
 10
583.2987534088715
 20
142.0034048450304
 10
585.3235949707618
 20
139.573594970762
  0
LWPOLYLINE
  5
443
330
119E
100
AcDbEntity
  8
PEF-250AG
100
AcDbPolyline
 90
        6
 70
     0
 43
0.0
 10
583.2987534088715
 20
142.0034048450304
 42
0.0296833009373413
 10
583.0703497537073
 20
141.6546578688875
 42
-0.0747139148820475
 10
582.7499999999998
 20
141.25
 42
-0.2457738449112387
 10
582.222536368449
 20
141.1040093557556
 42
0.1793587836603418
 10
581.5
 20
141.0
 42
0.0825470034923769
 10
581.1628809937514
 20
140.7369354431265
 42
0.1119910928231901
  0
LWPOLYLINE
  5
44B
330
119E
100
AcDbEntity
  8
PEF-250AG
100
AcDbPolyline
 90
        6
 70
     0
 43
0.0
 10
582.838444480108
 20
142.5557755595466
 42
0.034362927474384
 10
582.5703497537073
 20
142.1546578688875
 42
-0.074713914882056
 10
582.2499999999998
 20
141.7499999999999
 42
-0.2457738449111828
 10
581.7225363684491
 20
141.6040093557557
 42
0.1793587836603732
 10
581.0
 20
141.5
 42
0.0705622652689326
 10
580.7060141784677
 20
141.2816612613495
 42
0.1119910928231821
  0
LINE
  5
453
330
119E
100
AcDbEntity
  8
PEF-250AG
100
AcDbLine
 10
584.4574960145702
 20
138.7074960145703
 30
0.0
 11
586.9868283774255
 21
133.7643262422689
 31
0.0
  0
LINE
  5
454
330
119E
100
AcDbEntity
  8
PEF-250AG
100
AcDbLine
 10
583.5913970583788
 20
137.8413970583787
 30
0.0
 11
585.9622195800317
 21
133.2080090558243
 31
0.0
  0
LINE
  5
455
330
119E
100
AcDbEntity
  8
PEF-250AG
100
AcDbLine
 10
585.3079574587756
 20
139.5889551093403
 30
0.0
 11
590.0278694060502
 21
137.2794862281405
 31
0.0
  0
LINE
  5
456
330
119E
100
AcDbEntity
  8
PEF-250AG
100
AcDbLine
 10
584.4574960145702
 20
138.7074960145703
 30
0.0
 11
589.4860374878967
 21
136.2470136623147
 31
0.0
  0
LINE
  5
457
330
119E
100
AcDbEntity
  8
PEF-250AG
100
AcDbLine
 10
585.4014786091725
 20
132.9035515496755
 30
0.0
 11
587.4294033402758
 21
129.1685788208621
 31
0.0
  0
LINE
  5
458
330
119E
100
AcDbEntity
  8
PEF-250AG
100
AcDbLine
 10
587.4294033402758
 20
129.1685788208621
 30
0.0
 11
589.6264461219308
 21
130.361475721511
 31
0.0
  0
LINE
  5
459
330
119E
100
AcDbEntity
  8
PEF-250AG
100
AcDbLine
 10
589.6264461219308
 20
130.361475721511
 30
0.0
 11
587.5985213908275
 21
134.0964484503244
 31
0.0
  0
LINE
  5
45A
330
119E
100
AcDbEntity
  8
PEF-250AG
100
AcDbLine
 10
587.5985213908275
 20
134.0964484503244
 30
0.0
 11
585.4014786091725
 21
132.9035515496755
 31
0.0
  0
ARC
  5
45B
330
119E
100
AcDbEntity
  8
PEF-250AG
100
AcDbCircle
 10
589.7208216317522
 20
127.5679844895317
 30
0.0
 40
1.0
100
AcDbArc
 50
28.50000000000003
 51
208.4999999999999
  0
ARC
  5
45C
330
119E
100
AcDbEntity
  8
PEF-250AG
100
AcDbCircle
 10
589.7208216317522
 20
127.5679844895317
 30
0.0
 40
2.0
100
AcDbArc
 50
28.50000000000003
 51
208.4999999999999
  0
LINE
  5
45D
330
119E
100
AcDbEntity
  8
PEF-250AG
100
AcDbLine
 10
589.6264461219308
 20
130.361475721511
 30
0.0
 11
589.8725104609227
 21
129.9082815858646
 31
0.0
  0
ARC
  5
45E
330
119E
100
AcDbEntity
  8
PEF-250AG
100
AcDbCircle
 10
590.7513275735847
 20
130.3854403461244
 30
0.0
 40
1.0
100
AcDbArc
 50
208.4999999999999
 51
249.9096221092707
  0
ARC
  5
45F
330
119E
100
AcDbEntity
  8
PEF-250AG
100
AcDbCircle
 10
586.796650566606
 20
128.238225924956
 30
0.0
 40
1.0
100
AcDbArc
 50
347.0903778907293
 51
28.50000000000003
  0
LINE
  5
460
330
119E
100
AcDbEntity
  8
PEF-250AG
100
AcDbLine
 10
587.4294033402758
 20
129.1685788208621
 30
0.0
 11
587.6754676792677
 21
128.7153846852157
 31
0.0
  0
LINE
  5
461
330
119E
100
AcDbEntity
  8
PEF-250AG
100
AcDbLine
 10
590.5996387444144
 20
128.0451432497913
 30
0.0
 11
592.0311150251932
 21
125.4086919118054
 31
0.0
  0
LINE
  5
462
330
119E
100
AcDbEntity
  8
PEF-250AG
100
AcDbLine
 10
591.4784558570763
 20
128.5223020100509
 30
0.0
 11
592.909932137855
 21
125.8858506720649
 31
0.0
  0
LINE
  5
463
330
119E
100
AcDbEntity
  8
PEF-250AG
100
AcDbLine
 10
592.909932137855
 20
125.8858506720649
 30
0.0
 11
592.0311150251932
 21
125.4086919118054
 31
0.0
  0
LINE
  5
464
330
119E
100
AcDbEntity
  8
PEF-250AG
100
AcDbLine
 10
588.8420045190903
 20
127.0908257292721
 30
0.0
 11
590.2734807998694
 21
124.4543743912862
 31
0.0
  0
LINE
  5
465
330
119E
100
AcDbEntity
  8
PEF-250AG
100
AcDbLine
 10
590.2734807998694
 20
124.4543743912862
 30
0.0
 11
589.3946636872072
 21
123.9772156310265
 31
0.0
  0
LINE
  5
466
330
119E
100
AcDbEntity
  8
PEF-250AG
100
AcDbLine
 10
589.3946636872072
 20
123.9772156310265
 30
0.0
 11
587.9631874064285
 21
126.6136669690125
 31
0.0
  0
LINE
  5
467
330
119E
100
AcDbEntity
  8
PEF-250AG
100
AcDbLine
 10
594.0941260179754
 20
135.8819163980645
 30
0.0
 11
590.3308606898531
 21
137.8568427435652
 31
0.0
  0
LINE
  5
468
330
119E
100
AcDbEntity
  8
PEF-250AG
100
AcDbLine
 10
589.1691393101467
 20
135.6431572564345
 30
0.0
 11
592.9324046382688
 21
133.6682309109338
 31
0.0
  0
LINE
  5
469
330
119E
100
AcDbEntity
  8
PEF-250AG
100
AcDbLine
 10
594.0941260179754
 20
135.8819163980645
 30
0.0
 11
594.5507531211477
 21
135.642282777393
 31
0.0
  0
ARC
  5
46A
330
119E
100
AcDbEntity
  8
PEF-250AG
100
AcDbCircle
 10
595.0154416730305
 20
136.5277569722454
 30
0.0
 40
1.0
100
AcDbArc
 50
242.3099324740202
 51
283.7195545832908
  0
ARC
  5
46B
330
119E
100
AcDbEntity
  8
PEF-250AG
100
AcDbCircle
 10
592.924343189559
 20
132.54312309541
 30
0.0
 40
1.0
100
AcDbArc
 50
20.90031036474959
 51
62.30993247402023
  0
LINE
  5
46C
330
119E
100
AcDbEntity
  8
PEF-250AG
100
AcDbLine
 10
592.9324046382688
 20
133.6682309109338
 30
0.0
 11
593.3890317414415
 21
133.4285972902624
 31
0.0
  0
LINE
  5
46D
330
119E
100
AcDbEntity
  8
PEF-250AG
100
AcDbLine
 10
592.9324046382688
 20
133.6682309109338
 30
0.0
 11
594.0941260179754
 21
135.8819163980645
 31
0.0
  0
ARC
  5
46E
330
119E
100
AcDbEntity
  8
PEF-250AG
100
AcDbCircle
 10
595.7269508152528
 20
133.6133522747928
 30
0.0
 40
2.0
100
AcDbArc
 50
62.30993247402023
 51
242.3099324740202
  0
ARC
  5
46F
330
119E
100
AcDbEntity
  8
PEF-250AG
100
AcDbCircle
 10
595.7269508152528
 20
133.6133522747928
 30
0.0
 40
1.0
100
AcDbArc
 50
62.30993247402023
 51
242.3099324740202
  0
LINE
  5
470
330
119E
100
AcDbEntity
  8
PEF-250AG
100
AcDbLine
 10
599.3127505035747
 20
133.9902350088497
 30
0.0
 11
598.8480619516923
 21
133.1047608139975
 31
0.0
  0
LINE
  5
471
330
119E
100
AcDbEntity
  8
PEF-250AG
100
AcDbLine
 10
597.9186848479272
 20
131.333812424293
 30
0.0
 11
597.4539962960448
 21
130.4483382294405
 31
0.0
  0
LINE
  5
472
330
119E
100
AcDbEntity
  8
PEF-250AG
100
AcDbLine
 10
595.2622622633704
 20
132.7278780799405
 30
0.0
 11
597.9186848479272
 21
131.333812424293
 31
0.0
  0
LINE
  5
473
330
119E
100
AcDbEntity
  8
PEF-250AG
100
AcDbLine
 10
596.6563279190178
 20
135.3843006644974
 30
0.0
 11
599.3127505035747
 21
133.9902350088497
 31
0.0
  0
LINE
  5
474
330
119E
100
AcDbEntity
  8
PEF-250AG
100
AcDbLine
 10
596.1916393671352
 20
134.4988264696451
 30
0.0
 11
598.8480619516923
 21
133.1047608139975
 31
0.0
  0
LINE
  5
475
330
119E
100
AcDbEntity
  8
PEF-250AG
100
AcDbLine
 10
590.3308606898531
 20
137.8568427435652
 30
0.0
 11
589.1691393101467
 21
135.6431572564345
 31
0.0
  0
LINE
  5
476
330
119E
100
AcDbEntity
  8
PEF-250AG
100
AcDbLine
 10
597.4539962960448
 20
130.4483382294405
 30
0.0
 11
594.7975737114878
 21
131.8424038850882
 31
0.0
  0
LINE
  5
49D
330
119E
100
AcDbEntity
  8
PEF-250AG
  6
CENTER
100
AcDbLine
 10
161.25
 20
127.4119089356764
 30
0.0
 11
145.8205081212886
 21
127.4119089356764
 31
0.0
  0
LINE
  5
49E
330
119E
100
AcDbEntity
  8
PEF-250AG
  6
CENTER
100
AcDbLine
 10
27.75000007220006
 20
366.3536940425239
 30
0.0
 11
27.75000007220006
 21
293.6036940425239
 31
0.0
  0
ARC
  5
49F
330
119E
100
AcDbEntity
  8
PEF-250AG
100
AcDbCircle
 10
27.75000007220006
 20
307.3536940425237
 30
0.0
 40
10.0
100
AcDbArc
 50
180.0
 51
0.0
  0
ARC
  5
4A0
330
119E
100
AcDbEntity
  8
PEF-250AG
100
AcDbCircle
 10
27.75000007220006
 20
307.3536940425237
 30
0.0
 40
3.5
100
AcDbArc
 50
180.0
 51
0.0
  0
ARC
  5
4A1
330
119E
100
AcDbEntity
  8
PEF-250AG
100
AcDbCircle
 10
27.75000007220006
 20
327.3536940425239
 30
0.0
 40
3.5
100
AcDbArc
 50
0.0
 51
180.0
  0
LINE
  5
4A2
330
119E
100
AcDbEntity
  8
PEF-250AG
100
AcDbLine
 10
37.75000007220006
 20
342.3536940444238
 30
0.0
 11
37.75000007220006
 21
307.3536940425237
 31
0.0
  0
LINE
  5
4A3
330
119E
100
AcDbEntity
  8
PEF-250AG
100
AcDbLine
 10
31.25000007220005
 20
307.3536940425237
 30
0.0
 11
31.25000007220005
 21
327.3536940425239
 31
0.0
  0
LINE
  5
4A4
330
119E
100
AcDbEntity
  8
PEF-250AG
100
AcDbLine
 10
24.25000007220006
 20
327.3536940425239
 30
0.0
 11
24.25000007220006
 21
307.3536940425237
 31
0.0
  0
LINE
  5
4A5
330
119E
100
AcDbEntity
  8
PEF-250AG
100
AcDbLine
 10
17.75000007220006
 20
307.3536940425237
 30
0.0
 11
17.75000007220006
 21
352.3536940425239
 31
0.0
  0
LINE
  5
4A6
330
119E
100
AcDbEntity
  8
PEF-250AG
  6
CENTER
100
AcDbLine
 10
42.50000007220006
 20
317.3536940425238
 30
0.0
 11
12.75000007220006
 21
317.3536940425238
 31
0.0
  0
LINE
  5
4A7
330
119E
100
AcDbEntity
  8
PEF-250AG
  6
CENTER
100
AcDbLine
 10
42.50000007220006
 20
352.3536940425239
 30
0.0
 11
13.00000007220005
 21
352.3536940425239
 31
0.0
  0
ARC
  5
4A8
330
119E
100
AcDbEntity
  8
PEF-250AG
  6
DASHED
100
AcDbCircle
 10
27.75000007220006
 20
352.3536940425239
 30
0.0
 40
10.0
100
AcDbArc
 50
0.0
 51
180.0
  0
ARC
  5
4A9
330
119E
100
AcDbEntity
  8
PEF-250AG
  6
DASHED
100
AcDbCircle
 10
27.75000007220006
 20
352.3536940425239
 30
0.0
 40
10.0
100
AcDbArc
 50
180.0
 51
0.0
  0
LINE
  5
4AA
330
119E
100
AcDbEntity
  8
PEF-250AG
  6
CENTER
100
AcDbLine
 10
35.50000007220006
 20
307.3536940425237
 30
0.0
 11
20.25000007220005
 21
307.3536940425237
 31
0.0
  0
LINE
  5
4AB
330
119E
100
AcDbEntity
  8
PEF-250AG
  6
CENTER
100
AcDbLine
 10
35.50000007220006
 20
327.3536940425239
 30
0.0
 11
19.75000007220005
 21
327.3536940425239
 31
0.0
  0
LINE
  5
4AC
330
119E
100
AcDbEntity
  8
PEF-250AG
  6
DASHED
100
AcDbLine
 10
37.75000007220006
 20
342.3536940444238
 30
0.0
 11
37.75000007220006
 21
352.3536940425239
 31
0.0
  0
ARC
  5
4AD
330
119E
100
AcDbEntity
  8
PEF-250AG
100
AcDbCircle
 10
287.7500000228
 20
307.3536940425237
 30
0.0
 40
10.0
100
AcDbArc
 50
180.0
 51
0.0
  0
LINE
  5
4AE
330
119E
100
AcDbEntity
  8
PEF-250AG
  6
CENTER
100
AcDbLine
 10
295.0000000228
 20
327.3536940425239
 30
0.0
 11
280.2500000228
 21
327.3536940425239
 31
0.0
  0
LINE
  5
4AF
330
119E
100
AcDbEntity
  8
PEF-250AG
  6
CENTER
100
AcDbLine
 10
302.5000000228
 20
317.3536940425238
 30
0.0
 11
272.7500000228
 21
317.3536940425238
 31
0.0
  0
LINE
  5
4B0
330
119E
100
AcDbEntity
  8
PEF-250AG
  6
CENTER
100
AcDbLine
 10
295.0000000228
 20
307.3536940425237
 30
0.0
 11
280.2500000228
 21
307.3536940425237
 31
0.0
  0
LINE
  5
4B1
330
119E
100
AcDbEntity
  8
PEF-250AG
100
AcDbLine
 10
277.7500000228
 20
307.3536940425237
 30
0.0
 11
277.7500000228
 21
342.3536940444238
 31
0.0
  0
LINE
  5
4B2
330
119E
100
AcDbEntity
  8
PEF-250AG
100
AcDbLine
 10
297.7500000228
 20
342.3536940444238
 30
0.0
 11
297.7500000228
 21
307.3536940425237
 31
0.0
  0
LINE
  5
4B3
330
119E
100
AcDbEntity
  8
PEF-250AG
100
AcDbLine
 10
291.2500000228
 20
307.3536940425237
 30
0.0
 11
291.2500000228
 21
327.3536940425239
 31
0.0
  0
LINE
  5
4B4
330
119E
100
AcDbEntity
  8
PEF-250AG
100
AcDbLine
 10
284.2500000228
 20
327.3536940425239
 30
0.0
 11
284.2500000228
 21
307.3536940425237
 31
0.0
  0
ARC
  5
4B5
330
119E
100
AcDbEntity
  8
PEF-250AG
100
AcDbCircle
 10
287.7500000228
 20
307.3536940425237
 30
0.0
 40
3.5
100
AcDbArc
 50
180.0
 51
0.0
  0
ARC
  5
4B6
330
119E
100
AcDbEntity
  8
PEF-250AG
100
AcDbCircle
 10
287.7500000228
 20
327.3536940425239
 30
0.0
 40
3.5
100
AcDbArc
 50
0.0
 51
180.0
  0
ARC
  5
4B7
330
119E
100
AcDbEntity
  8
PEF-250AG
  6
DASHED
100
AcDbCircle
 10
287.7500000228
 20
352.3536940425239
 30
0.0
 40
10.0
100
AcDbArc
 50
0.0
 51
180.0
  0
LINE
  5
4B8
330
119E
100
AcDbEntity
  8
PEF-250AG
  6
CENTER
100
AcDbLine
 10
302.5000000228
 20
352.3536940425239
 30
0.0
 11
273.0000000228
 21
352.3536940425239
 31
0.0
  0
ARC
  5
4B9
330
119E
100
AcDbEntity
  8
PEF-250AG
  6
DASHED
100
AcDbCircle
 10
287.7500000228
 20
352.3536940425239
 30
0.0
 40
10.0
100
AcDbArc
 50
180.0
 51
0.0
  0
LINE
  5
4BA
330
119E
100
AcDbEntity
  8
PEF-250AG
  6
DASHED
100
AcDbLine
 10
297.7500000228
 20
342.3536940444238
 30
0.0
 11
297.7500000228
 21
352.3536940425239
 31
0.0
  0
LWPOLYLINE
  5
4BB
330
119E
100
AcDbEntity
  8
PEF-250AG
100
AcDbPolyline
 90
        6
 70
     1
 43
0.0
 10
101.2499999999999
 20
392.3536940349237
 10
104.50000003705
 20
386.7245288461523
 10
111.00000011115
 20
386.7245288461523
 10
114.2500001482
 20
392.3536940349237
 10
111.00000011115
 20
397.9828592236951
 10
104.50000003705
 20
397.9828592236951
  0
CIRCLE
  5
4C3
330
119E
100
AcDbEntity
  8
PEF-250AG
100
AcDbCircle
 10
107.7500000741
 20
392.3536940444238
 30
0.0
 40
5.603694044423888
  0
LWPOLYLINE
  5
4C4
330
119E
100
AcDbEntity
  8
PEF-250AG
100
AcDbPolyline
 90
        6
 70
     1
 43
0.0
 10
282.0000000228
 20
352.3536940425239
 10
284.8750000228
 20
347.3740479707633
 10
290.6250000228
 20
347.3740479707633
 10
293.5000000228
 20
352.3536940425239
 10
290.6250000228
 20
357.3333401142843
 10
284.8750000228
 20
357.3333401142843
  0
CIRCLE
  5
4CC
330
119E
100
AcDbEntity
  8
PEF-250AG
100
AcDbCircle
 10
287.7500000228
 20
352.3536940425239
 30
0.0
 40
4.979646071760498
  0
ARC
  5
4CD
330
119E
100
AcDbEntity
  8
PEF-250AG
100
AcDbCircle
 10
287.7500000228
 20
352.3536940425239
 30
0.0
 40
2.0
100
AcDbArc
 50
262.8749836510981
 51
187.1250163489016
  0
CIRCLE
  5
4CE
330
119E
100
AcDbEntity
  8
PEF-250AG
100
AcDbCircle
 10
287.7500000228
 20
352.3536940425239
 30
0.0
 40
3.0
  0
LINE
  5
4CF
330
119E
100
AcDbEntity
  8
PEF-250AG
  6
DASHED
100
AcDbLine
 10
277.7500000228
 20
342.3536940444238
 30
0.0
 11
277.7500000228
 21
352.3536940425239
 31
0.0
  0
ARC
  5
4D0
330
119E
100
AcDbEntity
  8
PEF-250AG
  6
DASHED
100
AcDbCircle
 10
287.7500000228
 20
432.3536940463237
 30
0.0
 40
10.0
100
AcDbArc
 50
180.0
 51
0.0
  0
LINE
  5
4D1
330
119E
100
AcDbEntity
  8
PEF-250AG
100
AcDbLine
 10
277.7500000228
 20
477.3536940463237
 30
0.0
 11
277.7500000228
 21
442.3536940444239
 31
0.0
  0
LINE
  5
4D2
330
119E
100
AcDbEntity
  8
PEF-250AG
100
AcDbLine
 10
284.2500000228
 20
457.3536940463237
 30
0.0
 11
284.2500000228
 21
477.3536940463237
 31
0.0
  0
LINE
  5
4D3
330
119E
100
AcDbEntity
  8
PEF-250AG
100
AcDbLine
 10
291.2500000228
 20
477.3536940463237
 30
0.0
 11
291.2500000228
 21
457.3536940463237
 31
0.0
  0
LINE
  5
4D4
330
119E
100
AcDbEntity
  8
PEF-250AG
100
AcDbLine
 10
297.7500000228
 20
442.3536940444239
 30
0.0
 11
297.7500000228
 21
477.3536940463237
 31
0.0
  0
ARC
  5
4D5
330
119E
100
AcDbEntity
  8
PEF-250AG
100
AcDbCircle
 10
287.7500000228
 20
477.3536940463237
 30
0.0
 40
10.0
100
AcDbArc
 50
0.0
 51
180.0
  0
ARC
  5
4D6
330
119E
100
AcDbEntity
  8
PEF-250AG
100
AcDbCircle
 10
287.7500000228
 20
477.3536940463237
 30
0.0
 40
3.5
100
AcDbArc
 50
0.0
 51
180.0
  0
LINE
  5
4D7
330
119E
100
AcDbEntity
  8
PEF-250AG
  6
CENTER
100
AcDbLine
 10
295.0000000228
 20
477.3536940463237
 30
0.0
 11
280.2500000228
 21
477.3536940463237
 31
0.0
  0
ARC
  5
4D8
330
119E
100
AcDbEntity
  8
PEF-250AG
  6
DASHED
100
AcDbCircle
 10
287.7500000228
 20
432.3536940463237
 30
0.0
 40
10.0
100
AcDbArc
 50
0.0
 51
180.0
  0
LINE
  5
4D9
330
119E
100
AcDbEntity
  8
PEF-250AG
  6
DASHED
100
AcDbLine
 10
277.7500000228
 20
442.3536940444239
 30
0.0
 11
277.7500000228
 21
432.3536940463237
 31
0.0
  0
ARC
  5
4DA
330
119E
100
AcDbEntity
  8
PEF-250AG
100
AcDbCircle
 10
287.7500000228
 20
457.3536940463237
 30
0.0
 40
3.5
100
AcDbArc
 50
180.0
 51
0.0
  0
LINE
  5
4DB
330
119E
100
AcDbEntity
  8
PEF-250AG
  6
CENTER
100
AcDbLine
 10
295.0000000228
 20
457.3536940463237
 30
0.0
 11
280.2500000228
 21
457.3536940463237
 31
0.0
  0
CIRCLE
  5
4DC
330
119E
100
AcDbEntity
  8
PEF-250AG
100
AcDbCircle
 10
287.7500000228
 20
432.3536940463237
 30
0.0
 40
3.0
  0
CIRCLE
  5
4DD
330
119E
100
AcDbEntity
  8
PEF-250AG
100
AcDbCircle
 10
287.7500000228
 20
432.3536940463237
 30
0.0
 40
4.979646071760498
  0
LWPOLYLINE
  5
4DE
330
119E
100
AcDbEntity
  8
PEF-250AG
100
AcDbPolyline
 90
        6
 70
     1
 43
0.0
 10
282.0000000228
 20
432.3536940463237
 10
284.8750000228
 20
437.3333401180842
 10
290.6250000228
 20
437.3333401180842
 10
293.5000000228
 20
432.3536940463237
 10
290.6250000228
 20
427.3740479745632
 10
284.8750000228
 20
427.3740479745632
  0
ARC
  5
4E6
330
119E
100
AcDbEntity
  8
PEF-250AG
100
AcDbCircle
 10
287.7500000228
 20
432.3536940463237
 30
0.0
 40
2.0
100
AcDbArc
 50
262.8749836510981
 51
187.1250163489018
  0
LINE
  5
4E7
330
119E
100
AcDbEntity
  8
PEF-250AG
  6
DASHED
100
AcDbLine
 10
297.7500000228
 20
442.3536940444239
 30
0.0
 11
297.7500000228
 21
432.3536940463237
 31
0.0
  0
LINE
  5
4E8
330
119E
100
AcDbEntity
  8
PEF-250AG
  6
CENTER
100
AcDbLine
 10
302.5000000228
 20
467.3536940463239
 30
0.0
 11
272.7500000228
 21
467.3536940463239
 31
0.0
  0
LINE
  5
4E9
330
119E
100
AcDbEntity
  8
PEF-250AG
  6
CENTER
100
AcDbLine
 10
302.5000000228
 20
432.3536940463237
 30
0.0
 11
273.0000000228
 21
432.3536940463237
 31
0.0
  0
LINE
  5
4EA
330
119E
100
AcDbEntity
  8
PEF-250AG
  6
CENTER
100
AcDbLine
 10
39.25000007220006
 20
457.3536940463237
 30
0.0
 11
15.50000007220005
 21
457.3536940463237
 31
0.0
  0
LINE
  5
4EB
330
119E
100
AcDbEntity
  8
PEF-250AG
  6
CENTER
100
AcDbLine
 10
39.25000007220006
 20
477.3536940463237
 30
0.0
 11
15.50000007220005
 21
477.3536940463237
 31
0.0
  0
LINE
  5
4EC
330
119E
100
AcDbEntity
  8
PEF-250AG
  6
CENTER
100
AcDbLine
 10
42.50000007220006
 20
467.3536940463237
 30
0.0
 11
12.75000007220006
 21
467.3536940463237
 31
0.0
  0
ARC
  5
4ED
330
119E
100
AcDbEntity
  8
PEF-250AG
100
AcDbCircle
 10
27.75000007220006
 20
477.3536940463237
 30
0.0
 40
10.0
100
AcDbArc
 50
0.0
 51
180.0
  0
LINE
  5
4EE
330
119E
100
AcDbEntity
  8
PEF-250AG
100
AcDbLine
 10
31.25000007220005
 20
477.3536940463237
 30
0.0
 11
31.25000007220005
 21
457.3536940463237
 31
0.0
  0
LINE
  5
4EF
330
119E
100
AcDbEntity
  8
PEF-250AG
100
AcDbLine
 10
37.75000007220006
 20
442.3536940444238
 30
0.0
 11
37.75000007220006
 21
477.3536940463237
 31
0.0
  0
ARC
  5
4F0
330
119E
100
AcDbEntity
  8
PEF-250AG
100
AcDbCircle
 10
27.75000007220006
 20
477.3536940463237
 30
0.0
 40
3.5
100
AcDbArc
 50
0.0
 51
180.0
  0
ARC
  5
4F1
330
119E
100
AcDbEntity
  8
PEF-250AG
100
AcDbCircle
 10
27.75000007220006
 20
457.3536940463237
 30
0.0
 40
3.5
100
AcDbArc
 50
180.0
 51
0.0
  0
LINE
  5
4F2
330
119E
100
AcDbEntity
  8
PEF-250AG
100
AcDbLine
 10
17.75000007220006
 20
477.3536940463237
 30
0.0
 11
17.75000007220006
 21
432.3536940463237
 31
0.0
  0
LINE
  5
4F3
330
119E
100
AcDbEntity
  8
PEF-250AG
100
AcDbLine
 10
24.25000007220006
 20
457.3536940463237
 30
0.0
 11
24.25000007220006
 21
477.3536940463237
 31
0.0
  0
ARC
  5
4F4
330
119E
100
AcDbEntity
  8
PEF-250AG
  6
DASHED
100
AcDbCircle
 10
27.75000007220006
 20
432.3536940463237
 30
0.0
 40
10.0
100
AcDbArc
 50
0.0
 51
180.0
  0
ARC
  5
4F5
330
119E
100
AcDbEntity
  8
PEF-250AG
  6
DASHED
100
AcDbCircle
 10
27.75000007220006
 20
432.3536940463237
 30
0.0
 40
10.0
100
AcDbArc
 50
180.0
 51
0.0
  0
LINE
  5
4F6
330
119E
100
AcDbEntity
  8
PEF-250AG
  6
DASHED
100
AcDbLine
 10
37.75000007220006
 20
442.3536940444238
 30
0.0
 11
37.75000007220006
 21
432.3536940463237
 31
0.0
  0
LINE
  5
4F7
330
119E
100
AcDbEntity
  8
PEF-250AG
100
AcDbLine
 10
339.1790025928591
 20
259.4119089356762
 30
0.0
 11
338.5
 21
261.9119089424215
 31
0.0
  0
LINE
  5
542
330
119E
100
AcDbEntity
  8
PEF-250AG
  6
CENTER
100
AcDbLine
 10
93.50000007410001
 20
102.0
 30
0.0
 11
93.50000007410001
 21
243.5
 31
0.0
  0
TEXT
  5
1490
330
119E
100
AcDbEntity
  8
PEF-250AG
100
AcDbText
 10
412.75
 20
286.75
 30
0.0
 40
5.0
  1
PEF-250AG
100
AcDbText
  0
ENDSEC
  0
SECTION
  2
OBJECTS
  0
DICTIONARY
  5
118C
330
0
100
AcDbDictionary
  3
ACAD_GROUP
350
118D
  3
ACAD_LAYOUT
350
1199
  3
ACAD_MLINESTYLE
350
1196
  3
ACAD_PLOTSETTINGS
350
1198
  3
ACAD_PLOTSTYLENAME
350
118E
  3
DWGPROPS
350
1561
  3
ACDBHEADERROUNDTRIPXREC
350
1590
  0
DICTIONARY
  5
1586
330
119E
100
AcDbDictionary
280
     1
  3
ACAD_LAYOUTSELFREF
360
15B1
  0
DICTIONARY
  5
1584
330
119A
100
AcDbDictionary
280
     1
  3
ACAD_LAYOUTSELFREF
360
15B0
  0
DICTIONARY
  5
118D
102
{ACAD_REACTORS
330
118C
102
}
330
118C
100
AcDbDictionary
  0
DICTIONARY
  5
1199
102
{ACAD_REACTORS
330
118C
102
}
330
118C
100
AcDbDictionary
  0
DICTIONARY
  5
1196
102
{ACAD_REACTORS
330
118C
102
}
330
118C
100
AcDbDictionary
  3
STANDARD
350
1197
  0
DICTIONARY
  5
1198
102
{ACAD_REACTORS
330
118C
102
}
330
118C
100
AcDbDictionary
  0
ACDBDICTIONARYWDFLT
  5
118E
102
{ACAD_REACTORS
330
118C
102
}
330
118C
100
AcDbDictionary
281
     1
  3
Normal
350
118F
100
AcDbDictionaryWithDefault
340
118F
  0
XRECORD
  5
1561
102
{ACAD_REACTORS
330
118C
102
}
330
118C
100
AcDbXrecord
  1
DWGPROPS COOKIE
  2

  3

  4

  6

  7

  8
한신
  9

300
=
301
=
302
=
303
=
304
=
305
=
306
=
307
=
308
=
309
=
 40
0.5667214120370371
 41
2450310.49154618
 42
2451814.649001851
  1

 90
        0
  0
DICTIONARY
  5
1590
102
{ACAD_REACTORS
330
118C
102
}
330
118C
100
AcDbDictionary
  3
TSTACKALIGN
350
1591
  3
TSTACKSIZE
350
1592
  3
HYPERLINKBASE
350
1593
  3
STYLESHEET
350
1594
  3
LAYOUTDICT
350
1595
  3
PLOTSETDICT
350
1596
  3
PLOTSTYLNAMDICT
350
1597
  3
LWETCUNION
350
1598
  3
INSUNITS
350
1599
  3
CEPSNTYPE
350
159A
  3
FINGERPRINTGUID
350
159B
  3
VERSIONGUID
350
159C
  3
PSVPSCALE
350
159D
  3
PUCSORTHOREF
350
159E
  3
PUCSORTHOVIEW
350
159F
  3
PUCSBASE
350
15A0
  3
PUCSORGTOP
350
15A1
  3
PUCSORGBOTTOM
350
15A2
  3
PUCSORGLEFT
350
15A3
  3
PUCSORGRIGHT
350
15A4
  3
PUCSORGFRONT
350
15A5
  3
PUCSORGBACK
350
15A6
  3
UCSORTHOREF
350
15A7
  3
UCSORTHOVIEW
350
15A8
  3
UCSBASE
350
15A9
  3
UCSORGTOP
350
15AA
  3
UCSORGBOTTOM
350
15AB
  3
UCSORGLEFT
350
15AC
  3
UCSORGRIGHT
350
15AD
  3
UCSORGFRONT
350
15AE
  3
UCSORGBACK
350
15AF
  0
XRECORD
  5
15B1
102
{ACAD_REACTORS
330
1586
102
}
330
1586
100
AcDbXrecord
340
119E
  0
XRECORD
  5
15B0
102
{ACAD_REACTORS
330
1584
102
}
330
1584
100
AcDbXrecord
340
119A
  0
MLINESTYLE
  5
1197
102
{ACAD_REACTORS
330
1196
102
}
330
1196
100
AcDbMlineStyle
  2
STANDARD
 70
     0
  3

 62
   256
 51
90.0
 52
90.0
 71
     2
 49
0.5
 62
   256
  6
BYLAYER
 49
-0.5
 62
   256
  6
BYLAYER
  0
ACDBPLACEHOLDER
  5
118F
102
{ACAD_REACTORS
330
118E
102
}
330
118E
100
AcDbPlaceHolder
280
     0
  0
XRECORD
  5
1591
102
{ACAD_REACTORS
330
1590
102
}
330
1590
100
AcDbXrecord
 90
        1
  0
XRECORD
  5
1592
102
{ACAD_REACTORS
330
1590
102
}
330
1590
100
AcDbXrecord
 90
       70
  0
XRECORD
  5
1593
102
{ACAD_REACTORS
330
1590
102
}
330
1590
100
AcDbXrecord
  1

  0
XRECORD
  5
1594
102
{ACAD_REACTORS
330
1590
102
}
330
1590
100
AcDbXrecord
  1

  0
XRECORD
  5
1595
102
{ACAD_REACTORS
330
1590
102
}
330
1590
100
AcDbXrecord
340
1199
  0
XRECORD
  5
1596
102
{ACAD_REACTORS
330
1590
102
}
330
1590
100
AcDbXrecord
340
1198
  0
XRECORD
  5
1597
102
{ACAD_REACTORS
330
1590
102
}
330
1590
100
AcDbXrecord
340
118E
  0
XRECORD
  5
1598
102
{ACAD_REACTORS
330
1590
102
}
330
1590
100
AcDbXrecord
 90
    14877
  0
XRECORD
  5
1599
102
{ACAD_REACTORS
330
1590
102
}
330
1590
100
AcDbXrecord
 90
        0
  0
XRECORD
  5
159A
102
{ACAD_REACTORS
330
1590
102
}
330
1590
100
AcDbXrecord
 90
        0
  0
XRECORD
  5
159B
102
{ACAD_REACTORS
330
1590
102
}
330
1590
100
AcDbXrecord
  1
{2E5998C4-6201-11D4-BC29-A0594FC10001}
  0
XRECORD
  5
159C
102
{ACAD_REACTORS
330
1590
102
}
330
1590
100
AcDbXrecord
  1
{D64ABD31-2FEB-48E7-873F-DCA5F313764A}
  0
XRECORD
  5
159D
102
{ACAD_REACTORS
330
1590
102
}
330
1590
100
AcDbXrecord
 40
0.0
  0
XRECORD
  5
159E
102
{ACAD_REACTORS
330
1590
102
}
330
1590
100
AcDbXrecord
340
0
  0
XRECORD
  5
159F
102
{ACAD_REACTORS
330
1590
102
}
330
1590
100
AcDbXrecord
 70
     0
  0
XRECORD
  5
15A0
102
{ACAD_REACTORS
330
1590
102
}
330
1590
100
AcDbXrecord
340
0
  0
XRECORD
  5
15A1
102
{ACAD_REACTORS
330
1590
102
}
330
1590
100
AcDbXrecord
 10
0.0
 20
0.0
 30
0.0
  0
XRECORD
  5
15A2
102
{ACAD_REACTORS
330
1590
102
}
330
1590
100
AcDbXrecord
 10
0.0
 20
0.0
 30
0.0
  0
XRECORD
  5
15A3
102
{ACAD_REACTORS
330
1590
102
}
330
1590
100
AcDbXrecord
 10
0.0
 20
0.0
 30
0.0
  0
XRECORD
  5
15A4
102
{ACAD_REACTORS
330
1590
102
}
330
1590
100
AcDbXrecord
 10
0.0
 20
0.0
 30
0.0
  0
XRECORD
  5
15A5
102
{ACAD_REACTORS
330
1590
102
}
330
1590
100
AcDbXrecord
 10
0.0
 20
0.0
 30
0.0
  0
XRECORD
  5
15A6
102
{ACAD_REACTORS
330
1590
102
}
330
1590
100
AcDbXrecord
 10
0.0
 20
0.0
 30
0.0
  0
XRECORD
  5
15A7
102
{ACAD_REACTORS
330
1590
102
}
330
1590
100
AcDbXrecord
340
0
  0
XRECORD
  5
15A8
102
{ACAD_REACTORS
330
1590
102
}
330
1590
100
AcDbXrecord
 70
     0
  0
XRECORD
  5
15A9
102
{ACAD_REACTORS
330
1590
102
}
330
1590
100
AcDbXrecord
340
0
  0
XRECORD
  5
15AA
102
{ACAD_REACTORS
330
1590
102
}
330
1590
100
AcDbXrecord
 10
0.0
 20
0.0
 30
0.0
  0
XRECORD
  5
15AB
102
{ACAD_REACTORS
330
1590
102
}
330
1590
100
AcDbXrecord
 10
0.0
 20
0.0
 30
0.0
  0
XRECORD
  5
15AC
102
{ACAD_REACTORS
330
1590
102
}
330
1590
100
AcDbXrecord
 10
0.0
 20
0.0
 30
0.0
  0
XRECORD
  5
15AD
102
{ACAD_REACTORS
330
1590
102
}
330
1590
100
AcDbXrecord
 10
0.0
 20
0.0
 30
0.0
  0
XRECORD
  5
15AE
102
{ACAD_REACTORS
330
1590
102
}
330
1590
100
AcDbXrecord
 10
0.0
 20
0.0
 30
0.0
  0
XRECORD
  5
15AF
102
{ACAD_REACTORS
330
1590
102
}
330
1590
100
AcDbXrecord
 10
0.0
 20
0.0
 30
0.0
  0
ENDSEC
  0
EOF
