  0
SECTION
  2
HEADER
  9
$ACADVER
  1
AC1014
  9
$ACADMAINTVER
 70
     9
  9
$DWGCODEPAGE
  3
ANSI_949
  9
$INSBASE
 10
384.0
 20
277.0
 30
0.0
  9
$EXTMIN
 10
50.58380230630723
 20
83.51312334732279
 30
-0.0000000000000153
  9
$EXTMAX
 10
359.162293387533
 20
185.2307287108045
 30
0.0
  9
$LIMMIN
 10
0.0
 20
0.0
  9
$LIMMAX
 10
420.0
 20
297.0
  9
$ORTHOMODE
 70
     0
  9
$REGENMODE
 70
     1
  9
$FILLMODE
 70
     1
  9
$QTEXTMODE
 70
     0
  9
$MIRRTEXT
 70
     1
  9
$DRAGMODE
 70
     2
  9
$LTSCALE
 40
5.0
  9
$OSMODE
 70
    37
  9
$ATTMODE
 70
     1
  9
$TEXTSIZE
 40
3.0
  9
$TRACEWID
 40
0.05
  9
$TEXTSTYLE
  7
STANDARD
  9
$CLAYER
  8
0
  9
$CELTYPE
  6
BYLAYER
  9
$CECOLOR
 62
   256
  9
$CELTSCALE
 40
1.0
  9
$DELOBJ
 70
     1
  9
$DISPSILH
 70
     0
  9
$DIMSCALE
 40
1.0
  9
$DIMASZ
 40
3.0
  9
$DIMEXO
 40
1.0
  9
$DIMDLI
 40
0.38
  9
$DIMRND
 40
0.0
  9
$DIMDLE
 40
0.0
  9
$DIMEXE
 40
1.0
  9
$DIMTP
 40
0.0
  9
$DIMTM
 40
0.0
  9
$DIMTXT
 40
3.0
  9
$DIMCEN
 40
0.09
  9
$DIMTSZ
 40
0.0
  9
$DIMTOL
 70
     0
  9
$DIMLIM
 70
     0
  9
$DIMTIH
 70
     0
  9
$DIMTOH
 70
     1
  9
$DIMSE1
 70
     0
  9
$DIMSE2
 70
     0
  9
$DIMTAD
 70
     1
  9
$DIMZIN
 70
     8
  9
$DIMBLK
  1

  9
$DIMASO
 70
     0
  9
$DIMSHO
 70
     1
  9
$DIMPOST
  1

  9
$DIMAPOST
  1

  9
$DIMALT
 70
     0
  9
$DIMALTD
 70
     2
  9
$DIMALTF
 40
25.4
  9
$DIMLFAC
 40
1.0
  9
$DIMTOFL
 70
     1
  9
$DIMTVP
 40
0.0
  9
$DIMTIX
 70
     1
  9
$DIMSOXD
 70
     0
  9
$DIMSAH
 70
     0
  9
$DIMBLK1
  1

  9
$DIMBLK2
  1

  9
$DIMSTYLE
  2
STANDARD
  9
$DIMCLRD
 70
     5
  9
$DIMCLRE
 70
     5
  9
$DIMCLRT
 70
     3
  9
$DIMTFAC
 40
1.0
  9
$DIMGAP
 40
0.09
  9
$DIMJUST
 70
     0
  9
$DIMSD1
 70
     0
  9
$DIMSD2
 70
     0
  9
$DIMTOLJ
 70
     1
  9
$DIMTZIN
 70
     8
  9
$DIMALTZ
 70
     8
  9
$DIMALTTZ
 70
     8
  9
$DIMFIT
 70
     3
  9
$DIMUPT
 70
     0
  9
$DIMUNIT
 70
     2
  9
$DIMDEC
 70
     4
  9
$DIMTDEC
 70
     4
  9
$DIMALTU
 70
     2
  9
$DIMALTTD
 70
     2
  9
$DIMTXSTY
  7
STANDARD
  9
$DIMAUNIT
 70
     0
  9
$LUNITS
 70
     2
  9
$LUPREC
 70
     4
  9
$SKETCHINC
 40
0.1
  9
$FILLETRAD
 40
12.5
  9
$AUNITS
 70
     0
  9
$AUPREC
 70
     0
  9
$MENU
  1
acad
  9
$ELEVATION
 40
0.0
  9
$PELEVATION
 40
0.0
  9
$THICKNESS
 40
0.0
  9
$LIMCHECK
 70
     0
  9
$BLIPMODE
 70
     0
  9
$CHAMFERA
 40
0.5
  9
$CHAMFERB
 40
0.5
  9
$CHAMFERC
 40
0.0
  9
$CHAMFERD
 40
0.0
  9
$SKPOLY
 70
     0
  9
$TDCREATE
 40
2450388.347880440
  9
$TDUPDATE
 40
2452761.639045139
  9
$TDINDWG
 40
0.0285039815
  9
$TDUSRTIMER
 40
0.0285039815
  9
$USRTIMER
 70
     1
  9
$ANGBASE
 50
0.0
  9
$ANGDIR
 70
     0
  9
$PDMODE
 70
     0
  9
$PDSIZE
 40
0.0
  9
$PLINEWID
 40
0.0
  9
$COORDS
 70
     2
  9
$SPLFRAME
 70
     0
  9
$SPLINETYPE
 70
     6
  9
$SPLINESEGS
 70
     8
  9
$ATTDIA
 70
     0
  9
$ATTREQ
 70
     1
  9
$HANDLING
 70
 12289
  9
$HANDSEED
  5
9DE
  9
$SURFTAB1
 70
     6
  9
$SURFTAB2
 70
     6
  9
$SURFTYPE
 70
     6
  9
$SURFU
 70
     6
  9
$SURFV
 70
     6
  9
$UCSNAME
  2

  9
$UCSORG
 10
0.0
 20
0.0
 30
0.0
  9
$UCSXDIR
 10
1.0
 20
0.0
 30
0.0
  9
$UCSYDIR
 10
0.0
 20
1.0
 30
0.0
  9
$PUCSNAME
  2

  9
$PUCSORG
 10
0.0
 20
0.0
 30
0.0
  9
$PUCSXDIR
 10
1.0
 20
0.0
 30
0.0
  9
$PUCSYDIR
 10
0.0
 20
1.0
 30
0.0
  9
$USERI1
 70
     0
  9
$USERI2
 70
     0
  9
$USERI3
 70
     0
  9
$USERI4
 70
     0
  9
$USERI5
 70
     0
  9
$USERR1
 40
0.0
  9
$USERR2
 40
0.0
  9
$USERR3
 40
0.0
  9
$USERR4
 40
0.0
  9
$USERR5
 40
0.0
  9
$WORLDVIEW
 70
     1
  9
$SHADEDGE
 70
     3
  9
$SHADEDIF
 70
    70
  9
$TILEMODE
 70
     1
  9
$MAXACTVP
 70
    16
  9
$PINSBASE
 10
0.0
 20
0.0
 30
0.0
  9
$PLIMCHECK
 70
     0
  9
$PEXTMIN
 10
1.000000000000000E+20
 20
1.000000000000000E+20
 30
1.000000000000000E+20
  9
$PEXTMAX
 10
-1.000000000000000E+20
 20
-1.000000000000000E+20
 30
-1.000000000000000E+20
  9
$PLIMMIN
 10
0.0
 20
0.0
  9
$PLIMMAX
 10
12.0
 20
9.0
  9
$UNITMODE
 70
     0
  9
$VISRETAIN
 70
     0
  9
$PLINEGEN
 70
     0
  9
$PSLTSCALE
 70
     1
  9
$TREEDEPTH
 70
  3020
  9
$PICKSTYLE
 70
     1
  9
$CMLSTYLE
  2
STANDARD
  9
$CMLJUST
 70
     0
  9
$CMLSCALE
 40
1.0
  9
$PROXYGRAPHICS
 70
     1
  9
$MEASUREMENT
 70
     0
  0
ENDSEC
  0
SECTION
  2
CLASSES
  0
CLASS
  1
ACDBDICTIONARYWDFLT
  2
AcDbDictionaryWithDefault
  3
AutoCAD 2000
 90
        0
280
     0
281
     0
  0
CLASS
  1
ACDBPLACEHOLDER
  2
AcDbPlaceHolder
  3
AutoCAD 2000
 90
        0
280
     0
281
     0
  0
CLASS
  1
LAYOUT
  2
AcDbLayout
  3
AutoCAD 2000
 90
        0
280
     0
281
     0
  0
CLASS
  1
LONG_TRANSACTION
  2
AcDbLongTransaction
  3
AutoCAD 2000
 90
        0
280
     0
281
     0
  0
CLASS
  1
LWPOLYLINE
  2
AcDbPolyline
  3
AutoCAD 2000
 90
        0
280
     0
281
     1
  0
CLASS
  1
HATCH
  2
AcDbHatch
  3
AutoCAD 2000
 90
        0
280
     0
281
     1
  0
CLASS
  1
XRECORD
  2
AcDbXrecord
  3
AutoCAD 2000
 90
        0
280
     0
281
     0
  0
CLASS
  1
LONG_TRANSACTION
  2
AcDbLongTransaction
  3
AutoCAD 2000
 90
        0
280
     0
281
     0
  0
CLASS
  1
LWPOLYLINE
  2
AcDbPolyline
  3
AutoCAD 2000
 90
        0
280
     0
281
     1
  0
CLASS
  1
HATCH
  2
AcDbHatch
  3
AutoCAD 2000
 90
        0
280
     0
281
     1
  0
CLASS
  1
XRECORD
  2
AcDbXrecord
  3
AutoCAD 2000
 90
        0
280
     0
281
     0
  0
ENDSEC
  0
SECTION
  2
TABLES
  0
TABLE
  2
VPORT
  5
8
330
0
100
AcDbSymbolTable
 70
     2
  0
VPORT
  5
9BB
330
8
100
AcDbSymbolTableRecord
100
AcDbViewportTableRecord
  2
*ACTIVE
 70
     0
 10
0.0
 20
0.0
 11
1.0
 21
1.0
 12
204.8730478469201
 22
134.3719260290636
 13
0.0
 23
0.0
 14
0.25
 24
0.25
 15
5.0
 25
5.0
 16
0.0
 26
0.0
 36
1.0
 17
0.0
 27
0.0
 37
0.0
 40
209.2457798308295
 41
1.481743227326266
 42
50.0
 43
0.0
 44
0.0
 50
0.0
 51
0.0
 71
     0
 72
   100
 73
     1
 74
     1
 75
     1
 76
     0
 77
     0
 78
     0
  0
ENDTAB
  0
TABLE
  2
LTYPE
  5
5
330
0
100
AcDbSymbolTable
 70
     4
  0
LTYPE
  5
13
330
5
100
AcDbSymbolTableRecord
100
AcDbLinetypeTableRecord
  2
BYBLOCK
 70
     0
  3

 72
    65
 73
     0
 40
0.0
  0
LTYPE
  5
14
330
5
100
AcDbSymbolTableRecord
100
AcDbLinetypeTableRecord
  2
BYLAYER
 70
     0
  3

 72
    65
 73
     0
 40
0.0
  0
LTYPE
  5
15
330
5
100
AcDbSymbolTableRecord
100
AcDbLinetypeTableRecord
  2
CONTINUOUS
 70
     0
  3
Solid line
 72
    65
 73
     0
 40
0.0
  0
LTYPE
  5
27
330
5
100
AcDbSymbolTableRecord
100
AcDbLinetypeTableRecord
  2
CENTER
 70
     0
  3
____ _ ____ _ ____ _ ____ _ ____ _ ____ _ ____ 
 72
    65
 73
     4
 40
2.0
 49
1.25
 74
     0
 49
-0.25
 74
     0
 49
0.25
 74
     0
 49
-0.25
 74
     0
  0
LTYPE
  5
28
330
5
100
AcDbSymbolTableRecord
100
AcDbLinetypeTableRecord
  2
DASHED
 70
     0
  3
__ __ __ __ __ __ __ __ __ __ __ __ __ __ __ __
 72
    65
 73
     2
 40
0.75
 49
0.5
 74
     0
 49
-0.25
 74
     0
  0
LTYPE
  5
29
330
5
100
AcDbSymbolTableRecord
100
AcDbLinetypeTableRecord
  2
PHANTOM
 70
     0
  3
______  __  __  ______  __  __  ______  __  __ 
 72
    65
 73
     6
 40
2.5
 49
1.25
 74
     0
 49
-0.25
 74
     0
 49
0.25
 74
     0
 49
-0.25
 74
     0
 49
0.25
 74
     0
 49
-0.25
 74
     0
  0
ENDTAB
  0
TABLE
  2
LAYER
  5
2
330
0
100
AcDbSymbolTable
 70
     2
  0
LAYER
  5
10
330
2
100
AcDbSymbolTableRecord
100
AcDbLayerTableRecord
  2
0
 70
     0
 62
     7
  6
CONTINUOUS
  0
LAYER
  5
9BA
330
2
100
AcDbSymbolTableRecord
100
AcDbLayerTableRecord
  2
PEF-L25A
 70
     0
 62
     7
  6
CONTINUOUS
  0
ENDTAB
  0
TABLE
  2
STYLE
  5
3
330
0
100
AcDbSymbolTable
 70
     1
  0
STYLE
  5
11
330
3
100
AcDbSymbolTableRecord
100
AcDbTextStyleTableRecord
  2
STANDARD
 70
     0
 40
3.0
 41
1.0
 50
0.0
 71
     0
 42
3.0
  3
ROMANS
  4
HBRDS
  0
ENDTAB
  0
TABLE
  2
VIEW
  5
6
330
0
100
AcDbSymbolTable
 70
     0
  0
ENDTAB
  0
TABLE
  2
UCS
  5
7
330
0
100
AcDbSymbolTable
 70
     0
  0
ENDTAB
  0
TABLE
  2
APPID
  5
9
330
0
100
AcDbSymbolTable
 70
     2
  0
APPID
  5
12
330
9
100
AcDbSymbolTableRecord
100
AcDbRegAppTableRecord
  2
ACAD
 70
     0
  0
APPID
  5
81A
330
9
100
AcDbSymbolTableRecord
100
AcDbRegAppTableRecord
  2
DCO15
 70
     0
  0
ENDTAB
  0
TABLE
  2
DIMSTYLE
  5
A
330
0
100
AcDbSymbolTable
 70
     1
  0
DIMSTYLE
105
6B7
330
A
100
AcDbSymbolTableRecord
100
AcDbDimStyleTableRecord
  2
STANDARD
 70
     0
  3

  4

  5

  6

  7

 40
1.0
 41
0.18
 42
0.0625
 43
0.38
 44
0.18
 45
0.0
 46
0.0
 47
0.0
 48
0.0
140
0.18
141
0.09
142
0.0
143
25.4
144
1.0
145
0.0
146
1.0
147
0.09
 71
     0
 72
     0
 73
     1
 74
     1
 75
     0
 76
     0
 77
     0
 78
     0
170
     0
171
     2
172
     0
173
     0
174
     0
175
     0
176
     0
177
     0
178
     0
270
     2
271
     4
272
     4
273
     2
274
     2
340
11
275
     0
280
     0
281
     0
282
     0
283
     1
284
     0
285
     0
286
     0
287
     3
288
     0
  0
ENDTAB
  0
TABLE
  2
BLOCK_RECORD
  5
1
330
0
100
AcDbSymbolTable
 70
     0
  0
BLOCK_RECORD
  5
1E
102
{ACAD_XDICTIONARY
360
9AF
102
}
330
1
100
AcDbSymbolTableRecord
100
AcDbBlockTableRecord
  2
*MODEL_SPACE
  0
BLOCK_RECORD
  5
1A
102
{ACAD_XDICTIONARY
360
9AD
102
}
330
1
100
AcDbSymbolTableRecord
100
AcDbBlockTableRecord
  2
*PAPER_SPACE
  0
ENDTAB
  0
ENDSEC
  0
SECTION
  2
BLOCKS
  0
BLOCK
  5
2F
330
1E
100
AcDbEntity
  8
0
100
AcDbBlockBegin
  2
*MODEL_SPACE
 70
     0
 10
0.0
 20
0.0
 30
0.0
  3
*MODEL_SPACE
  1

  0
ENDBLK
  5
30
330
1E
100
AcDbEntity
  8
0
100
AcDbBlockEnd
  0
BLOCK
  5
2D
330
1A
100
AcDbEntity
 67
     1
  8
0
100
AcDbBlockBegin
  2
*PAPER_SPACE
 70
     0
 10
0.0
 20
0.0
 30
0.0
  3
*PAPER_SPACE
  1

  0
ENDBLK
  5
2E
330
1A
100
AcDbEntity
 67
     1
  8
0
100
AcDbBlockEnd
  0
ENDSEC
  0
SECTION
  2
ENTITIES
  0
ARC
  5
1B0
330
1E
100
AcDbEntity
  8
PEF-L25A
100
AcDbCircle
 10
165.9178338129098
 20
148.7742707776033
 30
0.0
 40
1.094916986181549
100
AcDbArc
 50
105.0000000000002
 51
284.9999999999998
  0
LINE
  5
1B1
330
1E
100
AcDbEntity
  8
PEF-L25A
100
AcDbLine
 10
66.75216276754205
 20
144.3207667665348
 30
0.0
 11
61.37760008379032
 21
164.3789077707598
 31
0.0
  0
LINE
  5
1B2
330
1E
100
AcDbEntity
  8
PEF-L25A
100
AcDbLine
 10
64.35441346920805
 20
153.7701876309076
 30
0.0
 11
66.32143821198721
 21
146.4291513511108
 31
0.0
  0
LINE
  5
1B3
330
1E
100
AcDbEntity
  8
PEF-L25A
100
AcDbLine
 10
62.86305210644474
 20
145.8130624411387
 30
0.0
 11
61.05131879072708
 21
152.5745432251621
 31
0.0
  0
LINE
  5
1B4
330
1E
100
AcDbEntity
  8
PEF-L25A
100
AcDbLine
 10
60.69776540013378
 20
151.9621707894664
 30
0.0
 11
62.25067967074892
 21
146.166615831732
 31
0.0
  0
LINE
  5
1B7
330
1E
100
AcDbEntity
  8
PEF-L25A
100
AcDbLine
 10
63.52854524809005
 20
175.3981456572265
 30
0.0
 11
63.3527440413491
 21
176.0542446928158
 31
0.0
  0
LINE
  5
1BA
330
1E
100
AcDbEntity
  8
PEF-L25A
100
AcDbLine
 10
151.8541203999955
 20
177.2683551649799
 30
0.0
 11
152.3552415272751
 21
175.3981456572265
 31
0.0
  0
LINE
  5
1C2
330
1E
100
AcDbEntity
  8
PEF-L25A
  6
CENTER
100
AcDbLine
 10
118.3776000837903
 20
166.6481456572265
 30
0.0
 11
118.3776000837903
 21
144.1481456572265
 31
0.0
  0
ARC
  5
1CB
330
1E
100
AcDbEntity
  8
PEF-L25A
100
AcDbCircle
 10
80.21423502368511
 20
113.3981456572267
 30
0.0
 40
5.0
100
AcDbArc
 50
194.9999999999999
 51
270.0
  0
LINE
  5
1CC
330
1E
100
AcDbEntity
  8
PEF-L25A
  6
DASHED
100
AcDbLine
 10
78.31238259667191
 20
88.92811676971936
 30
0.0
 11
81.69312298868362
 21
89.83398342757817
 31
0.0
  0
LINE
  5
1CD
330
1E
100
AcDbEntity
  8
PEF-L25A
  6
DASHED
100
AcDbLine
 10
79.88138967296598
 20
96.59546421160165
 30
0.0
 11
76.50064928095424
 21
95.68959755374285
 31
0.0
  0
LINE
  5
1CF
330
1E
100
AcDbEntity
  8
PEF-L25A
100
AcDbLine
 10
83.79740895957489
 20
100.5264571353075
 30
0.0
 11
81.68819637705734
 21
108.3981456572265
 31
0.0
  0
LINE
  5
1D0
330
1E
100
AcDbEntity
  8
PEF-L25A
100
AcDbLine
 10
82.30936208530335
 20
108.3981456572266
 30
0.0
 11
84.41857466782092
 21
100.5264571353075
 31
0.0
  0
LINE
  5
1D4
330
1E
100
AcDbEntity
  8
PEF-L25A
  6
CENTER
100
AcDbLine
 10
68.34480145357628
 20
115.7059692493048
 30
0.0
 11
74.01254870928885
 21
117.2246375493767
 31
0.0
  0
LINE
  5
1D5
330
1E
100
AcDbEntity
  8
PEF-L25A
100
AcDbLine
 10
87.07501655647707
 20
100.5264571353075
 30
0.0
 11
73.14777747886719
 21
100.5264571353075
 31
0.0
  0
LINE
  5
1D6
330
1E
100
AcDbEntity
  8
PEF-L25A
  6
CENTER
100
AcDbLine
 10
73.32961631786464
 20
91.21645520067522
 30
0.0
 11
103.5518834446236
 21
99.31448727072798
 31
0.0
  0
LINE
  5
1D7
330
1E
100
AcDbEntity
  8
PEF-L25A
100
AcDbLine
 10
73.14777747886719
 20
88.52645713530753
 30
0.0
 11
173.1477774788672
 21
88.52645713530753
 31
0.0
  0
LINE
  5
1D8
330
1E
100
AcDbEntity
  8
PEF-L25A
  6
CENTER
100
AcDbLine
 10
78.14777747886719
 20
83.52645713530755
 30
0.0
 11
78.14777747886719
 21
103.7764571353075
 31
0.0
  0
LINE
  5
1DC
330
1E
100
AcDbEntity
  8
PEF-L25A
  6
DASHED
100
AcDbLine
 10
78.31238259667191
 20
88.92811676971936
 30
0.0
 11
76.50064928095424
 21
95.68959755374285
 31
0.0
  0
LINE
  5
1DD
330
1E
100
AcDbEntity
  8
PEF-L25A
  6
DASHED
100
AcDbLine
 10
76.14709589036095
 20
95.07722511804706
 30
0.0
 11
77.70001016097609
 21
89.28167016031265
 31
0.0
  0
LINE
  5
1DE
330
1E
100
AcDbEntity
  8
PEF-L25A
  6
DASHED
100
AcDbLine
 10
75.14777747886721
 20
100.5264571353075
 30
0.0
 11
75.14777747886721
 21
88.52645713530753
 31
0.0
  0
LINE
  5
1DF
330
1E
100
AcDbEntity
  8
PEF-L25A
100
AcDbLine
 10
73.14777747886719
 20
100.5264571353075
 30
0.0
 11
73.14777747886719
 21
88.52645713530753
 31
0.0
  0
LINE
  5
1E0
330
1E
100
AcDbEntity
  8
PEF-L25A
  6
DASHED
100
AcDbLine
 10
77.70001016097609
 20
89.28167016031265
 30
0.0
 11
78.31238259667191
 21
88.92811676971936
 31
0.0
  0
LINE
  5
1E1
330
1E
100
AcDbEntity
  8
PEF-L25A
  6
DASHED
100
AcDbLine
 10
76.50064928095424
 20
95.68959755374285
 30
0.0
 11
76.14709589036095
 21
95.07722511804706
 31
0.0
  0
LINE
  5
1E8
330
1E
100
AcDbEntity
  8
PEF-L25A
100
AcDbLine
 10
72.49531440725251
 20
122.8870330515627
 30
0.0
 11
67.31893350520213
 21
142.2055495773439
 31
0.0
  0
LINE
  5
1E9
330
1E
100
AcDbEntity
  8
PEF-L25A
100
AcDbLine
 10
73.65442539879942
 20
123.1976159056857
 30
0.0
 11
68.47804449674902
 21
142.5161324314671
 31
0.0
  0
LINE
  5
1EB
330
1E
100
AcDbEntity
  8
PEF-L25A
  6
PHANTOM
100
AcDbLine
 10
75.3846058922398
 20
112.104050431714
 30
0.0
 11
73.0620851449126
 21
120.771815862372
 31
0.0
  0
LINE
  5
1ED
330
1E
100
AcDbEntity
  8
PEF-L25A
100
AcDbLine
 10
76.28039673701984
 20
113.8982561114054
 30
0.0
 11
75.3144709107308
 21
113.6394370663029
 31
0.0
  0
LINE
  5
1EE
330
1E
100
AcDbEntity
  8
PEF-L25A
100
AcDbLine
 10
71.85608480518832
 20
113.0233481563309
 30
0.0
 11
70.04435148947064
 21
119.7848289403542
 31
0.0
  0
LINE
  5
1EF
330
1E
100
AcDbEntity
  8
PEF-L25A
100
AcDbLine
 10
71.85608480518832
 20
113.0233481563309
 30
0.0
 11
75.23682519720003
 21
113.9292148141897
 31
0.0
  0
LINE
  5
1F0
330
1E
100
AcDbEntity
  8
PEF-L25A
100
AcDbLine
 10
69.69079809887737
 20
119.1724565046585
 30
0.0
 11
71.2437123694925
 21
113.376901546924
 31
0.0
  0
LINE
  5
1F2
330
1E
100
AcDbEntity
  8
PEF-L25A
100
AcDbLine
 10
71.2437123694925
 20
113.376901546924
 30
0.0
 11
71.85608480518832
 21
113.0233481563309
 31
0.0
  0
LINE
  5
1F3
330
1E
100
AcDbEntity
  8
PEF-L25A
100
AcDbLine
 10
73.42509188148238
 20
120.6906955982131
 30
0.0
 11
70.04435148947064
 21
119.7848289403542
 31
0.0
  0
LINE
  5
1F4
330
1E
100
AcDbEntity
  8
PEF-L25A
100
AcDbLine
 10
70.04435148947064
 20
119.7848289403542
 30
0.0
 11
69.69079809887737
 21
119.1724565046585
 31
0.0
  0
ARC
  5
1F9
330
1E
100
AcDbEntity
  8
PEF-L25A
  6
PHANTOM
100
AcDbCircle
 10
72.77869977608256
 20
121.8294244569672
 30
0.0
 40
1.094916986181549
100
AcDbArc
 50
285.0000000000001
 51
104.9999999999997
  0
LINE
  5
1FA
330
1E
100
AcDbEntity
  8
PEF-L25A
  6
PHANTOM
100
AcDbLine
 10
72.49531440725251
 20
122.8870330515627
 30
0.0
 11
73.65442539879942
 21
123.1976159056857
 31
0.0
  0
LINE
  5
1FE
330
1E
100
AcDbEntity
  8
PEF-L25A
100
AcDbLine
 10
62.25067967074892
 20
146.166615831732
 30
0.0
 11
62.86305210644474
 21
145.8130624411387
 31
0.0
  0
ARC
  5
200
330
1E
100
AcDbEntity
  8
PEF-L25A
100
AcDbCircle
 10
67.03554813637206
 20
143.2631581719394
 30
0.0
 40
1.094916986181549
100
AcDbArc
 50
285.0000000000001
 51
104.9999999999997
  0
LINE
  5
201
330
1E
100
AcDbEntity
  8
PEF-L25A
100
AcDbLine
 10
68.47804449674902
 20
142.5161324314671
 30
0.0
 11
67.31893350520213
 21
142.2055495773439
 31
0.0
  0
LINE
  5
203
330
1E
100
AcDbEntity
  8
PEF-L25A
100
AcDbLine
 10
62.86305210644474
 20
145.8130624411387
 30
0.0
 11
66.24379249845644
 21
146.7189290989975
 31
0.0
  0
CIRCLE
  5
208
330
1E
100
AcDbEntity
  8
PEF-L25A
100
AcDbCircle
 10
143.3776000837903
 20
116.3981456572267
 30
0.0
 40
2.5
  0
LINE
  5
209
330
1E
100
AcDbEntity
  8
PEF-L25A
  6
CENTER
100
AcDbLine
 10
148.75
 20
116.3981456572267
 30
0.0
 11
136.985295238377
 21
116.3981456572267
 31
0.0
  0
LINE
  5
20A
330
1E
100
AcDbEntity
  8
PEF-L25A
100
AcDbLine
 10
166.3776000837903
 20
108.3981456572266
 30
0.0
 11
80.21423502368511
 21
108.3981456572266
 31
0.0
  0
LINE
  5
20C
330
1E
100
AcDbEntity
  8
PEF-L25A
100
AcDbLine
 10
163.3776000837903
 20
107.3981456572266
 30
0.0
 11
87.33958170762084
 21
107.3981456572266
 31
0.0
  0
LINE
  5
20D
330
1E
100
AcDbEntity
  8
PEF-L25A
100
AcDbLine
 10
168.9323871696936
 20
100.5264571353075
 30
0.0
 11
87.07501655647707
 21
100.5264571353075
 31
0.0
  0
LINE
  5
20E
330
1E
100
AcDbEntity
  8
PEF-L25A
  6
PHANTOM
100
AcDbLine
 10
87.07047495252467
 20
102.2764571353075
 30
0.0
 11
87.07047495252467
 21
100.5264571353075
 31
0.0
  0
LINE
  5
20F
330
1E
100
AcDbEntity
  8
PEF-L25A
  6
PHANTOM
100
AcDbLine
 10
101.4750800052096
 20
102.2764571353075
 30
0.0
 11
101.4750800052096
 21
100.5264571353075
 31
0.0
  0
LINE
  5
210
330
1E
100
AcDbEntity
  8
PEF-L25A
  6
CENTER
100
AcDbLine
 10
94.64777747886721
 20
84.27645713530756
 30
0.0
 11
94.64777747886721
 21
109.2764571353075
 31
0.0
  0
LINE
  5
211
330
1E
100
AcDbEntity
  8
PEF-L25A
  6
DASHED
100
AcDbLine
 10
87.22521330847007
 20
96.2338644181689
 30
0.0
 11
99.5407675936557
 21
99.53380724322606
 31
0.0
  0
LINE
  5
212
330
1E
100
AcDbEntity
  8
PEF-L25A
  6
DASHED
100
AcDbLine
 10
96.93183874410614
 20
99.61120400018652
 30
0.0
 11
87.03109902464319
 21
96.95830878788569
 31
0.0
  0
LINE
  5
213
330
1E
100
AcDbEntity
  8
PEF-L25A
  6
DASHED
100
AcDbLine
 10
87.87226092122637
 20
93.81904985244622
 30
0.0
 11
100.1878152064119
 21
97.11899267750336
 31
0.0
  0
LINE
  5
214
330
1E
100
AcDbEntity
  8
PEF-L25A
  6
DASHED
100
AcDbLine
 10
97.96711492451624
 20
95.74750069503023
 30
0.0
 11
88.06637520505324
 21
93.09460548272943
 31
0.0
  0
LINE
  5
215
330
1E
100
AcDbEntity
  8
PEF-L25A
  6
DASHED
100
AcDbLine
 10
86.6025643360531
 20
90.05747474716603
 30
0.0
 11
83.79740895957489
 21
100.5264571353075
 31
0.0
  0
LINE
  5
216
330
1E
100
AcDbEntity
  8
PEF-L25A
  6
DASHED
100
AcDbLine
 10
84.41857466782092
 20
100.5264571353075
 30
0.0
 11
87.18211983182646
 21
90.21276617422754
 31
0.0
  0
LINE
  5
217
330
1E
100
AcDbEntity
  8
PEF-L25A
  6
DASHED
100
AcDbLine
 10
79.8037439594352
 20
96.88524195948842
 30
0.0
 11
81.77076870221439
 21
89.54420567969149
 31
0.0
  0
LINE
  5
218
330
1E
100
AcDbEntity
  8
PEF-L25A
  6
DASHED
100
AcDbLine
 10
80.76966978572427
 20
97.14406100459093
 30
0.0
 11
82.73669452850347
 21
89.80302472479399
 31
0.0
  0
LINE
  5
219
330
1E
100
AcDbEntity
  8
PEF-L25A
  6
DASHED
100
AcDbLine
 10
82.91786786007524
 20
89.12687664639163
 30
0.0
 11
80.58849645415255
 21
97.82020908299324
 31
0.0
  0
LINE
  5
21A
330
1E
100
AcDbEntity
  8
PEF-L25A
  6
DASHED
100
AcDbLine
 10
87.16794149574704
 20
90.26568044484271
 30
0.0
 11
88.71342281780956
 21
90.67979091700674
 31
0.0
  0
LINE
  5
21B
330
1E
100
AcDbEntity
  8
PEF-L25A
  6
DASHED
100
AcDbLine
 10
93.39777747886721
 20
88.52645713530753
 30
0.0
 11
93.39777747886721
 21
100.5264571353075
 31
0.0
  0
LINE
  5
21C
330
1E
100
AcDbEntity
  8
PEF-L25A
  6
DASHED
100
AcDbLine
 10
92.64777747886721
 20
100.5264571353075
 30
0.0
 11
92.64777747886721
 21
88.52645713530753
 31
0.0
  0
LINE
  5
21D
330
1E
100
AcDbEntity
  8
PEF-L25A
  6
DASHED
100
AcDbLine
 10
81.14777747886718
 20
100.5264571353075
 30
0.0
 11
81.14777747886718
 21
88.52645713530753
 31
0.0
  0
LINE
  5
21E
330
1E
100
AcDbEntity
  8
PEF-L25A
  6
DASHED
100
AcDbLine
 10
89.2904068656505
 20
88.52645713530753
 30
0.0
 11
86.33383560157957
 21
99.5605313090185
 31
0.0
  0
LINE
  5
21F
330
1E
100
AcDbEntity
  8
PEF-L25A
  6
DASHED
100
AcDbLine
 10
87.18211983182646
 20
90.21276617422754
 30
0.0
 11
86.6025643360531
 21
90.05747474716603
 31
0.0
  0
LINE
  5
220
330
1E
100
AcDbEntity
  8
PEF-L25A
  6
DASHED
100
AcDbLine
 10
82.73669452850347
 20
89.80302472479399
 30
0.0
 11
81.77076870221439
 21
89.54420567969149
 31
0.0
  0
LINE
  5
221
330
1E
100
AcDbEntity
  8
PEF-L25A
  6
DASHED
100
AcDbLine
 10
86.58838599997364
 20
90.11038901778119
 30
0.0
 11
82.91786786007524
 21
89.12687664639163
 31
0.0
  0
LINE
  5
222
330
1E
100
AcDbEntity
  8
PEF-L25A
100
AcDbLine
 10
86.33383560157957
 20
99.5605313090185
 30
0.0
 11
87.07501655647707
 21
100.5264571353075
 31
0.0
  0
LINE
  5
225
330
1E
100
AcDbEntity
  8
PEF-L25A
  6
DASHED
100
AcDbLine
 10
81.16805194992597
 20
97.97550051005474
 30
0.0
 11
84.25901459405094
 21
98.80372145438279
 31
0.0
  0
LINE
  5
226
330
1E
100
AcDbEntity
  8
PEF-L25A
  6
DASHED
100
AcDbLine
 10
79.8037439594352
 20
96.88524195948842
 30
0.0
 11
80.76966978572427
 21
97.14406100459093
 31
0.0
  0
LINE
  5
227
330
1E
100
AcDbEntity
  8
PEF-L25A
  6
DASHED
100
AcDbLine
 10
80.58849645415255
 20
97.82020908299324
 30
0.0
 11
81.16805194992597
 21
97.97550051005476
 31
0.0
  0
LINE
  5
228
330
1E
100
AcDbEntity
  8
PEF-L25A
  6
DASHED
100
AcDbLine
 10
86.38405141188689
 20
99.37312335360836
 30
0.0
 11
84.83857008982441
 21
98.95901288144433
 31
0.0
  0
LINE
  5
229
330
1E
100
AcDbEntity
  8
PEF-L25A
  6
DASHED
100
AcDbLine
 10
95.89777747886721
 20
88.52645713530753
 30
0.0
 11
95.89777747886721
 21
100.5264571353075
 31
0.0
  0
LINE
  5
22A
330
1E
100
AcDbEntity
  8
PEF-L25A
  6
DASHED
100
AcDbLine
 10
96.64777747886722
 20
100.5264571353075
 30
0.0
 11
96.64777747886722
 21
88.52645713530753
 31
0.0
  0
LINE
  5
22B
330
1E
100
AcDbEntity
  8
PEF-L25A
  6
DASHED
100
AcDbLine
 10
97.96711492451624
 20
95.74750069503023
 30
0.0
 11
97.44947683431121
 21
97.67935234760841
 31
0.0
  0
LINE
  5
22C
330
1E
100
AcDbEntity
  8
PEF-L25A
  6
DASHED
100
AcDbLine
 10
99.46337083669522
 20
96.9248783936765
 30
0.0
 11
97.96711492451624
 21
95.74750069503023
 31
0.0
  0
LINE
  5
22D
330
1E
100
AcDbEntity
  8
PEF-L25A
  6
DASHED
100
AcDbLine
 10
96.93183874410614
 20
99.61120400018652
 30
0.0
 11
97.44947683431121
 21
97.67935234760841
 31
0.0
  0
LINE
  5
22E
330
1E
100
AcDbEntity
  8
PEF-L25A
  6
DASHED
100
AcDbLine
 10
98.8163232239389
 20
99.33969295939913
 30
0.0
 11
96.93183874410614
 21
99.61120400018652
 31
0.0
  0
LINE
  5
22F
330
1E
100
AcDbEntity
  8
PEF-L25A
  6
DASHED
100
AcDbLine
 10
99.5407675936557
 20
99.53380724322606
 30
0.0
 11
100.8302172263229
 21
98.58521900546721
 31
0.0
  0
LINE
  5
230
330
1E
100
AcDbEntity
  8
PEF-L25A
  6
DASHED
100
AcDbLine
 10
99.5407675936557
 20
99.53380724322606
 30
0.0
 11
99.86429140003384
 21
98.32639996036469
 31
0.0
  0
LINE
  5
231
330
1E
100
AcDbEntity
  8
PEF-L25A
  6
DASHED
100
AcDbLine
 10
100.1878152064119
 20
97.11899267750336
 30
0.0
 11
99.86429140003384
 21
98.32639996036469
 31
0.0
  0
LINE
  5
232
330
1E
100
AcDbEntity
  8
PEF-L25A
  6
DASHED
100
AcDbLine
 10
100.1878152064119
 20
97.11899267750336
 30
0.0
 11
100.8302172263229
 21
98.58521900546721
 31
0.0
  0
LINE
  5
235
330
1E
100
AcDbEntity
  8
PEF-L25A
  6
DASHED
100
AcDbLine
 10
143.397777478867
 20
88.52645713530753
 30
0.0
 11
143.397777478867
 21
100.5264571353075
 31
0.0
  0
LINE
  5
236
330
1E
100
AcDbEntity
  8
PEF-L25A
  6
DASHED
100
AcDbLine
 10
142.6477774788672
 20
100.5264571353075
 30
0.0
 11
142.6477774788672
 21
88.52645713530753
 31
0.0
  0
LINE
  5
23B
330
1E
100
AcDbEntity
  8
PEF-L25A
  6
PHANTOM
100
AcDbLine
 10
87.07047495252467
 20
123.6990372683162
 30
0.0
 11
101.4750800052096
 21
123.6990372683162
 31
0.0
  0
LINE
  5
23C
330
1E
100
AcDbEntity
  8
PEF-L25A
  6
PHANTOM
100
AcDbLine
 10
101.4750800052096
 20
102.2764571353075
 30
0.0
 11
87.07047495252467
 21
102.2764571353075
 31
0.0
  0
LINE
  5
23D
330
1E
100
AcDbEntity
  8
PEF-L25A
100
AcDbLine
 10
90.84777747886718
 20
103.2764571353075
 30
0.0
 11
98.44777747886716
 21
103.2764571353075
 31
0.0
  0
LINE
  5
23E
330
1E
100
AcDbEntity
  8
PEF-L25A
100
AcDbLine
 10
98.14777747886722
 20
106.7764571353075
 30
0.0
 11
91.14777747886721
 21
106.7764571353075
 31
0.0
  0
LINE
  5
23F
330
1E
100
AcDbEntity
  8
PEF-L25A
100
AcDbLine
 10
91.64777747886722
 20
107.2764571353075
 30
0.0
 11
97.64777747886721
 21
107.2764571353075
 31
0.0
  0
LWPOLYLINE
  5
240
330
1E
100
AcDbEntity
  8
PEF-L25A
100
AcDbPolyline
 90
        6
 70
     1
 43
0.0
 10
95.32281042696608
 20
116.3981456572267
 10
94.35020525537821
 20
118.0827472301211
 10
92.40499491220246
 20
118.0827472301211
 10
91.43238974061457
 20
116.3981456572267
 10
92.40499491220244
 20
114.7135440843322
 10
94.35020525537821
 20
114.7135440843322
  0
CIRCLE
  5
248
330
1E
100
AcDbEntity
  8
PEF-L25A
100
AcDbCircle
 10
93.37760008379033
 20
116.3981456572267
 30
0.0
 40
3.799999999999998
  0
CIRCLE
  5
249
330
1E
100
AcDbEntity
  8
PEF-L25A
100
AcDbCircle
 10
93.37760008379033
 20
116.3981456572267
 30
0.0
 40
3.5
  0
LINE
  5
24E
330
1E
100
AcDbEntity
  8
PEF-L25A
  6
CENTER
100
AcDbLine
 10
98.48529523837706
 20
116.3981456572267
 30
0.0
 11
88.0895817076208
 21
116.3981456572267
 31
0.0
  0
LINE
  5
24F
330
1E
100
AcDbEntity
  8
PEF-L25A
  6
PHANTOM
100
AcDbLine
 10
87.07047495252467
 20
102.2764571353075
 30
0.0
 11
87.07047495252467
 21
123.6990372683162
 31
0.0
  0
LINE
  5
250
330
1E
100
AcDbEntity
  8
PEF-L25A
  6
CENTER
100
AcDbLine
 10
93.37760008379033
 20
121.6481456572267
 30
0.0
 11
93.37760008379033
 21
110.6481456572266
 31
0.0
  0
LINE
  5
252
330
1E
100
AcDbEntity
  8
PEF-L25A
100
AcDbLine
 10
90.84777747886718
 20
103.2764571353075
 30
0.0
 11
90.84777747886718
 21
102.2764571353075
 31
0.0
  0
LINE
  5
253
330
1E
100
AcDbEntity
  8
PEF-L25A
100
AcDbLine
 10
91.14777747886721
 20
106.7764571353075
 30
0.0
 11
91.64777747886722
 21
107.2764571353075
 31
0.0
  0
LINE
  5
254
330
1E
100
AcDbEntity
  8
PEF-L25A
100
AcDbLine
 10
91.14777747886721
 20
103.2764571353075
 30
0.0
 11
91.14777747886721
 21
106.7764571353075
 31
0.0
  0
LINE
  5
25A
330
1E
100
AcDbEntity
  8
PEF-L25A
  6
PHANTOM
100
AcDbLine
 10
101.4750800052096
 20
102.2764571353075
 30
0.0
 11
101.4750800052096
 21
123.6990372683162
 31
0.0
  0
LINE
  5
25B
330
1E
100
AcDbEntity
  8
PEF-L25A
100
AcDbLine
 10
98.14777747886722
 20
106.7764571353075
 30
0.0
 11
98.14777747886722
 21
103.2764571353075
 31
0.0
  0
LINE
  5
25C
330
1E
100
AcDbEntity
  8
PEF-L25A
100
AcDbLine
 10
98.44777747886721
 20
102.2764571353075
 30
0.0
 11
98.44777747886716
 21
103.2764571353075
 31
0.0
  0
LINE
  5
25D
330
1E
100
AcDbEntity
  8
PEF-L25A
100
AcDbLine
 10
97.64777747886721
 20
107.2764571353075
 30
0.0
 11
98.14777747886722
 21
106.7764571353075
 31
0.0
  0
LINE
  5
266
330
1E
100
AcDbEntity
  8
PEF-L25A
  6
CENTER
100
AcDbLine
 10
143.3776000837903
 20
121.6481456572267
 30
0.0
 11
143.3776000837903
 21
110.6481456572266
 31
0.0
  0
LINE
  5
267
330
1E
100
AcDbEntity
  8
PEF-L25A
100
AcDbLine
 10
128.985295238377
 20
107.3981456572266
 30
0.0
 11
128.985295238377
 21
107.3981456572266
 31
0.0
  0
LINE
  5
26A
330
1E
100
AcDbEntity
  8
PEF-L25A
100
AcDbLine
 10
171.5888290583498
 20
100.5264571353075
 30
0.0
 11
169.2386127234369
 21
109.2975839059806
 31
0.0
  0
LINE
  5
272
330
1E
100
AcDbEntity
  8
PEF-L25A
100
AcDbLine
 10
176.6821663584559
 20
100.0636394159754
 30
0.0
 11
180.0629067504677
 21
100.9695060738342
 31
0.0
  0
LINE
  5
273
330
1E
100
AcDbEntity
  8
PEF-L25A
100
AcDbLine
 10
175.6385948186361
 20
100.0945981187596
 30
0.0
 11
177.6056195614154
 21
92.75356183896269
 31
0.0
  0
LINE
  5
274
330
1E
100
AcDbEntity
  8
PEF-L25A
100
AcDbLine
 10
176.6045206449253
 20
100.3534171638621
 30
0.0
 11
178.5715453877043
 21
93.01238088406522
 31
0.0
  0
LINE
  5
275
330
1E
100
AcDbEntity
  8
PEF-L25A
100
AcDbLine
 10
175.4574214870643
 20
100.7707461971619
 30
0.0
 11
175.6385948186361
 21
100.0945981187596
 31
0.0
  0
LINE
  5
276
330
1E
100
AcDbEntity
  8
PEF-L25A
100
AcDbLine
 10
177.7867928929871
 20
92.07741376056036
 30
0.0
 11
174.695830248862
 21
91.24919281623228
 31
0.0
  0
LINE
  5
277
330
1E
100
AcDbEntity
  8
PEF-L25A
100
AcDbLine
 10
185.6252285250484
 20
98.83645906993988
 30
0.0
 11
155.4029613982894
 21
90.73842699988713
 31
0.0
  0
LINE
  5
285
330
1E
100
AcDbEntity
  8
PEF-L25A
  6
DASHED
100
AcDbLine
 10
159.4914740062179
 20
93.12803587693865
 30
0.0
 11
160.9877299183968
 21
94.30541357558485
 31
0.0
  0
LINE
  5
286
330
1E
100
AcDbEntity
  8
PEF-L25A
  6
DASHED
100
AcDbLine
 10
171.0825839216866
 20
96.2338644181689
 30
0.0
 11
158.767029636501
 21
92.93392159311173
 31
0.0
  0
LINE
  5
287
330
1E
100
AcDbEntity
  8
PEF-L25A
  6
DASHED
100
AcDbLine
 10
160.1385216189741
 20
90.71322131121595
 30
0.0
 11
162.0230060988069
 21
90.44171027042855
 31
0.0
  0
LINE
  5
288
330
1E
100
AcDbEntity
  8
PEF-L25A
  6
DASHED
100
AcDbLine
 10
171.729631534443
 20
93.81904985244622
 30
0.0
 11
159.4140772492574
 21
90.51910702738906
 31
0.0
  0
LINE
  5
289
330
1E
100
AcDbEntity
  8
PEF-L25A
  6
DASHED
100
AcDbLine
 10
146.647777478867
 20
100.5264571353075
 30
0.0
 11
146.647777478867
 21
88.52645713530753
 31
0.0
  0
LINE
  5
28A
330
1E
100
AcDbEntity
  8
PEF-L25A
  6
DASHED
100
AcDbLine
 10
145.8977774788672
 20
88.52645713530753
 30
0.0
 11
145.8977774788672
 21
100.5264571353075
 31
0.0
  0
LINE
  5
28B
330
1E
100
AcDbEntity
  8
PEF-L25A
  6
DASHED
100
AcDbLine
 10
158.767029636501
 20
92.93392159311173
 30
0.0
 11
158.1246276165902
 21
91.46769526514788
 31
0.0
  0
LINE
  5
28C
330
1E
100
AcDbEntity
  8
PEF-L25A
  6
DASHED
100
AcDbLine
 10
158.767029636501
 20
92.93392159311173
 30
0.0
 11
159.0905534428791
 21
91.72651431025039
 31
0.0
  0
LINE
  5
28D
330
1E
100
AcDbEntity
  8
PEF-L25A
  6
DASHED
100
AcDbLine
 10
159.4140772492574
 20
90.51910702738906
 30
0.0
 11
159.0905534428791
 21
91.72651431025039
 31
0.0
  0
LINE
  5
28E
330
1E
100
AcDbEntity
  8
PEF-L25A
  6
DASHED
100
AcDbLine
 10
159.4140772492574
 20
90.51910702738906
 30
0.0
 11
158.1246276165902
 21
91.46769526514788
 31
0.0
  0
LINE
  5
28F
330
1E
100
AcDbEntity
  8
PEF-L25A
  6
DASHED
100
AcDbLine
 10
165.1477774788672
 20
88.52645713530753
 30
0.0
 11
165.1477774788672
 21
100.5264571353075
 31
0.0
  0
LINE
  5
290
330
1E
100
AcDbEntity
  8
PEF-L25A
  6
DASHED
100
AcDbLine
 10
171.147777478867
 20
88.52645713530753
 30
0.0
 11
171.147777478867
 21
100.5264571353075
 31
0.0
  0
LINE
  5
291
330
1E
100
AcDbEntity
  8
PEF-L25A
  6
CENTER
100
AcDbLine
 10
168.147777478867
 20
87.27645713530753
 30
0.0
 11
168.147777478867
 21
101.7764571353075
 31
0.0
  0
LINE
  5
292
330
1E
100
AcDbEntity
  8
PEF-L25A
  6
DASHED
100
AcDbLine
 10
162.0230060988069
 20
90.44171027042855
 30
0.0
 11
161.5053680086019
 21
92.37356192300671
 31
0.0
  0
LINE
  5
293
330
1E
100
AcDbEntity
  8
PEF-L25A
  6
DASHED
100
AcDbLine
 10
162.0230060988069
 20
90.44171027042855
 30
0.0
 11
171.9237458182699
 21
93.09460548272943
 31
0.0
  0
LINE
  5
294
330
1E
100
AcDbEntity
  8
PEF-L25A
  6
DASHED
100
AcDbLine
 10
173.1477774788672
 20
88.52645713530753
 30
0.0
 11
170.1912062147961
 21
99.5605313090185
 31
0.0
  0
LINE
  5
295
330
1E
100
AcDbEntity
  8
PEF-L25A
100
AcDbLine
 10
173.1477774788672
 20
88.52645713530753
 30
0.0
 11
173.1477774788672
 21
100.5264571353075
 31
0.0
  0
LINE
  5
297
330
1E
100
AcDbEntity
  8
PEF-L25A
100
AcDbLine
 10
168.9323871696936
 20
100.5264571353075
 30
0.0
 11
173.1477774788672
 21
100.5264571353075
 31
0.0
  0
LINE
  5
298
330
1E
100
AcDbEntity
  8
PEF-L25A
100
AcDbLine
 10
170.1912062147961
 20
99.5605313090185
 30
0.0
 11
168.9323871696936
 21
100.5264571353075
 31
0.0
  0
LINE
  5
299
330
1E
100
AcDbEntity
  8
PEF-L25A
  6
DASHED
100
AcDbLine
 10
160.9877299183968
 20
94.30541357558485
 30
0.0
 11
170.8884696378598
 21
96.95830878788569
 31
0.0
  0
LINE
  5
29A
330
1E
100
AcDbEntity
  8
PEF-L25A
  6
DASHED
100
AcDbLine
 10
160.9877299183968
 20
94.30541357558485
 30
0.0
 11
161.5053680086019
 21
92.37356192300671
 31
0.0
  0
LINE
  5
29B
330
1E
100
AcDbEntity
  8
PEF-L25A
  6
DASHED
100
AcDbLine
 10
173.1477774788672
 20
94.70838242355759
 30
0.0
 11
171.5888290583498
 21
100.5264571353075
 31
0.0
  0
LINE
  5
29C
330
1E
100
AcDbEntity
  8
PEF-L25A
100
AcDbLine
 10
173.1477774788672
 20
97.02660440665123
 30
0.0
 11
174.695830248862
 21
91.24919281623233
 31
0.0
  0
LINE
  5
29D
330
1E
100
AcDbEntity
  8
PEF-L25A
  6
DASHED
100
AcDbLine
 10
173.1477774788672
 20
90.83439332667138
 30
0.0
 11
172.5707934310262
 21
90.67979091700676
 31
0.0
  0
LINE
  5
29E
330
1E
100
AcDbEntity
  8
PEF-L25A
100
AcDbLine
 10
174.695830248862
 20
91.24919281623233
 30
0.0
 11
174.1162747530886
 21
91.09390138917078
 31
0.0
  0
LINE
  5
29F
330
1E
100
AcDbEntity
  8
PEF-L25A
100
AcDbLine
 10
173.1477774788672
 20
90.83439332667138
 30
0.0
 11
174.1162747530886
 21
91.09390138917078
 31
0.0
  0
LINE
  5
2A0
330
1E
100
AcDbEntity
  8
PEF-L25A
100
AcDbLine
 10
174.1162747530886
 20
91.09390138917078
 30
0.0
 11
173.1477774788672
 21
94.70838242355759
 31
0.0
  0
LINE
  5
2A1
330
1E
100
AcDbEntity
  8
PEF-L25A
  6
DASHED
100
AcDbLine
 10
173.1477774788672
 20
100.151878950362
 30
0.0
 11
172.3664588429395
 21
99.94252525283393
 31
0.0
  0
LINE
  5
2A2
330
1E
100
AcDbEntity
  8
PEF-L25A
  6
DASHED
100
AcDbLine
 10
173.1477774788672
 20
97.02660440665123
 30
0.0
 11
172.2099947665959
 21
100.5264571353075
 31
0.0
  0
LINE
  5
2A3
330
1E
100
AcDbEntity
  8
PEF-L25A
  6
DASHED
100
AcDbLine
 10
171.7869033471659
 20
99.78723382577241
 30
0.0
 11
170.2414220251035
 21
99.37312335360836
 31
0.0
  0
LINE
  5
2A4
330
1E
100
AcDbEntity
  8
PEF-L25A
100
AcDbLine
 10
176.6045206449253
 20
100.3534171638621
 30
0.0
 11
175.6385948186361
 21
100.0945981187596
 31
0.0
  0
LINE
  5
2A5
330
1E
100
AcDbEntity
  8
PEF-L25A
100
AcDbLine
 10
173.1477774788672
 20
100.151878950362
 30
0.0
 11
175.4574214870643
 21
100.7707461971619
 31
0.0
  0
LINE
  5
2AA
330
1E
100
AcDbEntity
  8
PEF-L25A
100
AcDbLine
 10
180.6752791861636
 20
100.6159526832409
 30
0.0
 11
182.2281934567786
 21
94.82039772550654
 31
0.0
  0
LINE
  5
2AB
330
1E
100
AcDbEntity
  8
PEF-L25A
100
AcDbLine
 10
181.8746400661854
 20
94.20802528981077
 30
0.0
 11
180.0629067504677
 21
100.9695060738342
 31
0.0
  0
LINE
  5
2AC
330
1E
100
AcDbEntity
  8
PEF-L25A
100
AcDbLine
 10
181.8746400661854
 20
94.20802528981077
 30
0.0
 11
178.4938996741736
 21
93.30215863195192
 31
0.0
  0
LINE
  5
2AD
330
1E
100
AcDbEntity
  8
PEF-L25A
100
AcDbLine
 10
177.6056195614154
 20
92.75356183896269
 30
0.0
 11
178.5715453877043
 21
93.01238088406522
 31
0.0
  0
LINE
  5
2AE
330
1E
100
AcDbEntity
  8
PEF-L25A
100
AcDbLine
 10
182.2281934567786
 20
94.82039772550654
 30
0.0
 11
181.8746400661854
 21
94.20802528981077
 31
0.0
  0
LINE
  5
2AF
330
1E
100
AcDbEntity
  8
PEF-L25A
100
AcDbLine
 10
180.0629067504677
 20
100.9695060738342
 30
0.0
 11
180.6752791861636
 21
100.6159526832409
 31
0.0
  0
LINE
  5
2B4
330
1E
100
AcDbEntity
  8
PEF-L25A
100
AcDbLine
 10
171.3776000837903
 20
113.3981456572267
 30
0.0
 11
171.3776000837903
 21
126.282928468036
 31
0.0
  0
LINE
  5
2BA
330
1E
100
AcDbEntity
  8
PEF-L25A
  6
CENTER
100
AcDbLine
 10
171.3776000837903
 20
120.900723045298
 30
0.0
 11
176.455000193395
 21
122.2612083043164
 31
0.0
  0
ARC
  5
2C9
330
1E
100
AcDbEntity
  8
PEF-L25A
100
AcDbCircle
 10
166.3776000837903
 20
113.3981456572267
 30
0.0
 40
5.0
100
AcDbArc
 50
270.0
 51
0.0
  0
LINE
  5
2CA
330
1E
100
AcDbEntity
  8
PEF-L25A
100
AcDbLine
 10
163.3776000837903
 20
108.3981456572266
 30
0.0
 11
163.3776000837903
 21
107.3981456572266
 31
0.0
  0
LINE
  5
2CB
330
1E
100
AcDbEntity
  8
PEF-L25A
100
AcDbLine
 10
164.985295238377
 20
107.3981456572266
 30
0.0
 11
164.7173460459458
 21
108.3981456572266
 31
0.0
  0
LINE
  5
2CC
330
1E
100
AcDbEntity
  8
PEF-L25A
100
AcDbLine
 10
163.3776000837903
 20
107.3981456572266
 30
0.0
 11
164.985295238377
 21
107.3981456572266
 31
0.0
  0
LINE
  5
2D5
330
1E
100
AcDbEntity
  8
PEF-L25A
100
AcDbLine
 10
174.2048030586006
 20
124.7640983404675
 30
0.0
 11
175.7577173292157
 21
118.9685433827332
 31
0.0
  0
LINE
  5
2D6
330
1E
100
AcDbEntity
  8
PEF-L25A
100
AcDbLine
 10
175.4041639386223
 20
118.3561709470374
 30
0.0
 11
173.5924306229048
 21
125.1176517310609
 31
0.0
  0
LINE
  5
2D8
330
1E
100
AcDbEntity
  8
PEF-L25A
100
AcDbLine
 10
171.3776000837903
 20
119.8605502651443
 30
0.0
 11
172.1010692601414
 21
117.1605265412918
 31
0.0
  0
LINE
  5
2DA
330
1E
100
AcDbEntity
  8
PEF-L25A
100
AcDbLine
 10
175.4041639386223
 20
118.3561709470374
 30
0.0
 11
172.0234235466106
 21
117.4503042891785
 31
0.0
  0
LINE
  5
2DB
330
1E
100
AcDbEntity
  8
PEF-L25A
100
AcDbLine
 10
171.1351434338523
 20
116.9017074961892
 30
0.0
 11
172.1010692601414
 21
117.1605265412918
 31
0.0
  0
LINE
  5
2DC
330
1E
100
AcDbEntity
  8
PEF-L25A
100
AcDbLine
 10
175.7577173292157
 20
118.9685433827332
 30
0.0
 11
175.4041639386223
 21
118.3561709470374
 31
0.0
  0
LINE
  5
2DD
330
1E
100
AcDbEntity
  8
PEF-L25A
100
AcDbLine
 10
171.3776000837903
 20
124.5241896767333
 30
0.0
 11
173.5924306229048
 21
125.1176517310609
 31
0.0
  0
LINE
  5
2DF
330
1E
100
AcDbEntity
  8
PEF-L25A
100
AcDbLine
 10
173.5924306229048
 20
125.1176517310609
 30
0.0
 11
174.2048030586006
 21
124.7640983404675
 31
0.0
  0
LINE
  5
2E6
330
1E
100
AcDbEntity
  8
PEF-L25A
100
AcDbLine
 10
170.2184890922433
 20
128.0875628031036
 30
0.0
 11
165.042108190193
 21
147.406079328885
 31
0.0
  0
LINE
  5
2E7
330
1E
100
AcDbEntity
  8
PEF-L25A
100
AcDbLine
 10
171.3776000837903
 20
128.3981456572266
 30
0.0
 11
166.2012191817399
 21
147.716662183008
 31
0.0
  0
ARC
  5
2E8
330
1E
100
AcDbEntity
  8
PEF-L25A
100
AcDbCircle
 10
171.6609854526203
 20
127.3405370626313
 30
0.0
 40
1.094916986181549
100
AcDbArc
 50
105.0000000000002
 51
254.9999999999998
  0
LINE
  5
2E9
330
1E
100
AcDbEntity
  8
PEF-L25A
100
AcDbLine
 10
171.3776000837903
 20
128.3981456572266
 30
0.0
 11
170.2184890922433
 21
128.0875628031036
 31
0.0
  0
LINE
  5
2EA
330
1E
100
AcDbEntity
  8
PEF-L25A
100
AcDbLine
 10
165.042108190193
 20
147.406079328885
 30
0.0
 11
166.2012191817399
 21
147.716662183008
 31
0.0
  0
LINE
  5
2F2
330
1E
100
AcDbEntity
  8
PEF-L25A
100
AcDbLine
 10
154.9473530996326
 20
175.3981456572265
 30
0.0
 11
66.37760008379032
 21
175.3981456572265
 31
0.0
  0
LINE
  5
2F3
330
1E
100
AcDbEntity
  8
PEF-L25A
  6
CENTER
100
AcDbLine
 10
50.59124446340707
 20
169.0113445552608
 30
0.0
 11
61.63090433856645
 21
171.969412503524
 31
0.0
  0
LINE
  5
2F4
330
1E
100
AcDbEntity
  8
PEF-L25A
100
AcDbLine
 10
62.88775782079023
 20
180.8805595368861
 30
0.0
 11
150.058012211319
 21
180.8805595368861
 31
0.0
  0
ARC
  5
2FC
330
1E
100
AcDbEntity
  8
PEF-L25A
100
AcDbCircle
 10
66.37760008379032
 20
170.3981456572265
 30
0.0
 40
5.0
100
AcDbArc
 50
90.0
 51
180.0
  0
LINE
  5
2FD
330
1E
100
AcDbEntity
  8
PEF-L25A
100
AcDbLine
 10
58.63865436163084
 20
175.1016910242105
 30
0.0
 11
60.60567910441
 21
167.7606547444135
 31
0.0
  0
LINE
  5
2FE
330
1E
100
AcDbEntity
  8
PEF-L25A
100
AcDbLine
 10
57.14729299886752
 20
167.1445658344415
 30
0.0
 11
55.33555968314985
 21
173.9060466184648
 31
0.0
  0
LINE
  5
2FF
330
1E
100
AcDbEntity
  8
PEF-L25A
100
AcDbLine
 10
54.98200629255658
 20
173.293674182769
 30
0.0
 11
56.53492056317171
 21
167.4981192250346
 31
0.0
  0
LINE
  5
300
330
1E
100
AcDbEntity
  8
PEF-L25A
100
AcDbLine
 10
61.75277826227085
 20
167.3433257111136
 30
0.0
 11
59.42340685634815
 21
176.0366581477153
 31
0.0
  0
LINE
  5
303
330
1E
100
AcDbEntity
  8
PEF-L25A
100
AcDbLine
 10
64.35676619241816
 20
175.3981456572265
 30
0.0
 11
62.88775782079023
 21
180.8805595368861
 31
0.0
  0
LINE
  5
304
330
1E
100
AcDbEntity
  8
PEF-L25A
100
AcDbLine
 10
64.43205918273881
 20
153.480409883021
 30
0.0
 11
61.05131879072708
 21
152.5745432251621
 31
0.0
  0
LINE
  5
306
330
1E
100
AcDbEntity
  8
PEF-L25A
100
AcDbLine
 10
61.05131879072708
 20
152.5745432251621
 30
0.0
 11
60.69776540013378
 21
151.9621707894664
 31
0.0
  0
LINE
  5
307
330
1E
100
AcDbEntity
  8
PEF-L25A
100
AcDbLine
 10
61.37760008379032
 20
164.3789077707598
 30
0.0
 11
61.37760008379032
 21
170.3981456572265
 31
0.0
  0
LINE
  5
308
330
1E
100
AcDbEntity
  8
PEF-L25A
100
AcDbLine
 10
57.14729299886752
 20
167.1445658344415
 30
0.0
 11
60.52803339087923
 21
168.0504324923003
 31
0.0
  0
LINE
  5
309
330
1E
100
AcDbEntity
  8
PEF-L25A
100
AcDbLine
 10
56.53492056317171
 20
167.4981192250346
 30
0.0
 11
57.14729299886752
 21
167.1445658344415
 31
0.0
  0
LINE
  5
30A
330
1E
100
AcDbEntity
  8
PEF-L25A
100
AcDbLine
 10
61.57160493069905
 20
168.0194737895159
 30
0.0
 11
60.60567910441
 21
167.7606547444135
 31
0.0
  0
LINE
  5
314
330
1E
100
AcDbEntity
  8
PEF-L25A
100
AcDbLine
 10
60.00296235212158
 20
176.1919495747767
 30
0.0
 11
63.09392499624657
 21
177.0201705191047
 31
0.0
  0
LINE
  5
315
330
1E
100
AcDbEntity
  8
PEF-L25A
100
AcDbLine
 10
58.71630007516159
 20
174.8119132763237
 30
0.0
 11
55.33555968314985
 21
173.9060466184648
 31
0.0
  0
LINE
  5
318
330
1E
100
AcDbEntity
  8
PEF-L25A
100
AcDbLine
 10
55.33555968314985
 20
173.9060466184648
 30
0.0
 11
54.98200629255658
 21
173.293674182769
 31
0.0
  0
LINE
  5
319
330
1E
100
AcDbEntity
  8
PEF-L25A
100
AcDbLine
 10
58.63865436163084
 20
175.1016910242105
 30
0.0
 11
59.6045801879199
 21
175.360510069313
 31
0.0
  0
LINE
  5
31A
330
1E
100
AcDbEntity
  8
PEF-L25A
100
AcDbLine
 10
59.42340685634815
 20
176.0366581477153
 30
0.0
 11
60.00296235212158
 21
176.1919495747767
 31
0.0
  0
LINE
  5
31D
330
1E
100
AcDbEntity
  8
PEF-L25A
100
AcDbLine
 10
63.09392499624657
 20
177.0201705191047
 30
0.0
 11
63.3527440413491
 21
176.0542446928158
 31
0.0
  0
LINE
  5
31E
330
1E
100
AcDbEntity
  8
PEF-L25A
100
AcDbLine
 10
63.3527440413491
 20
176.0542446928158
 30
0.0
 11
64.12548470238036
 21
176.2612999288978
 31
0.0
  0
LINE
  5
32A
330
1E
100
AcDbEntity
  8
PEF-L25A
  6
CENTER
100
AcDbLine
 10
163.1436208692868
 20
176.6699010672419
 30
0.0
 11
158.397365064309
 21
175.3981456572265
 31
0.0
  0
CIRCLE
  5
333
330
1E
100
AcDbEntity
  8
PEF-L25A
  6
PHANTOM
100
AcDbCircle
 10
118.3776000837903
 20
157.3981456572266
 30
0.0
 40
8.0
  0
LINE
  5
335
330
1E
100
AcDbEntity
  8
PEF-L25A
  6
PHANTOM
100
AcDbLine
 10
103.6806616270911
 20
157.3981456572266
 30
0.0
 11
133.0745385404892
 21
157.3981456572266
 31
0.0
  0
LINE
  5
336
330
1E
100
AcDbEntity
  8
PEF-L25A
  6
CENTER
100
AcDbLine
 10
93.05801221131918
 20
184.630559536886
 30
0.0
 11
93.05801221131918
 21
175.3981456572265
 31
0.0
  0
LINE
  5
346
330
1E
100
AcDbEntity
  8
PEF-L25A
  6
DASHED
100
AcDbLine
 10
95.05801221131918
 20
180.8805595368861
 30
0.0
 11
95.05801221131918
 21
175.3981456572265
 31
0.0
  0
LINE
  5
347
330
1E
100
AcDbEntity
  8
PEF-L25A
  6
DASHED
100
AcDbLine
 10
94.30801221131918
 20
180.8805595368861
 30
0.0
 11
94.30801221131916
 21
175.3981456572265
 31
0.0
  0
LINE
  5
348
330
1E
100
AcDbEntity
  8
PEF-L25A
  6
DASHED
100
AcDbLine
 10
91.05801221131917
 20
180.8805595368861
 30
0.0
 11
91.05801221131917
 21
175.3981456572265
 31
0.0
  0
LINE
  5
349
330
1E
100
AcDbEntity
  8
PEF-L25A
  6
DASHED
100
AcDbLine
 10
91.80801221131918
 20
180.8805595368861
 30
0.0
 11
91.80801221131918
 21
175.3981456572265
 31
0.0
  0
LINE
  5
34A
330
1E
100
AcDbEntity
  8
PEF-L25A
  6
CENTER
100
AcDbLine
 10
133.058012211319
 20
184.880559536886
 30
0.0
 11
133.058012211319
 21
175.3981456572265
 31
0.0
  0
CIRCLE
  5
34C
330
1E
100
AcDbEntity
  8
PEF-L25A
  6
PHANTOM
100
AcDbCircle
 10
118.3776000837903
 20
157.3981456572266
 30
0.0
 40
5.0
  0
LINE
  5
354
330
1E
100
AcDbEntity
  8
PEF-L25A
  6
DASHED
100
AcDbLine
 10
135.0580122113191
 20
180.8805595368861
 30
0.0
 11
135.0580122113191
 21
175.3981456572265
 31
0.0
  0
LINE
  5
355
330
1E
100
AcDbEntity
  8
PEF-L25A
  6
DASHED
100
AcDbLine
 10
134.308012211319
 20
180.8805595368861
 30
0.0
 11
134.308012211319
 21
175.3981456572265
 31
0.0
  0
LINE
  5
356
330
1E
100
AcDbEntity
  8
PEF-L25A
  6
DASHED
100
AcDbLine
 10
131.8080122113191
 20
180.8805595368861
 30
0.0
 11
131.8080122113191
 21
175.3981456572265
 31
0.0
  0
LINE
  5
357
330
1E
100
AcDbEntity
  8
PEF-L25A
  6
DASHED
100
AcDbLine
 10
131.058012211319
 20
180.8805595368861
 30
0.0
 11
131.058012211319
 21
175.3981456572265
 31
0.0
  0
ARC
  5
366
330
1E
100
AcDbEntity
  8
PEF-L25A
  6
PHANTOM
100
AcDbCircle
 10
154.9473530996326
 20
170.3981456572265
 30
0.0
 40
5.0
100
AcDbArc
 50
14.99999999999998
 51
90.0
  0
LINE
  5
367
330
1E
100
AcDbEntity
  8
PEF-L25A
100
AcDbLine
 10
155.4469928263633
 20
178.5416452842561
 30
0.0
 11
156.3425024787008
 21
175.1995577630644
 31
0.0
  0
LINE
  5
368
330
1E
100
AcDbEntity
  8
PEF-L25A
100
AcDbLine
 10
156.4129186526523
 20
178.8004643293585
 30
0.0
 11
157.5146601505167
 21
174.6887090825218
 31
0.0
  0
LINE
  5
369
330
1E
100
AcDbEntity
  8
PEF-L25A
100
AcDbLine
 10
155.2658194947916
 20
179.2177933626585
 30
0.0
 11
155.4469928263633
 21
178.5416452842561
 31
0.0
  0
LINE
  5
36A
330
1E
100
AcDbEntity
  8
PEF-L25A
100
AcDbLine
 10
151.527020582947
 20
175.3981456572265
 30
0.0
 11
151.0813797389644
 21
177.0612999288979
 31
0.0
  0
LINE
  5
36B
330
1E
100
AcDbEntity
  8
PEF-L25A
100
AcDbLine
 10
151.0813797389644
 20
177.0612999288979
 30
0.0
 11
150.058012211319
 21
180.8805595368861
 31
0.0
  0
LINE
  5
36C
330
1E
100
AcDbEntity
  8
PEF-L25A
  6
CENTER
100
AcDbLine
 10
170.154937515066
 20
155.7725017313354
 30
0.0
 11
164.4521082032867
 21
154.2444332226716
 31
0.0
  0
LINE
  5
36D
330
1E
100
AcDbEntity
  8
PEF-L25A
100
AcDbLine
 10
165.6344484440798
 20
149.8318793721987
 30
0.0
 11
159.7769822310779
 21
171.6922408827391
 31
0.0
  0
LINE
  5
37C
330
1E
100
AcDbEntity
  8
PEF-L25A
100
AcDbLine
 10
166.177696186146
 20
157.8126316703778
 30
0.0
 11
167.7306104567613
 21
152.0170767126435
 31
0.0
  0
LINE
  5
37D
330
1E
100
AcDbEntity
  8
PEF-L25A
100
AcDbLine
 10
167.3770570661679
 20
151.4047042769476
 30
0.0
 11
165.5653237504503
 21
158.1661850609711
 31
0.0
  0
LINE
  5
381
330
1E
100
AcDbEntity
  8
PEF-L25A
100
AcDbLine
 10
167.3770570661679
 20
151.4047042769476
 30
0.0
 11
165.3579748611455
 21
150.8636928306599
 31
0.0
  0
LINE
  5
383
330
1E
100
AcDbEntity
  8
PEF-L25A
100
AcDbLine
 10
167.7306104567613
 20
152.0170767126435
 30
0.0
 11
167.3770570661679
 21
151.4047042769476
 31
0.0
  0
LINE
  5
384
330
1E
100
AcDbEntity
  8
PEF-L25A
100
AcDbLine
 10
163.5462415454278
 20
157.6251736146834
 30
0.0
 11
165.5653237504503
 21
158.1661850609711
 31
0.0
  0
LINE
  5
386
330
1E
100
AcDbEntity
  8
PEF-L25A
100
AcDbLine
 10
165.5653237504503
 20
158.1661850609711
 30
0.0
 11
166.177696186146
 21
157.8126316703778
 31
0.0
  0
LINE
  5
387
330
1E
100
AcDbEntity
  8
PEF-L25A
100
AcDbLine
 10
160.4836771938906
 20
179.0629998487375
 30
0.0
 11
162.0365914645058
 21
173.2674448910031
 31
0.0
  0
LINE
  5
388
330
1E
100
AcDbEntity
  8
PEF-L25A
100
AcDbLine
 10
161.6830380739125
 20
172.6550724553072
 30
0.0
 11
159.6454997054817
 21
172.1091156949388
 31
0.0
  0
LINE
  5
389
330
1E
100
AcDbEntity
  8
PEF-L25A
100
AcDbLine
 10
161.6830380739125
 20
172.6550724553072
 30
0.0
 11
159.8713047581949
 21
179.4165532393306
 31
0.0
  0
LINE
  5
38A
330
1E
100
AcDbEntity
  8
PEF-L25A
100
AcDbLine
 10
151.595301354893
 20
178.2342809912689
 30
0.0
 11
155.2658194947916
 21
179.2177933626585
 31
0.0
  0
LINE
  5
38B
330
1E
100
AcDbEntity
  8
PEF-L25A
100
AcDbLine
 10
151.595301354893
 20
178.2342809912689
 30
0.0
 11
151.8541203999955
 21
177.2683551649799
 31
0.0
  0
LINE
  5
38C
330
1E
100
AcDbEntity
  8
PEF-L25A
100
AcDbLine
 10
151.0813797389644
 20
177.0612999288979
 30
0.0
 11
151.8541203999955
 21
177.2683551649799
 31
0.0
  0
LINE
  5
38D
330
1E
100
AcDbEntity
  8
PEF-L25A
100
AcDbLine
 10
156.4905643661831
 20
178.5106865814719
 30
0.0
 11
159.8713047581949
 21
179.4165532393306
 31
0.0
  0
LINE
  5
38E
330
1E
100
AcDbEntity
  8
PEF-L25A
100
AcDbLine
 10
156.4129186526523
 20
178.8004643293585
 30
0.0
 11
155.4469928263633
 21
178.5416452842561
 31
0.0
  0
LINE
  5
38F
330
1E
100
AcDbEntity
  8
PEF-L25A
100
AcDbLine
 10
159.8713047581949
 20
179.4165532393306
 30
0.0
 11
160.4836771938906
 21
179.0629998487375
 31
0.0
  0
LINE
  5
390
330
1E
100
AcDbEntity
  8
PEF-L25A
100
AcDbLine
 10
162.0365914645058
 20
173.2674448910031
 30
0.0
 11
161.6830380739125
 21
172.6550724553072
 31
0.0
  0
LINE
  5
399
330
1E
100
AcDbEntity
  8
PEF-L25A
  6
CENTER
100
AcDbLine
 10
334.2175666259833
 20
119.148528331966
 30
0.0
 11
315.8189702584528
 21
151.1312122261426
 31
0.0
  0
LINE
  5
39A
330
1E
100
AcDbEntity
  8
PEF-L25A
100
AcDbLine
 10
313.0241703821848
 20
149.5346831447371
 30
0.0
 11
322.4838673564025
 21
133.0991900326669
 31
0.0
  0
LINE
  5
39B
330
1E
100
AcDbEntity
  8
PEF-L25A
100
AcDbLine
 10
318.5774883612273
 20
152.7363388892975
 30
0.0
 11
328.1801868028283
 21
136.0635218148694
 31
0.0
  0
LINE
  5
39C
330
1E
100
AcDbEntity
  8
PEF-L25A
100
AcDbLine
 10
296.7167421983235
 20
147.716662183008
 30
0.0
 11
296.7167421983235
 21
175.3981456572265
 31
0.0
  0
LINE
  5
39D
330
1E
100
AcDbEntity
  8
PEF-L25A
100
AcDbLine
 10
267.7167421983235
 20
147.716662183008
 30
0.0
 11
267.7167421983235
 21
175.3981456572265
 31
0.0
  0
LINE
  5
39E
330
1E
100
AcDbEntity
  8
PEF-L25A
100
AcDbLine
 10
297.9167421983234
 20
108.3981456572266
 30
0.0
 11
297.9167421983234
 21
175.3981456572265
 31
0.0
  0
LINE
  5
39F
330
1E
100
AcDbEntity
  8
PEF-L25A
100
AcDbLine
 10
266.5167421983235
 20
108.3981456572266
 30
0.0
 11
266.5167421983235
 21
175.3981456572265
 31
0.0
  0
LINE
  5
3A0
330
1E
100
AcDbEntity
  8
PEF-L25A
100
AcDbLine
 10
294.2167421983235
 20
148.2905803763078
 30
0.0
 11
294.2167421983236
 21
157.9674251842989
 31
0.0
  0
LINE
  5
3A1
330
1E
100
AcDbEntity
  8
PEF-L25A
100
AcDbLine
 10
270.2167421983235
 20
148.2905803763078
 30
0.0
 11
270.2167421983235
 21
157.9674251842989
 31
0.0
  0
LINE
  5
3A2
330
1E
100
AcDbEntity
  8
PEF-L25A
100
AcDbLine
 10
294.7167421983235
 20
155.3981456572266
 30
0.0
 11
294.7167421983235
 21
147.7166621830081
 31
0.0
  0
LINE
  5
3A3
330
1E
100
AcDbEntity
  8
PEF-L25A
100
AcDbLine
 10
269.7167421983235
 20
155.3981456572266
 30
0.0
 11
269.7167421983235
 21
147.716662183008
 31
0.0
  0
LINE
  5
3A4
330
1E
100
AcDbEntity
  8
PEF-L25A
  6
CENTER
100
AcDbLine
 10
282.2167421983235
 20
83.52645713530755
 30
0.0
 11
282.2167421983235
 21
185.2250551839594
 31
0.0
  0
LINE
  5
3A6
330
1E
100
AcDbEntity
  8
PEF-L25A
100
AcDbLine
 10
336.4172273333229
 20
120.414576365672
 30
0.0
 11
348.4751282014443
 21
110.587961506168
 31
0.0
  0
LINE
  5
3A7
330
1E
100
AcDbEntity
  8
PEF-L25A
100
AcDbLine
 10
334.2175666259833
 20
119.148528331966
 30
0.0
 11
346.9231292177632
 21
108.7941000174297
 31
0.0
  0
ARC
  5
3A8
330
1E
100
AcDbEntity
  8
PEF-L25A
100
AcDbCircle
 10
341.1332140480697
 20
91.62142387013952
 30
0.0
 40
1.381249999999999
100
AcDbArc
 50
20.82594146529054
 51
189.9206974896659
  0
LINE
  5
3A9
330
1E
100
AcDbEntity
  8
PEF-L25A
100
AcDbLine
 10
342.2857858020238
 20
95.4450419099661
 30
0.0
 11
338.187855224785
 21
94.31833654291915
 31
0.0
  0
LINE
  5
3AA
330
1E
100
AcDbEntity
  8
PEF-L25A
100
AcDbLine
 10
340.1649286405236
 20
103.1587935847682
 30
0.0
 11
342.2857858020238
 21
95.4450419099661
 31
0.0
  0
TEXT
  5
3AD
330
1E
100
AcDbEntity
  8
PEF-L25A
100
AcDbText
 10
217.2499999999998
 20
180.75
 30
0.0
 40
3.0
  1
PEF-L25A
100
AcDbText
  0
LWPOLYLINE
  5
3B3
330
1E
100
AcDbEntity
  8
PEF-L25A
100
AcDbPolyline
 90
        4
 70
     0
 43
0.0
 10
278.322404631026
 20
97.46817520437376
 10
277.4667421983235
 20
98.95022601194263
 10
274.9667421983235
 20
98.95022601194263
 10
274.1110797656209
 20
97.46817520437378
  0
LWPOLYLINE
  5
3B9
330
1E
100
AcDbEntity
  8
PEF-L25A
100
AcDbPolyline
 90
        4
 70
     0
 43
0.0
 10
278.322404631026
 20
121.6163208616004
 10
277.4667421983235
 20
123.0983716691693
 10
274.9667421983235
 20
123.0983716691693
 10
274.1110797656209
 20
121.6163208616004
  0
LINE
  5
3BF
330
1E
100
AcDbEntity
  8
PEF-L25A
100
AcDbLine
 10
266.5167421983235
 20
147.716662183008
 30
0.0
 11
281.7167421983235
 21
147.716662183008
 31
0.0
  0
LINE
  5
3C0
330
1E
100
AcDbEntity
  8
PEF-L25A
100
AcDbLine
 10
266.5167421983235
 20
128.3981456572266
 30
0.0
 11
281.7167421983236
 21
128.3981456572267
 31
0.0
  0
LINE
  5
3C1
330
1E
100
AcDbEntity
  8
PEF-L25A
100
AcDbLine
 10
270.2167421983235
 20
92.0774137605604
 30
0.0
 11
294.2167421983235
 21
92.0774137605604
 31
0.0
  0
LINE
  5
3C2
330
1E
100
AcDbEntity
  8
PEF-L25A
100
AcDbLine
 10
270.2167421983235
 20
91.09390138917083
 30
0.0
 11
294.2167421983235
 21
91.09390138917083
 31
0.0
  0
LINE
  5
3C3
330
1E
100
AcDbEntity
  8
PEF-L25A
100
AcDbLine
 10
270.2167421983235
 20
115.2420470463975
 30
0.0
 11
294.2167421983235
 21
115.2420470463975
 31
0.0
  0
LINE
  5
3C4
330
1E
100
AcDbEntity
  8
PEF-L25A
100
AcDbLine
 10
270.2167421983235
 20
116.225559417787
 30
0.0
 11
294.2167421983235
 21
116.225559417787
 31
0.0
  0
LWPOLYLINE
  5
3C5
330
1E
100
AcDbEntity
  8
PEF-L25A
100
AcDbPolyline
 90
       11
 70
     0
 43
0.0
 10
272.747105719979
 20
97.12736567767228
 42
0.034117495830383
 10
272.7167421983235
 20
96.68289902396368
 42
0.1016242789414788
 10
272.9812746216168
 20
95.39481870995215
 42
0.0997343366565516
 10
273.7418684641706
 20
94.29235456734087
 42
0.0971729588102004
 10
274.8716934171683
 20
93.56125123000619
 42
0.0954362277442096
 10
276.2167421983235
 20
93.3021586319519
 42
0.0954362277442159
 10
277.5617909794787
 20
93.56125123000619
 42
0.0971729588101977
 10
278.6916159324764
 20
94.29235456734087
 42
0.0997343366565495
 10
279.4522097750304
 20
95.39481870995228
 42
0.1016242789414555
 10
279.7167421983235
 20
96.68289902396368
 42
0.0341174958303838
 10
279.686378676668
 20
97.12736567767223
 42
0.099734336656568
  0
LWPOLYLINE
  5
3D2
330
1E
100
AcDbEntity
  8
PEF-L25A
100
AcDbPolyline
 90
       16
 70
     1
 43
0.0
 10
276.2167421983235
 20
100.9695060738342
 42
0.0953768097733595
 10
274.8706649697321
 20
100.7103797667252
 42
0.0971462587932747
 10
273.7401773572051
 20
99.97931013844524
 42
0.0997580323407118
 10
272.9790257473619
 20
98.87673211786555
 42
0.1016867883754799
 10
272.7143506119176
 20
97.58876568182245
 42
0.1016867883754884
 10
272.9790257473619
 20
96.30079924577934
 42
0.0997580323407144
 10
273.7401773572051
 20
95.1982212251997
 42
0.0971462587932806
 10
274.8706649697321
 20
94.46715159691954
 42
0.0953768097733615
 10
276.2167421983235
 20
94.20802528981072
 42
0.0953768097733595
 10
277.5628194269148
 20
94.46715159691954
 42
0.0971462587932749
 10
278.6933070394419
 20
95.1982212251997
 42
0.0997580323407205
 10
279.454458649285
 20
96.30079924577939
 42
0.1016867883754906
 10
279.7191337847294
 20
97.58876568182245
 42
0.1016867883754799
 10
279.454458649285
 20
98.87673211786555
 42
0.0997580323407117
 10
278.6933070394419
 20
99.97931013844524
 42
0.0971462587932775
 10
277.5628194269148
 20
100.7103797667254
 42
0.0953768097733532
  0
LWPOLYLINE
  5
3E4
330
1E
100
AcDbEntity
  8
PEF-L25A
100
AcDbPolyline
 90
        6
 70
     1
 43
0.0
 10
278.4667421983235
 20
97.71817520437377
 10
277.4667421983235
 20
99.45022601194263
 10
274.9667421983235
 20
99.45022601194263
 10
273.9667421983235
 20
97.71817520437377
 10
274.9667421983235
 20
95.98612439680492
 10
277.4667421983235
 20
95.98612439680492
  0
LWPOLYLINE
  5
3EC
330
1E
100
AcDbEntity
  8
PEF-L25A
100
AcDbPolyline
 90
       13
 70
     0
 43
0.0
 10
272.7824568456989
 20
98.25227526344388
 42
0.0127730663014319
 10
272.7039488293276
 20
98.0813862220333
 42
0.1016242789414674
 10
272.4167421983235
 20
96.68289902396368
 42
0.1016242789414735
 10
272.7039488293276
 20
95.28441182589407
 42
0.0997343366565623
 10
273.5297364298145
 20
94.08745075677321
 42
0.0971729588102134
 10
274.7564035216407
 20
93.2936814190956
 42
0.0954362277442158
 10
276.2167421983235
 20
93.01238088406522
 42
0.0954362277442121
 10
277.6770808750064
 20
93.2936814190956
 42
0.0971729588102025
 10
278.9037479668325
 20
94.08745075677321
 42
0.0997343366565488
 10
279.7295355673194
 20
95.28441182589405
 42
0.1016242789414615
 10
280.0167421983235
 20
96.68289902396368
 42
0.1016242789414694
 10
279.7295355673194
 20
98.08138622203328
 42
0.0127730663014316
 10
279.6510275509481
 20
98.25227526344384
 42
0.0971729588102126
  0
LWPOLYLINE
  5
3FB
330
1E
100
AcDbEntity
  8
PEF-L25A
100
AcDbPolyline
 90
       13
 70
     0
 43
0.0
 10
272.7824568456989
 20
122.4004209206705
 42
0.0127730663014319
 10
272.7039488293276
 20
122.2295318792599
 42
0.1016242789414674
 10
272.4167421983235
 20
120.8310446811903
 42
0.1016242789414735
 10
272.7039488293276
 20
119.4325574831207
 42
0.0997343366565623
 10
273.5297364298145
 20
118.2355964139999
 42
0.0971729588102134
 10
274.7564035216407
 20
117.4418270763222
 42
0.0954362277442158
 10
276.2167421983235
 20
117.1605265412917
 42
0.0954362277442121
 10
277.6770808750064
 20
117.4418270763222
 42
0.0971729588102025
 10
278.9037479668325
 20
118.2355964139999
 42
0.0997343366565488
 10
279.7295355673194
 20
119.4325574831207
 42
0.1016242789414615
 10
280.0167421983235
 20
120.8310446811903
 42
0.1016242789414694
 10
279.7295355673194
 20
122.2295318792599
 42
0.0127730663014316
 10
279.6510275509481
 20
122.4004209206705
 42
0.0971729588102126
  0
LWPOLYLINE
  5
40A
330
1E
100
AcDbEntity
  8
PEF-L25A
100
AcDbPolyline
 90
        6
 70
     1
 43
0.0
 10
278.4667421983235
 20
121.8663208616004
 10
277.4667421983235
 20
123.5983716691692
 10
274.9667421983235
 20
123.5983716691692
 10
273.9667421983235
 20
121.8663208616004
 10
274.9667421983235
 20
120.1342700540315
 10
277.4667421983235
 20
120.1342700540315
  0
LWPOLYLINE
  5
412
330
1E
100
AcDbEntity
  8
PEF-L25A
100
AcDbPolyline
 90
       16
 70
     1
 43
0.0
 10
276.2167421983235
 20
125.1176517310607
 42
0.0953768097733595
 10
274.8706649697321
 20
124.858525423952
 42
0.0971462587932747
 10
273.7401773572051
 20
124.1274557956719
 42
0.0997580323407118
 10
272.9790257473619
 20
123.0248777750922
 42
0.1016867883754799
 10
272.7143506119176
 20
121.736911339049
 42
0.1016867883754884
 10
272.9790257473619
 20
120.4489449030059
 42
0.0997580323407144
 10
273.7401773572051
 20
119.3463668824263
 42
0.0971462587932806
 10
274.8706649697321
 20
118.6152972541462
 42
0.0953768097733615
 10
276.2167421983235
 20
118.3561709470374
 42
0.0953768097733595
 10
277.5628194269148
 20
118.6152972541462
 42
0.0971462587932749
 10
278.6933070394419
 20
119.3463668824263
 42
0.0997580323407205
 10
279.454458649285
 20
120.4489449030059
 42
0.1016867883754906
 10
279.7191337847294
 20
121.736911339049
 42
0.1016867883754799
 10
279.454458649285
 20
123.0248777750922
 42
0.0997580323407117
 10
278.6933070394419
 20
124.1274557956719
 42
0.0971462587932775
 10
277.5628194269148
 20
124.858525423952
 42
0.0953768097733532
  0
LWPOLYLINE
  5
424
330
1E
100
AcDbEntity
  8
PEF-L25A
100
AcDbPolyline
 90
       11
 70
     0
 43
0.0
 10
272.747105719979
 20
121.2755113348989
 42
0.034117495830383
 10
272.7167421983235
 20
120.8310446811903
 42
0.1016242789414788
 10
272.9812746216168
 20
119.5429643671787
 42
0.0997343366565516
 10
273.7418684641706
 20
118.4405002245675
 42
0.0971729588102004
 10
274.8716934171683
 20
117.7093968872328
 42
0.0954362277442096
 10
276.2167421983235
 20
117.4503042891785
 42
0.0954362277442159
 10
277.5617909794787
 20
117.7093968872328
 42
0.0971729588101977
 10
278.6916159324764
 20
118.4405002245675
 42
0.0997343366565495
 10
279.4522097750304
 20
119.5429643671789
 42
0.1016242789414555
 10
279.7167421983235
 20
120.8310446811903
 42
0.0341174958303838
 10
279.686378676668
 20
121.2755113348989
 42
0.099734336656568
  0
LINE
  5
431
330
1E
100
AcDbEntity
  8
PEF-L25A
100
AcDbLine
 10
270.2167421983235
 20
148.2905803763078
 30
0.0
 11
294.2167421983235
 21
148.2905803763078
 31
0.0
  0
LINE
  5
432
330
1E
100
AcDbEntity
  8
PEF-L25A
100
AcDbLine
 10
269.7167421983235
 20
125.0675887286931
 30
0.0
 11
294.7167421983235
 21
125.0675887286931
 31
0.0
  0
LINE
  5
433
330
1E
100
AcDbEntity
  8
PEF-L25A
100
AcDbLine
 10
309.7167421983235
 20
88.77645713530753
 30
0.0
 11
254.7167421983235
 21
88.77645713530753
 31
0.0
  0
ARC
  5
434
330
1E
100
AcDbEntity
  8
PEF-L25A
100
AcDbCircle
 10
264.5167421983235
 20
102.7764571353075
 30
0.0
 40
2.0
100
AcDbArc
 50
270.0
 51
0.0
  0
LINE
  5
435
330
1E
100
AcDbEntity
  8
PEF-L25A
100
AcDbLine
 10
254.7167421983235
 20
100.7764571353075
 30
0.0
 11
254.7167421983235
 21
102.2764571353075
 31
0.0
  0
LINE
  5
436
330
1E
100
AcDbEntity
  8
PEF-L25A
100
AcDbLine
 10
270.2167421983235
 20
100.7707461971619
 30
0.0
 11
270.2167421983235
 21
115.2420470463975
 31
0.0
  0
LINE
  5
437
330
1E
100
AcDbEntity
  8
PEF-L25A
  6
CENTER
100
AcDbLine
 10
259.7167421983235
 20
108.3333975095829
 30
0.0
 11
259.7167421983235
 21
87.3333975095829
 31
0.0
  0
LINE
  5
442
330
1E
100
AcDbEntity
  8
PEF-L25A
100
AcDbLine
 10
254.7167421983235
 20
100.7764571353075
 30
0.0
 11
264.5167421983235
 21
100.7764571353075
 31
0.0
  0
LINE
  5
443
330
1E
100
AcDbEntity
  8
PEF-L25A
  6
DASHED
100
AcDbLine
 10
256.7167421983234
 20
100.7764571353075
 30
0.0
 11
256.7167421983234
 21
88.77645713530753
 31
0.0
  0
LINE
  5
444
330
1E
100
AcDbEntity
  8
PEF-L25A
100
AcDbLine
 10
254.7167421983235
 20
88.77645713530753
 30
0.0
 11
254.7167421983235
 21
100.7764571353075
 31
0.0
  0
LINE
  5
445
330
1E
100
AcDbEntity
  8
PEF-L25A
  6
DASHED
100
AcDbLine
 10
262.7167421983235
 20
100.7764571353075
 30
0.0
 11
262.7167421983235
 21
88.77645713530753
 31
0.0
  0
LINE
  5
446
330
1E
100
AcDbEntity
  8
PEF-L25A
100
AcDbLine
 10
269.7167421983235
 20
88.77645713530753
 30
0.0
 11
269.7167421983235
 21
100.7764571353075
 31
0.0
  0
LINE
  5
448
330
1E
100
AcDbEntity
  8
PEF-L25A
100
AcDbLine
 10
264.5167421983235
 20
100.7764571353075
 30
0.0
 11
270.2167421983235
 21
100.7764571353075
 31
0.0
  0
LINE
  5
449
330
1E
100
AcDbEntity
  8
PEF-L25A
100
AcDbLine
 10
270.2167421983235
 20
91.09390138917083
 30
0.0
 11
270.2167421983235
 21
100.7707461971619
 31
0.0
  0
LINE
  5
44A
330
1E
100
AcDbEntity
  8
PEF-L25A
100
AcDbLine
 10
270.2167421983235
 20
100.7707461971619
 30
0.0
 11
275.0327599442945
 21
100.7707461971619
 31
0.0
  0
LINE
  5
44D
330
1E
100
AcDbEntity
  8
PEF-L25A
100
AcDbLine
 10
269.7167421983235
 20
128.3981456572266
 30
0.0
 11
269.7167421983235
 21
125.0675887286931
 31
0.0
  0
LINE
  5
44E
330
1E
100
AcDbEntity
  8
PEF-L25A
100
AcDbLine
 10
267.7167421983235
 20
126.3981456572266
 30
0.0
 11
267.7167421983235
 21
107.3981456572266
 31
0.0
  0
LINE
  5
450
330
1E
100
AcDbEntity
  8
PEF-L25A
  6
CENTER
100
AcDbLine
 10
269.0
 20
116.3981456572267
 30
0.0
 11
259.0
 21
116.3981456572267
 31
0.0
  0
LINE
  5
451
330
1E
100
AcDbEntity
  8
PEF-L25A
100
AcDbLine
 10
256.7167421983234
 20
107.2764571353075
 30
0.0
 11
262.7167421983235
 21
107.2764571353075
 31
0.0
  0
LINE
  5
452
330
1E
100
AcDbEntity
  8
PEF-L25A
100
AcDbLine
 10
263.2167421983235
 20
106.7764571353075
 30
0.0
 11
256.2167421983235
 21
106.7764571353075
 31
0.0
  0
LINE
  5
453
330
1E
100
AcDbEntity
  8
PEF-L25A
100
AcDbLine
 10
255.9167421983234
 20
103.2764571353075
 30
0.0
 11
263.5167421983235
 21
103.2764571353075
 31
0.0
  0
LINE
  5
454
330
1E
100
AcDbEntity
  8
PEF-L25A
100
AcDbLine
 10
254.7167421983235
 20
102.2764571353075
 30
0.0
 11
264.5167421983235
 21
102.2764571353075
 31
0.0
  0
LINE
  5
458
330
1E
100
AcDbEntity
  8
PEF-L25A
100
AcDbLine
 10
256.2167421983235
 20
103.2764571353075
 30
0.0
 11
256.2167421983235
 21
106.7764571353075
 31
0.0
  0
LINE
  5
459
330
1E
100
AcDbEntity
  8
PEF-L25A
100
AcDbLine
 10
256.2167421983235
 20
106.7764571353075
 30
0.0
 11
256.7167421983234
 21
107.2764571353075
 31
0.0
  0
LINE
  5
45A
330
1E
100
AcDbEntity
  8
PEF-L25A
100
AcDbLine
 10
255.9167421983234
 20
103.2764571353075
 30
0.0
 11
255.9167421983234
 21
102.2764571353075
 31
0.0
  0
LINE
  5
45C
330
1E
100
AcDbEntity
  8
PEF-L25A
100
AcDbLine
 10
265.0167421983235
 20
102.7764571353075
 30
0.0
 11
265.0167421983236
 21
123.5
 31
0.0
  0
LINE
  5
45D
330
1E
100
AcDbEntity
  8
PEF-L25A
100
AcDbLine
 10
260.0167421983235
 20
113.3981456572267
 30
0.0
 11
260.0167421983235
 21
119.3981456572266
 31
0.0
  0
LINE
  5
45E
330
1E
100
AcDbEntity
  8
PEF-L25A
100
AcDbLine
 10
260.5167421983235
 20
119.8981456572266
 30
0.0
 11
260.5167421983235
 21
112.8981456572266
 31
0.0
  0
LINE
  5
45F
330
1E
100
AcDbEntity
  8
PEF-L25A
100
AcDbLine
 10
264.0167421983235
 20
112.5981456572267
 30
0.0
 11
264.0167421983235
 21
120.1981456572266
 31
0.0
  0
LINE
  5
460
330
1E
100
AcDbEntity
  8
PEF-L25A
100
AcDbLine
 10
266.5167421983235
 20
108.3981456572266
 30
0.0
 11
267.7167421983235
 21
108.3981456572266
 31
0.0
  0
LINE
  5
461
330
1E
100
AcDbEntity
  8
PEF-L25A
100
AcDbLine
 10
266.5167421983235
 20
108.3981456572266
 30
0.0
 11
266.5167421983235
 21
102.7764571353075
 31
0.0
  0
LINE
  5
462
330
1E
100
AcDbEntity
  8
PEF-L25A
100
AcDbLine
 10
262.7167421983235
 20
107.2764571353075
 30
0.0
 11
263.2167421983235
 21
106.7764571353075
 31
0.0
  0
LINE
  5
463
330
1E
100
AcDbEntity
  8
PEF-L25A
100
AcDbLine
 10
263.2167421983235
 20
106.7764571353075
 30
0.0
 11
263.2167421983235
 21
103.2764571353075
 31
0.0
  0
LINE
  5
464
330
1E
100
AcDbEntity
  8
PEF-L25A
100
AcDbLine
 10
263.5167421983235
 20
102.2764571353075
 30
0.0
 11
263.5167421983235
 21
103.2764571353075
 31
0.0
  0
ARC
  5
465
330
1E
100
AcDbEntity
  8
PEF-L25A
100
AcDbCircle
 10
264.5167421983235
 20
102.7764571353075
 30
0.0
 40
0.5
100
AcDbArc
 50
270.0
 51
359.9999999999998
  0
LINE
  5
466
330
1E
100
AcDbEntity
  8
PEF-L25A
100
AcDbLine
 10
264.0167421983235
 20
112.8981456572266
 30
0.0
 11
260.5167421983235
 21
112.8981456572266
 31
0.0
  0
LINE
  5
467
330
1E
100
AcDbEntity
  8
PEF-L25A
100
AcDbLine
 10
260.5167421983235
 20
112.8981456572266
 30
0.0
 11
260.0167421983235
 21
113.3981456572267
 31
0.0
  0
LINE
  5
468
330
1E
100
AcDbEntity
  8
PEF-L25A
100
AcDbLine
 10
264.0167421983235
 20
112.5981456572267
 30
0.0
 11
265.0167421983236
 21
112.5981456572267
 31
0.0
  0
LINE
  5
469
330
1E
100
AcDbEntity
  8
PEF-L25A
100
AcDbLine
 10
267.7167421983235
 20
107.3981456572266
 30
0.0
 11
270.2167421983235
 21
107.3981456572266
 31
0.0
  0
LINE
  5
46A
330
1E
100
AcDbEntity
  8
PEF-L25A
100
AcDbLine
 10
260.0167421983235
 20
119.3981456572266
 30
0.0
 11
260.5167421983235
 21
119.8981456572266
 31
0.0
  0
LINE
  5
46D
330
1E
100
AcDbEntity
  8
PEF-L25A
100
AcDbLine
 10
260.5167421983235
 20
119.8981456572266
 30
0.0
 11
264.0167421983235
 21
119.8981456572266
 31
0.0
  0
LINE
  5
470
330
1E
100
AcDbEntity
  8
PEF-L25A
100
AcDbLine
 10
265.0167421983235
 20
120.1981456572266
 30
0.0
 11
264.0167421983235
 21
120.1981456572266
 31
0.0
  0
LINE
  5
471
330
1E
100
AcDbEntity
  8
PEF-L25A
100
AcDbLine
 10
266.5167421983235
 20
123.5
 30
0.0
 11
265.0167421983236
 21
123.5
 31
0.0
  0
LINE
  5
472
330
1E
100
AcDbEntity
  8
PEF-L25A
100
AcDbLine
 10
270.2167421983235
 20
115.2420470463975
 30
0.0
 11
270.2167421983235
 21
124.9188918543886
 31
0.0
  0
LINE
  5
473
330
1E
100
AcDbEntity
  8
PEF-L25A
100
AcDbLine
 10
270.2167421983235
 20
124.9188918543886
 30
0.0
 11
275.0327599442945
 21
124.9188918543886
 31
0.0
  0
LINE
  5
475
330
1E
100
AcDbEntity
  8
PEF-L25A
100
AcDbLine
 10
267.7167421983235
 20
126.3981456572266
 30
0.0
 11
267.7167421983235
 21
128.3981456572266
 31
0.0
  0
ARC
  5
476
330
1E
100
AcDbEntity
  8
PEF-L25A
100
AcDbCircle
 10
267.7167421983235
 20
128.3981456572266
 30
0.0
 40
2.0
100
AcDbArc
 50
270.0000000000008
 51
0.0
  0
LINE
  5
477
330
1E
100
AcDbEntity
  8
PEF-L25A
100
AcDbLine
 10
336.0669980632849
 20
102.0320882177212
 30
0.0
 11
340.1649286405236
 21
103.1587935847682
 31
0.0
  0
LINE
  5
478
330
1E
100
AcDbEntity
  8
PEF-L25A
  6
CENTER
100
AcDbLine
 10
304.7167421983235
 20
109.0
 30
0.0
 11
304.7167421983235
 21
87.3333975095829
 31
0.0
  0
LINE
  5
479
330
1E
100
AcDbEntity
  8
PEF-L25A
100
AcDbLine
 10
309.7167421983235
 20
100.7764571353075
 30
0.0
 11
309.7167421983235
 21
102.2764571353075
 31
0.0
  0
ARC
  5
47A
330
1E
100
AcDbEntity
  8
PEF-L25A
100
AcDbCircle
 10
299.9167421983234
 20
102.7764571353075
 30
0.0
 40
2.0
100
AcDbArc
 50
180.0
 51
270.0
  0
LINE
  5
47B
330
1E
100
AcDbEntity
  8
PEF-L25A
100
AcDbLine
 10
294.2167421983235
 20
115.2420470463975
 30
0.0
 11
294.2167421983235
 21
100.7707461971619
 31
0.0
  0
LINE
  5
47D
330
1E
100
AcDbEntity
  8
PEF-L25A
100
AcDbLine
 10
309.7167421983235
 20
100.7764571353075
 30
0.0
 11
294.2167421983235
 21
100.7764571353075
 31
0.0
  0
LINE
  5
484
330
1E
100
AcDbEntity
  8
PEF-L25A
100
AcDbLine
 10
289.4007244523523
 20
100.7707461971619
 30
0.0
 11
294.2167421983235
 21
100.7707461971619
 31
0.0
  0
LWPOLYLINE
  5
485
330
1E
100
AcDbEntity
  8
PEF-L25A
100
AcDbPolyline
 90
       13
 70
     0
 43
0.0
 10
284.7824568456989
 20
98.25227526344388
 42
0.0127730663014319
 10
284.7039488293276
 20
98.0813862220333
 42
0.1016242789414674
 10
284.4167421983235
 20
96.68289902396368
 42
0.1016242789414735
 10
284.7039488293276
 20
95.28441182589407
 42
0.0997343366565623
 10
285.5297364298146
 20
94.08745075677321
 42
0.0971729588102134
 10
286.7564035216407
 20
93.2936814190956
 42
0.0954362277442158
 10
288.2167421983235
 20
93.01238088406522
 42
0.0954362277442121
 10
289.6770808750063
 20
93.2936814190956
 42
0.0971729588102025
 10
290.9037479668325
 20
94.08745075677321
 42
0.0997343366565488
 10
291.7295355673195
 20
95.28441182589405
 42
0.1016242789414615
 10
292.0167421983236
 20
96.68289902396368
 42
0.1016242789414694
 10
291.7295355673195
 20
98.08138622203328
 42
0.0127730663014316
 10
291.6510275509482
 20
98.25227526344384
 42
0.0971729588102126
  0
LINE
  5
495
330
1E
100
AcDbEntity
  8
PEF-L25A
100
AcDbLine
 10
277.4007244523525
 20
100.7707461971619
 30
0.0
 11
287.0327599442946
 21
100.7707461971619
 31
0.0
  0
LWPOLYLINE
  5
496
330
1E
100
AcDbEntity
  8
PEF-L25A
100
AcDbPolyline
 90
       11
 70
     0
 43
0.0
 10
284.7471057199788
 20
97.12736567767228
 42
0.034117495830383
 10
284.7167421983235
 20
96.68289902396368
 42
0.1016242789414788
 10
284.9812746216168
 20
95.39481870995215
 42
0.0997343366565516
 10
285.7418684641706
 20
94.29235456734087
 42
0.0971729588102004
 10
286.8716934171684
 20
93.56125123000619
 42
0.0954362277442096
 10
288.2167421983235
 20
93.3021586319519
 42
0.0954362277442159
 10
289.5617909794787
 20
93.56125123000619
 42
0.0971729588101977
 10
290.6916159324763
 20
94.29235456734087
 42
0.0997343366565495
 10
291.4522097750303
 20
95.39481870995228
 42
0.1016242789414555
 10
291.7167421983235
 20
96.68289902396368
 42
0.0341174958303838
 10
291.6863786766681
 20
97.12736567767223
 42
0.099734336656568
  0
LWPOLYLINE
  5
4A3
330
1E
100
AcDbEntity
  8
PEF-L25A
100
AcDbPolyline
 90
        6
 70
     1
 43
0.0
 10
290.4667421983235
 20
97.71817520437377
 10
289.4667421983235
 20
99.45022601194263
 10
286.9667421983235
 20
99.45022601194263
 10
285.9667421983235
 20
97.71817520437377
 10
286.9667421983235
 20
95.98612439680492
 10
289.4667421983235
 20
95.98612439680492
  0
LWPOLYLINE
  5
4AB
330
1E
100
AcDbEntity
  8
PEF-L25A
100
AcDbPolyline
 90
       16
 70
     1
 43
0.0
 10
288.2167421983235
 20
100.9695060738342
 42
0.0953768097733595
 10
286.8706649697321
 20
100.7103797667252
 42
0.0971462587932747
 10
285.7401773572052
 20
99.97931013844524
 42
0.0997580323407118
 10
284.9790257473619
 20
98.87673211786555
 42
0.1016867883754799
 10
284.7143506119176
 20
97.58876568182245
 42
0.1016867883754884
 10
284.9790257473619
 20
96.30079924577934
 42
0.0997580323407144
 10
285.7401773572052
 20
95.1982212251997
 42
0.0971462587932806
 10
286.8706649697321
 20
94.46715159691954
 42
0.0953768097733615
 10
288.2167421983235
 20
94.20802528981072
 42
0.0953768097733595
 10
289.5628194269148
 20
94.46715159691954
 42
0.0971462587932749
 10
290.6933070394419
 20
95.1982212251997
 42
0.0997580323407205
 10
291.4544586492851
 20
96.30079924577939
 42
0.1016867883754906
 10
291.7191337847293
 20
97.58876568182245
 42
0.1016867883754799
 10
291.4544586492851
 20
98.87673211786555
 42
0.0997580323407117
 10
290.6933070394419
 20
99.97931013844524
 42
0.0971462587932775
 10
289.5628194269148
 20
100.7103797667254
 42
0.0953768097733532
  0
LWPOLYLINE
  5
4BD
330
1E
100
AcDbEntity
  8
PEF-L25A
100
AcDbPolyline
 90
        4
 70
     0
 43
0.0
 10
290.3224046310262
 20
97.46817520437376
 10
289.4667421983235
 20
98.95022601194263
 10
286.9667421983235
 20
98.95022601194263
 10
286.1110797656209
 20
97.46817520437378
  0
LINE
  5
4C3
330
1E
100
AcDbEntity
  8
PEF-L25A
  6
DASHED
100
AcDbLine
 10
307.7167421983235
 20
100.7764571353075
 30
0.0
 11
307.7167421983235
 21
88.77645713530753
 31
0.0
  0
LINE
  5
4C4
330
1E
100
AcDbEntity
  8
PEF-L25A
  6
DASHED
100
AcDbLine
 10
301.7167421983235
 20
100.7764571353075
 30
0.0
 11
301.7167421983235
 21
88.77645713530753
 31
0.0
  0
LINE
  5
4C5
330
1E
100
AcDbEntity
  8
PEF-L25A
100
AcDbLine
 10
294.7167421983235
 20
88.77645713530753
 30
0.0
 11
294.7167421983235
 21
100.7764571353075
 31
0.0
  0
LINE
  5
4C6
330
1E
100
AcDbEntity
  8
PEF-L25A
100
AcDbLine
 10
294.2167421983235
 20
91.09390138917083
 30
0.0
 11
294.2167421983236
 21
100.7707461971619
 31
0.0
  0
LINE
  5
4C8
330
1E
100
AcDbEntity
  8
PEF-L25A
100
AcDbLine
 10
309.7167421983235
 20
100.7764571353075
 30
0.0
 11
309.7167421983235
 21
88.77645713530753
 31
0.0
  0
LINE
  5
4C9
330
1E
100
AcDbEntity
  8
PEF-L25A
100
AcDbLine
 10
339.5796677370195
 20
89.25618700633021
 30
0.0
 11
338.9594821767608
 21
91.51185867105899
 31
0.0
  0
LINE
  5
4CA
330
1E
100
AcDbEntity
  8
PEF-L25A
100
AcDbLine
 10
340.3028319565321
 20
89.45501736522086
 30
0.0
 11
339.7726176661572
 21
91.38345528392141
 31
0.0
  0
LINE
  5
4CB
330
1E
100
AcDbEntity
  8
PEF-L25A
100
AcDbLine
 10
340.3028319565321
 20
89.45501736522086
 30
0.0
 11
339.5796677370195
 21
89.25618700633021
 31
0.0
  0
LINE
  5
4CC
330
1E
100
AcDbEntity
  8
PEF-L25A
100
AcDbLine
 10
338.187855224785
 20
94.31833654291915
 30
0.0
 11
336.0669980632849
 21
102.0320882177212
 31
0.0
  0
LINE
  5
4CD
330
1E
100
AcDbEntity
  8
PEF-L25A
100
AcDbLine
 10
338.7890345314118
 20
93.84038211152953
 30
0.0
 11
338.7653218517756
 21
94.47710808276285
 31
0.0
  0
ARC
  5
4CE
330
1E
100
AcDbEntity
  8
PEF-L25A
100
AcDbCircle
 10
349.0325535361065
 20
93.41970641857745
 30
0.0
 40
10.25215341468211
100
AcDbArc
 50
177.6483271766875
 51
190.7248278641229
  0
LINE
  5
4CF
330
1E
100
AcDbEntity
  8
PEF-L25A
100
AcDbLine
 10
300.9167421983235
 20
103.2764571353075
 30
0.0
 11
308.5167421983235
 21
103.2764571353075
 31
0.0
  0
LINE
  5
4D0
330
1E
100
AcDbEntity
  8
PEF-L25A
100
AcDbLine
 10
309.7167421983235
 20
102.2764571353075
 30
0.0
 11
299.9167421983236
 21
102.2764571353075
 31
0.0
  0
LINE
  5
4D1
330
1E
100
AcDbEntity
  8
PEF-L25A
100
AcDbLine
 10
294.7167421983235
 20
128.3981456572266
 30
0.0
 11
294.7167421983235
 21
125.0675887286931
 31
0.0
  0
LINE
  5
4D2
330
1E
100
AcDbEntity
  8
PEF-L25A
100
AcDbLine
 10
296.7167421983235
 20
107.3981456572266
 30
0.0
 11
296.7167421983235
 21
126.3981456572266
 31
0.0
  0
LINE
  5
4D3
330
1E
100
AcDbEntity
  8
PEF-L25A
100
AcDbLine
 10
289.4007244523523
 20
124.9188918543886
 30
0.0
 11
294.2167421983235
 21
124.9188918543886
 31
0.0
  0
LWPOLYLINE
  5
4D4
330
1E
100
AcDbEntity
  8
PEF-L25A
100
AcDbPolyline
 90
       13
 70
     0
 43
0.0
 10
284.7824568456989
 20
122.4004209206705
 42
0.0127730663014319
 10
284.7039488293276
 20
122.2295318792599
 42
0.1016242789414674
 10
284.4167421983235
 20
120.8310446811903
 42
0.1016242789414735
 10
284.7039488293276
 20
119.4325574831207
 42
0.0997343366565623
 10
285.5297364298146
 20
118.2355964139999
 42
0.0971729588102134
 10
286.7564035216407
 20
117.4418270763222
 42
0.0954362277442158
 10
288.2167421983235
 20
117.1605265412917
 42
0.0954362277442121
 10
289.6770808750063
 20
117.4418270763222
 42
0.0971729588102025
 10
290.9037479668325
 20
118.2355964139999
 42
0.0997343366565488
 10
291.7295355673195
 20
119.4325574831207
 42
0.1016242789414615
 10
292.0167421983236
 20
120.8310446811903
 42
0.1016242789414694
 10
291.7295355673195
 20
122.2295318792599
 42
0.0127730663014316
 10
291.6510275509482
 20
122.4004209206705
 42
0.0971729588102126
  0
LINE
  5
4E3
330
1E
100
AcDbEntity
  8
PEF-L25A
100
AcDbLine
 10
277.4007244523525
 20
124.9188918543886
 30
0.0
 11
287.0327599442946
 21
124.9188918543886
 31
0.0
  0
LWPOLYLINE
  5
4E4
330
1E
100
AcDbEntity
  8
PEF-L25A
100
AcDbPolyline
 90
       16
 70
     1
 43
0.0
 10
288.2167421983235
 20
125.1176517310607
 42
0.0953768097733595
 10
286.8706649697321
 20
124.858525423952
 42
0.0971462587932747
 10
285.7401773572052
 20
124.1274557956719
 42
0.0997580323407118
 10
284.9790257473619
 20
123.0248777750922
 42
0.1016867883754799
 10
284.7143506119176
 20
121.736911339049
 42
0.1016867883754884
 10
284.9790257473619
 20
120.4489449030059
 42
0.0997580323407144
 10
285.7401773572052
 20
119.3463668824263
 42
0.0971462587932806
 10
286.8706649697321
 20
118.6152972541462
 42
0.0953768097733615
 10
288.2167421983235
 20
118.3561709470374
 42
0.0953768097733595
 10
289.5628194269148
 20
118.6152972541462
 42
0.0971462587932749
 10
290.6933070394419
 20
119.3463668824263
 42
0.0997580323407205
 10
291.4544586492851
 20
120.4489449030059
 42
0.1016867883754906
 10
291.7191337847293
 20
121.736911339049
 42
0.1016867883754799
 10
291.4544586492851
 20
123.0248777750922
 42
0.0997580323407117
 10
290.6933070394419
 20
124.1274557956719
 42
0.0971462587932775
 10
289.5628194269148
 20
124.858525423952
 42
0.0953768097733532
  0
LWPOLYLINE
  5
4F6
330
1E
100
AcDbEntity
  8
PEF-L25A
100
AcDbPolyline
 90
       11
 70
     0
 43
0.0
 10
284.7471057199788
 20
121.2755113348989
 42
0.034117495830383
 10
284.7167421983235
 20
120.8310446811903
 42
0.1016242789414788
 10
284.9812746216168
 20
119.5429643671787
 42
0.0997343366565516
 10
285.7418684641706
 20
118.4405002245675
 42
0.0971729588102004
 10
286.8716934171684
 20
117.7093968872328
 42
0.0954362277442096
 10
288.2167421983235
 20
117.4503042891785
 42
0.0954362277442159
 10
289.5617909794787
 20
117.7093968872328
 42
0.0971729588101977
 10
290.6916159324763
 20
118.4405002245675
 42
0.0997343366565495
 10
291.4522097750303
 20
119.5429643671789
 42
0.1016242789414555
 10
291.7167421983235
 20
120.8310446811903
 42
0.0341174958303838
 10
291.6863786766681
 20
121.2755113348989
 42
0.099734336656568
  0
LWPOLYLINE
  5
503
330
1E
100
AcDbEntity
  8
PEF-L25A
100
AcDbPolyline
 90
        4
 70
     0
 43
0.0
 10
290.3224046310262
 20
121.6163208616004
 10
289.4667421983235
 20
123.0983716691693
 10
286.9667421983235
 20
123.0983716691693
 10
286.1110797656209
 20
121.6163208616004
  0
LWPOLYLINE
  5
509
330
1E
100
AcDbEntity
  8
PEF-L25A
100
AcDbPolyline
 90
        6
 70
     1
 43
0.0
 10
290.4667421983235
 20
121.8663208616004
 10
289.4667421983235
 20
123.5983716691692
 10
286.9667421983235
 20
123.5983716691692
 10
285.9667421983235
 20
121.8663208616004
 10
286.9667421983235
 20
120.1342700540315
 10
289.4667421983235
 20
120.1342700540315
  0
LINE
  5
511
330
1E
100
AcDbEntity
  8
PEF-L25A
100
AcDbLine
 10
298.9167421983235
 20
112.5981456572267
 30
0.0
 11
298.9167421983235
 21
120.1981456572266
 31
0.0
  0
LINE
  5
512
330
1E
100
AcDbEntity
  8
PEF-L25A
100
AcDbLine
 10
302.4167421983236
 20
119.8981456572266
 30
0.0
 11
302.4167421983236
 21
112.8981456572266
 31
0.0
  0
LINE
  5
513
330
1E
100
AcDbEntity
  8
PEF-L25A
100
AcDbLine
 10
302.9167421983235
 20
113.3981456572267
 30
0.0
 11
302.9167421983236
 21
119.3981456572266
 31
0.0
  0
LINE
  5
514
330
1E
100
AcDbEntity
  8
PEF-L25A
100
AcDbLine
 10
298.9167421983235
 20
112.8981456572266
 30
0.0
 11
302.4167421983236
 21
112.8981456572266
 31
0.0
  0
LINE
  5
515
330
1E
100
AcDbEntity
  8
PEF-L25A
100
AcDbLine
 10
299.4167421983236
 20
112.8981456572266
 30
0.0
 11
299.4167421983236
 21
102.7764571353075
 31
0.0
  0
LINE
  5
516
330
1E
100
AcDbEntity
  8
PEF-L25A
100
AcDbLine
 10
297.9167421983234
 20
108.3981456572266
 30
0.0
 11
297.9167421983234
 21
102.7764571353075
 31
0.0
  0
LINE
  5
517
330
1E
100
AcDbEntity
  8
PEF-L25A
100
AcDbLine
 10
294.2167421983235
 20
107.3981456572266
 30
0.0
 11
296.7167421983235
 21
107.3981456572266
 31
0.0
  0
ARC
  5
518
330
1E
100
AcDbEntity
  8
PEF-L25A
100
AcDbCircle
 10
299.9167421983236
 20
102.7764571353075
 30
0.0
 40
0.5
100
AcDbArc
 50
180.0000000000001
 51
270.0
  0
LINE
  5
519
330
1E
100
AcDbEntity
  8
PEF-L25A
100
AcDbLine
 10
298.9167421983235
 20
112.5981456572267
 30
0.0
 11
297.9167421983234
 21
112.5981456572267
 31
0.0
  0
LINE
  5
51A
330
1E
100
AcDbEntity
  8
PEF-L25A
100
AcDbLine
 10
296.7167421983235
 20
108.3981456572266
 30
0.0
 11
297.9167421983234
 21
108.3981456572266
 31
0.0
  0
LINE
  5
51B
330
1E
100
AcDbEntity
  8
PEF-L25A
100
AcDbLine
 10
308.2167421983236
 20
106.7764571353075
 30
0.0
 11
301.2167421983235
 21
106.7764571353075
 31
0.0
  0
LINE
  5
51C
330
1E
100
AcDbEntity
  8
PEF-L25A
100
AcDbLine
 10
301.7167421983235
 20
107.2764571353075
 30
0.0
 11
307.7167421983235
 21
107.2764571353075
 31
0.0
  0
LINE
  5
51D
330
1E
100
AcDbEntity
  8
PEF-L25A
100
AcDbLine
 10
300.9167421983235
 20
103.2764571353075
 30
0.0
 11
300.9167421983235
 21
102.2764571353075
 31
0.0
  0
LINE
  5
51E
330
1E
100
AcDbEntity
  8
PEF-L25A
100
AcDbLine
 10
301.2167421983235
 20
106.7764571353075
 30
0.0
 11
301.7167421983235
 21
107.2764571353075
 31
0.0
  0
LINE
  5
51F
330
1E
100
AcDbEntity
  8
PEF-L25A
100
AcDbLine
 10
301.2167421983235
 20
103.2764571353075
 30
0.0
 11
301.2167421983235
 21
106.7764571353075
 31
0.0
  0
LINE
  5
520
330
1E
100
AcDbEntity
  8
PEF-L25A
100
AcDbLine
 10
308.2167421983236
 20
106.7764571353075
 30
0.0
 11
308.2167421983236
 21
103.2764571353075
 31
0.0
  0
LINE
  5
521
330
1E
100
AcDbEntity
  8
PEF-L25A
100
AcDbLine
 10
307.7167421983235
 20
107.2764571353075
 30
0.0
 11
308.2167421983236
 21
106.7764571353075
 31
0.0
  0
LINE
  5
522
330
1E
100
AcDbEntity
  8
PEF-L25A
100
AcDbLine
 10
302.4167421983236
 20
112.8981456572266
 30
0.0
 11
302.9167421983235
 21
113.3981456572267
 31
0.0
  0
LINE
  5
523
330
1E
100
AcDbEntity
  8
PEF-L25A
100
AcDbLine
 10
302.4167421983236
 20
119.8981456572266
 30
0.0
 11
298.9167421983236
 21
119.8981456572266
 31
0.0
  0
LINE
  5
524
330
1E
100
AcDbEntity
  8
PEF-L25A
  6
CENTER
100
AcDbLine
 10
307.0
 20
116.3981456572267
 30
0.0
 11
295.5
 21
116.3981456572267
 31
0.0
  0
LINE
  5
525
330
1E
100
AcDbEntity
  8
PEF-L25A
100
AcDbLine
 10
294.2167421983235
 20
115.2420470463975
 30
0.0
 11
294.2167421983236
 21
124.9188918543886
 31
0.0
  0
LINE
  5
526
330
1E
100
AcDbEntity
  8
PEF-L25A
100
AcDbLine
 10
299.4167421983235
 20
123.5
 30
0.0
 11
299.4167421983235
 21
119.8981456572266
 31
0.0
  0
LINE
  5
527
330
1E
100
AcDbEntity
  8
PEF-L25A
100
AcDbLine
 10
297.9167421983236
 20
120.1981456572266
 30
0.0
 11
298.9167421983235
 21
120.1981456572266
 31
0.0
  0
LINE
  5
528
330
1E
100
AcDbEntity
  8
PEF-L25A
100
AcDbLine
 10
297.9167421983234
 20
123.5
 30
0.0
 11
299.4167421983235
 21
123.5
 31
0.0
  0
LINE
  5
529
330
1E
100
AcDbEntity
  8
PEF-L25A
100
AcDbLine
 10
302.9167421983236
 20
119.3981456572266
 30
0.0
 11
302.4167421983236
 21
119.8981456572266
 31
0.0
  0
LINE
  5
52A
330
1E
100
AcDbEntity
  8
PEF-L25A
100
AcDbLine
 10
282.7167421983235
 20
128.3981456572266
 30
0.0
 11
297.9167421983234
 21
128.3981456572266
 31
0.0
  0
LINE
  5
52B
330
1E
100
AcDbEntity
  8
PEF-L25A
100
AcDbLine
 10
282.7167421983235
 20
147.716662183008
 30
0.0
 11
297.9167421983234
 21
147.716662183008
 31
0.0
  0
LINE
  5
52C
330
1E
100
AcDbEntity
  8
PEF-L25A
100
AcDbLine
 10
282.7167421983235
 20
128.3981456572267
 30
0.0
 11
282.7167421983235
 21
147.716662183008
 31
0.0
  0
LINE
  5
52D
330
1E
100
AcDbEntity
  8
PEF-L25A
100
AcDbLine
 10
281.7167421983235
 20
147.716662183008
 30
0.0
 11
281.7167421983235
 21
128.3981456572267
 31
0.0
  0
ARC
  5
52E
330
1E
100
AcDbEntity
  8
PEF-L25A
100
AcDbCircle
 10
296.7167421983235
 20
128.3981456572266
 30
0.0
 40
2.0
100
AcDbArc
 50
180.0
 51
269.9999999999992
  0
LINE
  5
52F
330
1E
100
AcDbEntity
  8
PEF-L25A
100
AcDbLine
 10
296.7167421983235
 20
126.3981456572266
 30
0.0
 11
296.7167421983235
 21
128.3981456572266
 31
0.0
  0
LINE
  5
530
330
1E
100
AcDbEntity
  8
PEF-L25A
100
AcDbLine
 10
322.9260445402798
 20
132.3309413160604
 30
0.0
 11
331.4351332519665
 21
117.5470566639319
 31
0.0
  0
LINE
  5
531
330
1E
100
AcDbEntity
  8
PEF-L25A
100
AcDbLine
 10
328.6007511780888
 20
135.3333111413403
 30
0.0
 11
337.0
 21
120.75
 31
0.0
  0
LINE
  5
532
330
1E
100
AcDbEntity
  8
PEF-L25A
100
AcDbLine
 10
308.5167421983236
 20
102.2764571353075
 30
0.0
 11
308.5167421983235
 21
103.2764571353075
 31
0.0
  0
LINE
  5
533
330
1E
100
AcDbEntity
  8
PEF-L25A
100
AcDbLine
 10
332.1097164939021
 20
117.9353232653101
 30
0.0
 11
336.9183214068228
 21
102.2661552821035
 31
0.0
  0
LINE
  5
534
330
1E
100
AcDbEntity
  8
PEF-L25A
100
AcDbLine
 10
334.2175666259833
 20
119.148528331966
 30
0.0
 11
339.205500786717
 21
102.8950037299125
 31
0.0
  0
LINE
  5
535
330
1E
100
AcDbEntity
  8
PEF-L25A
100
AcDbLine
 10
337.0
 20
120.75
 30
0.0
 11
331.4351332519665
 21
117.5470566639319
 31
0.0
  0
LWPOLYLINE
  5
536
330
1E
100
AcDbEntity
  8
PEF-L25A
100
AcDbPolyline
 90
       31
 70
     0
 43
0.0
 10
322.4838673564025
 20
133.0991900326669
 10
322.8107938708561
 20
133.4436285547313
 10
323.1516769439465
 20
133.72748688253
 10
323.4499489226288
 20
133.909795047299
 10
323.7099603495491
 20
134.0137643943091
 10
323.9360617673529
 20
134.0626062688315
 10
324.1326037186861
 20
134.079532016137
 10
324.3039367461944
 20
134.0877529814962
 10
324.4544113925237
 20
134.1104805101803
 10
324.5883900669558
 20
134.165616775292
 10
324.710282645319
 20
134.2498272612622
 10
324.8245108700773
 20
134.3544682803532
 10
324.9354964836951
 20
134.4708961448278
 10
325.0476612286366
 20
134.5904671669486
 10
325.1654268473664
 20
134.7045376589782
 10
325.2932150823486
 20
134.8044639331795
 10
325.4354476760474
 20
134.8816023018146
 10
325.5948759350445
 20
134.9302557890188
 10
325.7675694223892
 20
134.9565142664155
 10
325.9479272652487
 20
134.9694143175004
 10
326.1303485907899
 20
134.977992525769
 10
326.3092325261796
 20
134.9912854747173
 10
326.4789781985845
 20
135.0183297478409
 10
326.6339847351715
 20
135.0681619286355
 10
326.7686512631076
 20
135.1498186005969
 10
326.8846482155698
 20
135.269193188171
 10
327.0127312497766
 20
135.4196064796056
 10
327.1909273289565
 20
135.5912361040983
 10
327.4572634163384
 20
135.774259690847
 10
327.8497664751507
 20
135.9588548690497
 10
328.1801868028283
 20
136.0635218148694
  0
LWPOLYLINE
  5
557
330
1E
100
AcDbEntity
  8
PEF-L25A
100
AcDbPolyline
 90
       31
 70
     0
 43
0.0
 10
322.9260445402798
 20
132.3309413160604
 10
323.3138892504238
 20
132.7395611521597
 10
323.6547723235143
 20
133.0234194799583
 10
323.9530443021966
 20
133.2057276447273
 10
324.213055729117
 20
133.3096969917375
 10
324.4391571469208
 20
133.3585388662599
 10
324.635699098254
 20
133.3754646135653
 10
324.8070321257622
 20
133.3836855789245
 10
324.9575067720913
 20
133.4064131076087
 10
325.0914854465236
 20
133.4615493727205
 10
325.2133780248867
 20
133.5457598586905
 10
325.3276062496449
 20
133.6504008777815
 10
325.4385918632628
 20
133.7668287422562
 10
325.5507566082044
 20
133.8863997643769
 10
325.6685222269342
 20
134.0004702564066
 10
325.7963104619164
 20
134.1003965306077
 10
325.9385430556152
 20
134.177534899243
 10
326.0979713146122
 20
134.2261883864471
 10
326.270664801957
 20
134.2524468638438
 10
326.4510226448166
 20
134.2653469149287
 10
326.6334439703578
 20
134.2739251231973
 10
326.8123279057474
 20
134.2872180721456
 10
326.9820735781522
 20
134.3142623452692
 10
327.1370801147393
 20
134.3640945260639
 10
327.2717466426753
 20
134.4457511980253
 10
327.3877435951376
 20
134.5651257855994
 10
327.5158266293443
 20
134.715539077034
 10
327.6940227085243
 20
134.8871687015266
 10
327.9603587959062
 20
135.0701922882755
 10
328.3528618547186
 20
135.2547874664782
 10
328.6007511780886
 20
135.3333111413403
  0
ARC
  5
57B
330
1E
100
AcDbEntity
  8
PEF-L25A
100
AcDbCircle
 10
356.3428563278573
 20
102.2868449908113
 30
0.0
 40
1.381249999999999
100
AcDbArc
 50
54.58717536300407
 51
223.6819313873794
  0
ARC
  5
57C
330
1E
100
AcDbEntity
  8
PEF-L25A
100
AcDbCircle
 10
361.9106910692388
 20
108.1717919543734
 30
0.0
 40
10.25215341468211
100
AcDbArc
 50
211.4095610744011
 51
224.4860617618364
  0
LINE
  5
57D
330
1E
100
AcDbEntity
  8
PEF-L25A
100
AcDbLine
 10
343.6775983142581
 20
90.38289237337712
 30
0.0
 11
343.0574127539996
 21
92.63856403810594
 31
0.0
  0
LINE
  5
57E
330
1E
100
AcDbEntity
  8
PEF-L25A
100
AcDbLine
 10
342.4242198043704
 20
92.11249993318707
 30
0.0
 11
342.9544340947454
 21
90.18406201448653
 31
0.0
  0
LINE
  5
57F
330
1E
100
AcDbEntity
  8
PEF-L25A
100
AcDbLine
 10
342.9544340947454
 20
90.18406201448653
 30
0.0
 11
343.6775983142581
 21
90.38289237337712
 31
0.0
  0
ARC
  5
580
330
1E
100
AcDbEntity
  8
PEF-L25A
100
AcDbCircle
 10
333.4270633683156
 20
89.29314707826625
 30
0.0
 40
10.19487341390402
100
AcDbArc
 50
19.15634347585173
 51
32.26956796314182
  0
LINE
  5
581
330
1E
100
AcDbEntity
  8
PEF-L25A
100
AcDbLine
 10
342.0472930070766
 20
94.73622386447384
 30
0.0
 11
341.7421510607538
 21
95.29557227665801
 31
0.0
  0
LINE
  5
582
330
1E
100
AcDbEntity
  8
PEF-L25A
100
AcDbLine
 10
356.8564534408301
 20
100.0243088987134
 30
0.0
 11
355.343957068141
 21
101.3328786227259
 31
0.0
  0
LINE
  5
583
330
1E
100
AcDbEntity
  8
PEF-L25A
100
AcDbLine
 10
356.3657397943253
 20
99.45712275895495
 30
0.0
 11
354.59659017442
 21
100.9877417221859
 31
0.0
  0
LINE
  5
584
330
1E
100
AcDbEntity
  8
PEF-L25A
100
AcDbLine
 10
356.8564534408301
 20
100.0243088987134
 30
0.0
 11
356.3657397943253
 21
99.45712275895495
 31
0.0
  0
LINE
  5
586
330
1E
100
AcDbEntity
  8
PEF-L25A
100
AcDbLine
 10
357.1432404386582
 20
103.4125611351733
 30
0.0
 11
358.6557368113473
 21
102.1039914111609
 31
0.0
  0
LINE
  5
587
330
1E
100
AcDbEntity
  8
PEF-L25A
100
AcDbLine
 10
359.146450457852
 20
102.6711775509193
 30
0.0
 11
357.3773008379466
 21
104.2017965141505
 31
0.0
  0
LINE
  5
589
330
1E
100
AcDbEntity
  8
PEF-L25A
100
AcDbLine
 10
349.1261619887864
 20
111.3404519725022
 30
0.0
 11
355.176147479543
 21
106.1061730764522
 31
0.0
  0
LINE
  5
58A
330
1E
100
AcDbEntity
  8
PEF-L25A
100
AcDbLine
 10
352.3954368160163
 20
102.8921182844876
 30
0.0
 11
346.3454513252597
 21
108.1263971805376
 31
0.0
  0
LINE
  5
58B
330
1E
100
AcDbEntity
  8
PEF-L25A
100
AcDbLine
 10
346.3454513252597
 20
108.1263971805376
 30
0.0
 11
349.1261619887864
 21
111.3404519725022
 31
0.0
  0
LINE
  5
58E
330
1E
100
AcDbEntity
  8
PEF-L25A
100
AcDbLine
 10
355.176147479543
 20
106.1061730764522
 30
0.0
 11
352.3954368160163
 21
102.8921182844876
 31
0.0
  0
LINE
  5
58F
330
1E
100
AcDbEntity
  8
PEF-L25A
100
AcDbLine
 10
353.1608488132956
 20
102.8288610981586
 30
0.0
 11
352.7872852324885
 21
103.345032101522
 31
0.0
  0
LINE
  5
590
330
1E
100
AcDbEntity
  8
PEF-L25A
100
AcDbLine
 10
355.3717877047768
 20
105.3843512583229
 30
0.0
 11
354.8072561834071
 21
105.6797940023504
 31
0.0
  0
ARC
  5
591
330
1E
100
AcDbEntity
  8
PEF-L25A
100
AcDbCircle
 10
351.2301665848663
 20
96.06864310356424
 30
0.0
 40
10.19487341390402
100
AcDbArc
 50
52.91757737356528
 51
66.03080186085533
  0
LINE
  5
592
330
1E
100
AcDbEntity
  8
PEF-L25A
100
AcDbLine
 10
358.6557368113473
 20
102.1039914111609
 30
0.0
 11
359.146450457852
 21
102.6711775509193
 31
0.0
  0
LWPOLYLINE
  5
594
330
1E
100
AcDbEntity
  8
PEF-L25A
100
AcDbPolyline
 90
        4
 70
     0
 43
0.0
 10
278.322404631026
 20
154.6648541915108
 10
277.4667421983235
 20
156.1469049990795
 10
274.9667421983235
 20
156.1469049990795
 10
274.1110797656209
 20
154.6648541915108
  0
LWPOLYLINE
  5
59A
330
1E
100
AcDbEntity
  8
PEF-L25A
100
AcDbPolyline
 90
        4
 70
     0
 43
0.0
 10
278.322404631026
 20
175.9152223698702
 10
277.4667421983235
 20
177.397273177439
 10
274.9667421983235
 20
177.397273177439
 10
274.1110797656209
 20
175.9152223698702
  0
LWPOLYLINE
  5
5A0
330
1E
100
AcDbEntity
  8
PEF-L25A
100
AcDbPolyline
 90
       13
 70
     0
 43
0.0
 10
272.7824568456989
 20
176.6993224289404
 42
0.0127730663014319
 10
272.7039488293276
 20
176.5284333875298
 42
0.1016242789414674
 10
272.4167421983235
 20
175.1299461894601
 42
0.1016242789414735
 10
272.7039488293276
 20
173.7314589913906
 42
0.0997343366565623
 10
273.5297364298145
 20
172.5344979222696
 42
0.0971729588102134
 10
274.7564035216407
 20
171.740728584592
 42
0.0954362277442158
 10
276.2167421983235
 20
171.4594280495616
 42
0.0954362277442121
 10
277.6770808750064
 20
171.740728584592
 42
0.0971729588102025
 10
278.9037479668325
 20
172.5344979222696
 42
0.0997343366565488
 10
279.7295355673194
 20
173.7314589913906
 42
0.1016242789414615
 10
280.0167421983235
 20
175.1299461894601
 42
0.1016242789414694
 10
279.7295355673194
 20
176.5284333875298
 42
0.0127730663014316
 10
279.6510275509481
 20
176.6993224289404
 42
0.0971729588102126
  0
LWPOLYLINE
  5
5AF
330
1E
100
AcDbEntity
  8
PEF-L25A
100
AcDbPolyline
 90
        6
 70
     1
 43
0.0
 10
278.4667421983235
 20
176.1652223698702
 10
277.4667421983235
 20
177.897273177439
 10
274.9667421983235
 20
177.897273177439
 10
273.9667421983235
 20
176.1652223698702
 10
274.9667421983235
 20
174.4331715623014
 10
277.4667421983235
 20
174.4331715623014
  0
LWPOLYLINE
  5
5B7
330
1E
100
AcDbEntity
  8
PEF-L25A
100
AcDbPolyline
 90
       16
 70
     1
 43
0.0
 10
276.2167421983235
 20
179.4165532393306
 42
0.0953768097733595
 10
274.8706649697321
 20
179.1574269322219
 42
0.0971462587932747
 10
273.7401773572051
 20
178.4263573039416
 42
0.0997580323407118
 10
272.9790257473619
 20
177.323779283362
 42
0.1016867883754799
 10
272.7143506119176
 20
176.0358128473189
 42
0.1016867883754884
 10
272.9790257473619
 20
174.7478464112758
 42
0.0997580323407144
 10
273.7401773572051
 20
173.6452683906961
 42
0.0971462587932806
 10
274.8706649697321
 20
172.914198762416
 42
0.0953768097733615
 10
276.2167421983235
 20
172.6550724553072
 42
0.0953768097733595
 10
277.5628194269148
 20
172.914198762416
 42
0.0971462587932749
 10
278.6933070394419
 20
173.6452683906961
 42
0.0997580323407205
 10
279.454458649285
 20
174.7478464112758
 42
0.1016867883754906
 10
279.7191337847294
 20
176.0358128473189
 42
0.1016867883754799
 10
279.454458649285
 20
177.323779283362
 42
0.0997580323407117
 10
278.6933070394419
 20
178.4263573039416
 42
0.0971462587932775
 10
277.5628194269148
 20
179.1574269322219
 42
0.0953768097733532
  0
LWPOLYLINE
  5
5C9
330
1E
100
AcDbEntity
  8
PEF-L25A
100
AcDbPolyline
 90
       11
 70
     0
 43
0.0
 10
272.747105719979
 20
175.5744128431688
 42
0.034117495830383
 10
272.7167421983235
 20
175.1299461894601
 42
0.1016242789414788
 10
272.9812746216168
 20
173.8418658754486
 42
0.0997343366565516
 10
273.7418684641706
 20
172.7394017328374
 42
0.0971729588102004
 10
274.8716934171683
 20
172.0082983955026
 42
0.0954362277442096
 10
276.2167421983235
 20
171.7492057974484
 42
0.0954362277442159
 10
277.5617909794787
 20
172.0082983955026
 42
0.0971729588101977
 10
278.6916159324764
 20
172.7394017328374
 42
0.0997343366565495
 10
279.4522097750304
 20
173.8418658754488
 42
0.1016242789414555
 10
279.7167421983235
 20
175.1299461894601
 42
0.0341174958303838
 10
279.686378676668
 20
175.5744128431688
 42
0.099734336656568
  0
LWPOLYLINE
  5
5D6
330
1E
100
AcDbEntity
  8
PEF-L25A
100
AcDbPolyline
 90
       11
 70
     0
 43
0.0
 10
272.747105719979
 20
154.3240446648092
 42
0.034117495830383
 10
272.7167421983235
 20
153.8795780111007
 42
0.1016242789414788
 10
272.9812746216168
 20
152.5914976970891
 42
0.0997343366565516
 10
273.7418684641706
 20
151.4890335544779
 42
0.0971729588102004
 10
274.8716934171683
 20
150.7579302171431
 42
0.0954362277442096
 10
276.2167421983235
 20
150.4988376190889
 42
0.0954362277442159
 10
277.5617909794787
 20
150.7579302171431
 42
0.0971729588101977
 10
278.6916159324764
 20
151.4890335544779
 42
0.0997343366565495
 10
279.4522097750304
 20
152.5914976970893
 42
0.1016242789414555
 10
279.7167421983235
 20
153.8795780111007
 42
0.0341174958303838
 10
279.686378676668
 20
154.3240446648091
 42
0.099734336656568
  0
LINE
  5
5E3
330
1E
100
AcDbEntity
  8
PEF-L25A
100
AcDbLine
 10
270.2167421983235
 20
149.2740927476974
 30
0.0
 11
294.2167421983235
 21
149.2740927476974
 31
0.0
  0
LINE
  5
5E4
330
1E
100
AcDbEntity
  8
PEF-L25A
100
AcDbLine
 10
270.2167421983235
 20
169.5409485546673
 30
0.0
 11
294.2167421983235
 21
169.5409485546673
 31
0.0
  0
LINE
  5
5E5
330
1E
100
AcDbEntity
  8
PEF-L25A
100
AcDbLine
 10
270.2167421983235
 20
170.5244609260568
 30
0.0
 11
294.2167421983235
 21
170.5244609260568
 31
0.0
  0
LWPOLYLINE
  5
5E6
330
1E
100
AcDbEntity
  8
PEF-L25A
100
AcDbPolyline
 90
       16
 70
     1
 43
0.0
 10
276.2167421983235
 20
158.1661850609711
 42
0.0953768097733595
 10
274.8706649697321
 20
157.9070587538623
 42
0.0971462587932747
 10
273.7401773572051
 20
157.1759891255821
 42
0.0997580323407118
 10
272.9790257473619
 20
156.0734111050026
 42
0.1016867883754799
 10
272.7143506119176
 20
154.7854446689595
 42
0.1016867883754884
 10
272.9790257473619
 20
153.4974782329164
 42
0.0997580323407144
 10
273.7401773572051
 20
152.3949002123367
 42
0.0971462587932806
 10
274.8706649697321
 20
151.6638305840564
 42
0.0953768097733615
 10
276.2167421983235
 20
151.4047042769476
 42
0.0953768097733595
 10
277.5628194269148
 20
151.6638305840564
 42
0.0971462587932749
 10
278.6933070394419
 20
152.3949002123367
 42
0.0997580323407205
 10
279.454458649285
 20
153.4974782329164
 42
0.1016867883754906
 10
279.7191337847294
 20
154.7854446689595
 42
0.1016867883754799
 10
279.454458649285
 20
156.0734111050026
 42
0.0997580323407117
 10
278.6933070394419
 20
157.1759891255821
 42
0.0971462587932775
 10
277.5628194269148
 20
157.9070587538623
 42
0.0953768097733532
  0
LWPOLYLINE
  5
5F8
330
1E
100
AcDbEntity
  8
PEF-L25A
100
AcDbPolyline
 90
        6
 70
     1
 43
0.0
 10
278.4667421983235
 20
154.9148541915108
 10
277.4667421983235
 20
156.6469049990796
 10
274.9667421983235
 20
156.6469049990796
 10
273.9667421983235
 20
154.9148541915108
 10
274.9667421983235
 20
153.1828033839419
 10
277.4667421983235
 20
153.1828033839419
  0
LWPOLYLINE
  5
600
330
1E
100
AcDbEntity
  8
PEF-L25A
100
AcDbPolyline
 90
       13
 70
     0
 43
0.0
 10
272.7824568456989
 20
155.4489542505808
 42
0.0127730663014319
 10
272.7039488293276
 20
155.2780652091703
 42
0.1016242789414674
 10
272.4167421983235
 20
153.8795780111007
 42
0.1016242789414735
 10
272.7039488293276
 20
152.481090813031
 42
0.0997343366565623
 10
273.5297364298145
 20
151.2841297439101
 42
0.0971729588102134
 10
274.7564035216407
 20
150.4903604062325
 42
0.0954362277442158
 10
276.2167421983235
 20
150.2090598712021
 42
0.0954362277442121
 10
277.6770808750064
 20
150.4903604062325
 42
0.0971729588102025
 10
278.9037479668325
 20
151.2841297439101
 42
0.0997343366565488
 10
279.7295355673194
 20
152.481090813031
 42
0.1016242789414615
 10
280.0167421983235
 20
153.8795780111007
 42
0.1016242789414694
 10
279.7295355673194
 20
155.2780652091703
 42
0.0127730663014316
 10
279.6510275509481
 20
155.4489542505808
 42
0.0971729588102126
  0
LINE
  5
60F
330
1E
100
AcDbEntity
  8
PEF-L25A
100
AcDbLine
 10
268.7167421983235
 20
180.8805595368861
 30
0.0
 11
295.7167421983235
 21
180.8805595368861
 31
0.0
  0
LINE
  5
611
330
1E
100
AcDbEntity
  8
PEF-L25A
100
AcDbLine
 10
270.2167421983235
 20
169.5409485546673
 30
0.0
 11
270.2167421983235
 21
179.2177933626585
 31
0.0
  0
LINE
  5
612
330
1E
100
AcDbEntity
  8
PEF-L25A
100
AcDbLine
 10
268.7167421983235
 20
166.880559536886
 30
0.0
 11
268.7167421983235
 21
180.8805595368861
 31
0.0
  0
LINE
  5
613
330
1E
100
AcDbEntity
  8
PEF-L25A
100
AcDbLine
 10
264.5167421983235
 20
151.25
 30
0.0
 11
264.5167421983235
 21
163.5462913144533
 31
0.0
  0
LINE
  5
614
330
1E
100
AcDbEntity
  8
PEF-L25A
100
AcDbLine
 10
270.2167421983235
 20
169.5409485546673
 30
0.0
 11
270.2167421983235
 21
157.9674251842988
 31
0.0
  0
ARC
  5
615
330
1E
100
AcDbEntity
  8
PEF-L25A
100
AcDbCircle
 10
266.5167421983235
 20
151.25
 30
0.0
 40
2.0
100
AcDbArc
 50
180.0
 51
270.0
  0
LINE
  5
616
330
1E
100
AcDbEntity
  8
PEF-L25A
100
AcDbLine
 10
270.2167421983235
 20
157.9674251842988
 30
0.0
 11
275.0327599442945
 21
157.9674251842988
 31
0.0
  0
ARC
  5
617
330
1E
100
AcDbEntity
  8
PEF-L25A
100
AcDbCircle
 10
271.7167421983235
 20
155.3981456572266
 30
0.0
 40
2.0
100
AcDbArc
 50
138.590377890729
 51
180.0
  0
ARC
  5
618
330
1E
100
AcDbEntity
  8
PEF-L25A
100
AcDbCircle
 10
266.5167421983235
 20
163.5462913144533
 30
0.0
 40
2.0
100
AcDbArc
 50
90.0
 51
180.0
  0
LINE
  5
619
330
1E
100
AcDbEntity
  8
PEF-L25A
100
AcDbLine
 10
268.7167421983235
 20
166.880559536886
 30
0.0
 11
270.2167421983235
 21
166.880559536886
 31
0.0
  0
LINE
  5
61A
330
1E
100
AcDbEntity
  8
PEF-L25A
100
AcDbLine
 10
266.5167421983235
 20
175.3981456572265
 30
0.0
 11
267.7167421983235
 21
175.3981456572266
 31
0.0
  0
LINE
  5
61B
330
1E
100
AcDbEntity
  8
PEF-L25A
100
AcDbLine
 10
270.2167421983235
 20
179.2177933626585
 30
0.0
 11
275.0327599442945
 21
179.2177933626585
 31
0.0
  0
ARC
  5
61E
330
1E
100
AcDbEntity
  8
PEF-L25A
  6
CENTER
100
AcDbCircle
 10
304.9838938329051
 20
144.8981456572265
 30
0.0
 40
12.5
100
AcDbArc
 50
29.9104158550989
 51
90.0
  0
ARC
  5
61F
330
1E
100
AcDbEntity
  8
PEF-L25A
100
AcDbCircle
 10
305.5792296303591
 20
145.25
 30
0.0
 40
15.0
100
AcDbArc
 50
29.93976414918084
 51
90.0
  0
ARC
  5
620
330
1E
100
AcDbEntity
  8
PEF-L25A
100
AcDbCircle
 10
304.3572247294445
 20
144.5462913144533
 30
0.0
 40
10.0
100
AcDbArc
 50
29.92323063795868
 51
90.0
  0
LWPOLYLINE
  5
621
330
1E
100
AcDbEntity
  8
PEF-L25A
100
AcDbPolyline
 90
       13
 70
     0
 43
0.0
 10
284.7824568456989
 20
176.6993224289404
 42
0.0127730663014319
 10
284.7039488293276
 20
176.5284333875298
 42
0.1016242789414674
 10
284.4167421983235
 20
175.1299461894601
 42
0.1016242789414735
 10
284.7039488293276
 20
173.7314589913906
 42
0.0997343366565623
 10
285.5297364298146
 20
172.5344979222696
 42
0.0971729588102134
 10
286.7564035216407
 20
171.740728584592
 42
0.0954362277442158
 10
288.2167421983235
 20
171.4594280495616
 42
0.0954362277442121
 10
289.6770808750063
 20
171.740728584592
 42
0.0971729588102025
 10
290.9037479668325
 20
172.5344979222696
 42
0.0997343366565488
 10
291.7295355673195
 20
173.7314589913906
 42
0.1016242789414615
 10
292.0167421983236
 20
175.1299461894601
 42
0.1016242789414694
 10
291.7295355673195
 20
176.5284333875298
 42
0.0127730663014316
 10
291.6510275509482
 20
176.6993224289404
 42
0.0971729588102126
  0
LWPOLYLINE
  5
630
330
1E
100
AcDbEntity
  8
PEF-L25A
100
AcDbPolyline
 90
       11
 70
     0
 43
0.0
 10
284.7471057199788
 20
175.5744128431688
 42
0.034117495830383
 10
284.7167421983235
 20
175.1299461894601
 42
0.1016242789414788
 10
284.9812746216168
 20
173.8418658754486
 42
0.0997343366565516
 10
285.7418684641706
 20
172.7394017328374
 42
0.0971729588102004
 10
286.8716934171684
 20
172.0082983955026
 42
0.0954362277442096
 10
288.2167421983235
 20
171.7492057974484
 42
0.0954362277442159
 10
289.5617909794787
 20
172.0082983955026
 42
0.0971729588101977
 10
290.6916159324763
 20
172.7394017328374
 42
0.0997343366565495
 10
291.4522097750303
 20
173.8418658754488
 42
0.1016242789414555
 10
291.7167421983235
 20
175.1299461894601
 42
0.0341174958303838
 10
291.6863786766681
 20
175.5744128431688
 42
0.099734336656568
  0
LINE
  5
63D
330
1E
100
AcDbEntity
  8
PEF-L25A
100
AcDbLine
 10
294.2167421983235
 20
169.5409485546673
 30
0.0
 11
294.2167421983236
 21
179.2177933626585
 31
0.0
  0
LINE
  5
63E
330
1E
100
AcDbEntity
  8
PEF-L25A
100
AcDbLine
 10
295.7167421983235
 20
166.880559536886
 30
0.0
 11
295.7167421983235
 21
180.8805595368861
 31
0.0
  0
LINE
  5
63F
330
1E
100
AcDbEntity
  8
PEF-L25A
100
AcDbLine
 10
289.4007244523523
 20
157.9674251842988
 30
0.0
 11
294.2167421983235
 21
157.9674251842988
 31
0.0
  0
LWPOLYLINE
  5
640
330
1E
100
AcDbEntity
  8
PEF-L25A
100
AcDbPolyline
 90
       13
 70
     0
 43
0.0
 10
284.7824568456989
 20
155.4489542505808
 42
0.0127730663014319
 10
284.7039488293276
 20
155.2780652091703
 42
0.1016242789414674
 10
284.4167421983235
 20
153.8795780111007
 42
0.1016242789414735
 10
284.7039488293276
 20
152.481090813031
 42
0.0997343366565623
 10
285.5297364298146
 20
151.2841297439101
 42
0.0971729588102134
 10
286.7564035216407
 20
150.4903604062325
 42
0.0954362277442158
 10
288.2167421983235
 20
150.2090598712021
 42
0.0954362277442121
 10
289.6770808750063
 20
150.4903604062325
 42
0.0971729588102025
 10
290.9037479668325
 20
151.2841297439101
 42
0.0997343366565488
 10
291.7295355673195
 20
152.481090813031
 42
0.1016242789414615
 10
292.0167421983236
 20
153.8795780111007
 42
0.1016242789414694
 10
291.7295355673195
 20
155.2780652091703
 42
0.0127730663014316
 10
291.6510275509482
 20
155.4489542505808
 42
0.0971729588102126
  0
LINE
  5
64F
330
1E
100
AcDbEntity
  8
PEF-L25A
100
AcDbLine
 10
277.4007244523525
 20
157.9674251842988
 30
0.0
 11
287.0327599442946
 21
157.9674251842988
 31
0.0
  0
LWPOLYLINE
  5
650
330
1E
100
AcDbEntity
  8
PEF-L25A
100
AcDbPolyline
 90
       11
 70
     0
 43
0.0
 10
284.7471057199788
 20
154.3240446648092
 42
0.034117495830383
 10
284.7167421983235
 20
153.8795780111007
 42
0.1016242789414788
 10
284.9812746216168
 20
152.5914976970891
 42
0.0997343366565516
 10
285.7418684641706
 20
151.4890335544779
 42
0.0971729588102004
 10
286.8716934171684
 20
150.7579302171431
 42
0.0954362277442096
 10
288.2167421983235
 20
150.4988376190889
 42
0.0954362277442159
 10
289.5617909794787
 20
150.7579302171431
 42
0.0971729588101977
 10
290.6916159324763
 20
151.4890335544779
 42
0.0997343366565495
 10
291.4522097750303
 20
152.5914976970893
 42
0.1016242789414555
 10
291.7167421983235
 20
153.8795780111007
 42
0.0341174958303838
 10
291.6863786766681
 20
154.3240446648091
 42
0.099734336656568
  0
LWPOLYLINE
  5
65D
330
1E
100
AcDbEntity
  8
PEF-L25A
100
AcDbPolyline
 90
        6
 70
     1
 43
0.0
 10
290.4667421983235
 20
154.9148541915108
 10
289.4667421983235
 20
156.6469049990796
 10
286.9667421983235
 20
156.6469049990796
 10
285.9667421983235
 20
154.9148541915108
 10
286.9667421983235
 20
153.1828033839419
 10
289.4667421983235
 20
153.1828033839419
  0
LWPOLYLINE
  5
665
330
1E
100
AcDbEntity
  8
PEF-L25A
100
AcDbPolyline
 90
       16
 70
     1
 43
0.0
 10
288.2167421983235
 20
158.1661850609711
 42
0.0953768097733595
 10
286.8706649697321
 20
157.9070587538623
 42
0.0971462587932747
 10
285.7401773572052
 20
157.1759891255821
 42
0.0997580323407118
 10
284.9790257473619
 20
156.0734111050026
 42
0.1016867883754799
 10
284.7143506119176
 20
154.7854446689595
 42
0.1016867883754884
 10
284.9790257473619
 20
153.4974782329164
 42
0.0997580323407144
 10
285.7401773572052
 20
152.3949002123367
 42
0.0971462587932806
 10
286.8706649697321
 20
151.6638305840564
 42
0.0953768097733615
 10
288.2167421983235
 20
151.4047042769476
 42
0.0953768097733595
 10
289.5628194269148
 20
151.6638305840564
 42
0.0971462587932749
 10
290.6933070394419
 20
152.3949002123367
 42
0.0997580323407205
 10
291.4544586492851
 20
153.4974782329164
 42
0.1016867883754906
 10
291.7191337847293
 20
154.7854446689595
 42
0.1016867883754799
 10
291.4544586492851
 20
156.0734111050026
 42
0.0997580323407117
 10
290.6933070394419
 20
157.1759891255821
 42
0.0971462587932775
 10
289.5628194269148
 20
157.9070587538623
 42
0.0953768097733532
  0
LWPOLYLINE
  5
677
330
1E
100
AcDbEntity
  8
PEF-L25A
100
AcDbPolyline
 90
        4
 70
     0
 43
0.0
 10
290.3224046310261
 20
154.6648541915108
 10
289.4667421983235
 20
156.1469049990795
 10
286.9667421983235
 20
156.1469049990795
 10
286.1110797656209
 20
154.6648541915108
  0
LINE
  5
67D
330
1E
100
AcDbEntity
  8
PEF-L25A
100
AcDbLine
 10
299.9167421983234
 20
151.25
 30
0.0
 11
299.9167421983234
 21
163.5462913144533
 31
0.0
  0
LINE
  5
67E
330
1E
100
AcDbEntity
  8
PEF-L25A
100
AcDbLine
 10
294.2167421983235
 20
169.5409485546673
 30
0.0
 11
294.2167421983236
 21
157.9674251842989
 31
0.0
  0
LINE
  5
67F
330
1E
100
AcDbEntity
  8
PEF-L25A
100
AcDbLine
 10
299.9167421983234
 20
154.5462913144533
 30
0.0
 11
304.3572247294445
 21
154.5462913144533
 31
0.0
  0
ARC
  5
680
330
1E
100
AcDbEntity
  8
PEF-L25A
100
AcDbCircle
 10
297.9167421983234
 20
151.25
 30
0.0
 40
2.0
100
AcDbArc
 50
270.0
 51
0.0
  0
LINE
  5
681
330
1E
100
AcDbEntity
  8
PEF-L25A
  6
CENTER
100
AcDbLine
 10
304.9838938329051
 20
157.3981456572266
 30
0.0
 11
295.9144186716662
 21
157.3981456572266
 31
0.0
  0
ARC
  5
682
330
1E
100
AcDbEntity
  8
PEF-L25A
100
AcDbCircle
 10
292.7167421983235
 20
155.3981456572266
 30
0.0
 40
2.0
100
AcDbArc
 50
0.0
 51
41.40962210926867
  0
LINE
  5
683
330
1E
100
AcDbEntity
  8
PEF-L25A
100
AcDbLine
 10
299.9167421983234
 20
160.25
 30
0.0
 11
305.5792296303591
 21
160.25
 31
0.0
  0
ARC
  5
684
330
1E
100
AcDbEntity
  8
PEF-L25A
100
AcDbCircle
 10
297.9167421983234
 20
163.5462913144533
 30
0.0
 40
2.0
100
AcDbArc
 50
0.0
 51
90.0
  0
LINE
  5
685
330
1E
100
AcDbEntity
  8
PEF-L25A
100
AcDbLine
 10
294.2167421983235
 20
166.880559536886
 30
0.0
 11
295.7167421983235
 21
166.880559536886
 31
0.0
  0
LINE
  5
686
330
1E
100
AcDbEntity
  8
PEF-L25A
100
AcDbLine
 10
289.4007244523523
 20
179.2177933626585
 30
0.0
 11
294.2167421983235
 21
179.2177933626585
 31
0.0
  0
LINE
  5
687
330
1E
100
AcDbEntity
  8
PEF-L25A
100
AcDbLine
 10
277.4007244523525
 20
179.2177933626585
 30
0.0
 11
287.0327599442946
 21
179.2177933626585
 31
0.0
  0
LWPOLYLINE
  5
688
330
1E
100
AcDbEntity
  8
PEF-L25A
100
AcDbPolyline
 90
       16
 70
     1
 43
0.0
 10
288.2167421983235
 20
179.4165532393306
 42
0.0953768097733595
 10
286.8706649697321
 20
179.1574269322219
 42
0.0971462587932747
 10
285.7401773572052
 20
178.4263573039416
 42
0.0997580323407118
 10
284.9790257473619
 20
177.323779283362
 42
0.1016867883754799
 10
284.7143506119176
 20
176.0358128473189
 42
0.1016867883754884
 10
284.9790257473619
 20
174.7478464112758
 42
0.0997580323407144
 10
285.7401773572052
 20
173.6452683906961
 42
0.0971462587932806
 10
286.8706649697321
 20
172.914198762416
 42
0.0953768097733615
 10
288.2167421983235
 20
172.6550724553072
 42
0.0953768097733595
 10
289.5628194269148
 20
172.914198762416
 42
0.0971462587932749
 10
290.6933070394419
 20
173.6452683906961
 42
0.0997580323407205
 10
291.4544586492851
 20
174.7478464112758
 42
0.1016867883754906
 10
291.7191337847293
 20
176.0358128473189
 42
0.1016867883754799
 10
291.4544586492851
 20
177.323779283362
 42
0.0997580323407117
 10
290.6933070394419
 20
178.4263573039416
 42
0.0971462587932775
 10
289.5628194269148
 20
179.1574269322219
 42
0.0953768097733532
  0
LWPOLYLINE
  5
69A
330
1E
100
AcDbEntity
  8
PEF-L25A
100
AcDbPolyline
 90
        6
 70
     1
 43
0.0
 10
290.4667421983235
 20
176.1652223698702
 10
289.4667421983235
 20
177.897273177439
 10
286.9667421983235
 20
177.897273177439
 10
285.9667421983235
 20
176.1652223698702
 10
286.9667421983235
 20
174.4331715623014
 10
289.4667421983235
 20
174.4331715623014
  0
LWPOLYLINE
  5
6A2
330
1E
100
AcDbEntity
  8
PEF-L25A
100
AcDbPolyline
 90
        4
 70
     0
 43
0.0
 10
290.3224046310261
 20
175.9152223698702
 10
289.4667421983235
 20
177.397273177439
 10
286.9667421983235
 20
177.397273177439
 10
286.1110797656209
 20
175.9152223698702
  0
LINE
  5
6A8
330
1E
100
AcDbEntity
  8
PEF-L25A
100
AcDbLine
 10
296.7167421983235
 20
175.3981456572266
 30
0.0
 11
297.9167421983234
 21
175.3981456572265
 31
0.0
  0
LINE
  5
6AD
330
1E
100
AcDbEntity
  8
PEF-L25A
100
AcDbLine
 10
177.6056195614154
 20
92.75356183896269
 30
0.0
 11
177.7867928929871
 21
92.07741376056036
 31
0.0
  0
LINE
  5
9B9
330
1E
100
AcDbEntity
  8
PEF-L25A
100
AcDbLine
 10
169.7501297138365
 20
109.7067984919684
 30
0.0
 11
172.2099947665959
 21
100.5264571353075
 31
0.0
  0
ENDSEC
  0
SECTION
  2
OBJECTS
  0
DICTIONARY
  5
C
330
0
100
AcDbDictionary
  3
ACAD_GROUP
350
D
  3
ACAD_LAYOUT
350
19
  3
ACAD_MLINESTYLE
350
16
  3
ACAD_PLOTSETTINGS
350
18
  3
ACAD_PLOTSTYLENAME
350
E
  3
DWGPROPS
350
98A
  3
ACDBHEADERROUNDTRIPXREC
350
9BC
  0
DICTIONARY
  5
9AF
330
1E
100
AcDbDictionary
280
     1
  3
ACAD_LAYOUTSELFREF
360
9DD
  0
DICTIONARY
  5
9AD
330
1A
100
AcDbDictionary
280
     1
  3
ACAD_LAYOUTSELFREF
360
9DC
  0
DICTIONARY
  5
D
102
{ACAD_REACTORS
330
C
102
}
330
C
100
AcDbDictionary
  0
DICTIONARY
  5
19
102
{ACAD_REACTORS
330
C
102
}
330
C
100
AcDbDictionary
  0
DICTIONARY
  5
16
102
{ACAD_REACTORS
330
C
102
}
330
C
100
AcDbDictionary
  3
STANDARD
350
17
  0
DICTIONARY
  5
18
102
{ACAD_REACTORS
330
C
102
}
330
C
100
AcDbDictionary
  0
ACDBDICTIONARYWDFLT
  5
E
102
{ACAD_REACTORS
330
C
102
}
330
C
100
AcDbDictionary
281
     1
  3
Normal
350
F
100
AcDbDictionaryWithDefault
340
F
  0
XRECORD
  5
98A
102
{ACAD_REACTORS
330
C
102
}
330
C
100
AcDbXrecord
  1
DWGPROPS COOKIE
  2

  3

  4

  6

  7

  8
한신
  9

300
=
301
=
302
=
303
=
304
=
305
=
306
=
307
=
308
=
309
=
 40
0.025547337962963
 41
2450388.34788044
 42
2451814.653069792
  1

 90
        0
  0
DICTIONARY
  5
9BC
102
{ACAD_REACTORS
330
C
102
}
330
C
100
AcDbDictionary
  3
TSTACKALIGN
350
9BD
  3
TSTACKSIZE
350
9BE
  3
HYPERLINKBASE
350
9BF
  3
STYLESHEET
350
9C0
  3
LAYOUTDICT
350
9C1
  3
PLOTSETDICT
350
9C2
  3
PLOTSTYLNAMDICT
350
9C3
  3
LWETCUNION
350
9C4
  3
INSUNITS
350
9C5
  3
CEPSNTYPE
350
9C6
  3
FINGERPRINTGUID
350
9C7
  3
VERSIONGUID
350
9C8
  3
PSVPSCALE
350
9C9
  3
PUCSORTHOREF
350
9CA
  3
PUCSORTHOVIEW
350
9CB
  3
PUCSBASE
350
9CC
  3
PUCSORGTOP
350
9CD
  3
PUCSORGBOTTOM
350
9CE
  3
PUCSORGLEFT
350
9CF
  3
PUCSORGRIGHT
350
9D0
  3
PUCSORGFRONT
350
9D1
  3
PUCSORGBACK
350
9D2
  3
UCSORTHOREF
350
9D3
  3
UCSORTHOVIEW
350
9D4
  3
UCSBASE
350
9D5
  3
UCSORGTOP
350
9D6
  3
UCSORGBOTTOM
350
9D7
  3
UCSORGLEFT
350
9D8
  3
UCSORGRIGHT
350
9D9
  3
UCSORGFRONT
350
9DA
  3
UCSORGBACK
350
9DB
  0
XRECORD
  5
9DD
102
{ACAD_REACTORS
330
9AF
102
}
330
9AF
100
AcDbXrecord
340
1E
  0
XRECORD
  5
9DC
102
{ACAD_REACTORS
330
9AD
102
}
330
9AD
100
AcDbXrecord
340
1A
  0
MLINESTYLE
  5
17
102
{ACAD_REACTORS
330
16
102
}
330
16
100
AcDbMlineStyle
  2
STANDARD
 70
     0
  3

 62
   256
 51
90.0
 52
90.0
 71
     2
 49
0.5
 62
   256
  6
BYLAYER
 49
-0.5
 62
   256
  6
BYLAYER
  0
ACDBPLACEHOLDER
  5
F
102
{ACAD_REACTORS
330
E
102
}
330
E
100
AcDbPlaceHolder
280
     0
  0
XRECORD
  5
9BD
102
{ACAD_REACTORS
330
9BC
102
}
330
9BC
100
AcDbXrecord
 90
        1
  0
XRECORD
  5
9BE
102
{ACAD_REACTORS
330
9BC
102
}
330
9BC
100
AcDbXrecord
 90
       70
  0
XRECORD
  5
9BF
102
{ACAD_REACTORS
330
9BC
102
}
330
9BC
100
AcDbXrecord
  1

  0
XRECORD
  5
9C0
102
{ACAD_REACTORS
330
9BC
102
}
330
9BC
100
AcDbXrecord
  1
HANSHIN.ctb
  0
XRECORD
  5
9C1
102
{ACAD_REACTORS
330
9BC
102
}
330
9BC
100
AcDbXrecord
340
19
  0
XRECORD
  5
9C2
102
{ACAD_REACTORS
330
9BC
102
}
330
9BC
100
AcDbXrecord
340
18
  0
XRECORD
  5
9C3
102
{ACAD_REACTORS
330
9BC
102
}
330
9BC
100
AcDbXrecord
340
E
  0
XRECORD
  5
9C4
102
{ACAD_REACTORS
330
9BC
102
}
330
9BC
100
AcDbXrecord
 90
    10781
  0
XRECORD
  5
9C5
102
{ACAD_REACTORS
330
9BC
102
}
330
9BC
100
AcDbXrecord
 90
        0
  0
XRECORD
  5
9C6
102
{ACAD_REACTORS
330
9BC
102
}
330
9BC
100
AcDbXrecord
 90
        0
  0
XRECORD
  5
9C7
102
{ACAD_REACTORS
330
9BC
102
}
330
9BC
100
AcDbXrecord
  1
{55359EC6-645D-11D4-BC29-40594FC10001}
  0
XRECORD
  5
9C8
102
{ACAD_REACTORS
330
9BC
102
}
330
9BC
100
AcDbXrecord
  1
{7075EA2E-6CE6-4880-B7F8-23FD089BBF8F}
  0
XRECORD
  5
9C9
102
{ACAD_REACTORS
330
9BC
102
}
330
9BC
100
AcDbXrecord
 40
0.0
  0
XRECORD
  5
9CA
102
{ACAD_REACTORS
330
9BC
102
}
330
9BC
100
AcDbXrecord
340
0
  0
XRECORD
  5
9CB
102
{ACAD_REACTORS
330
9BC
102
}
330
9BC
100
AcDbXrecord
 70
     0
  0
XRECORD
  5
9CC
102
{ACAD_REACTORS
330
9BC
102
}
330
9BC
100
AcDbXrecord
340
0
  0
XRECORD
  5
9CD
102
{ACAD_REACTORS
330
9BC
102
}
330
9BC
100
AcDbXrecord
 10
0.0
 20
0.0
 30
0.0
  0
XRECORD
  5
9CE
102
{ACAD_REACTORS
330
9BC
102
}
330
9BC
100
AcDbXrecord
 10
0.0
 20
0.0
 30
0.0
  0
XRECORD
  5
9CF
102
{ACAD_REACTORS
330
9BC
102
}
330
9BC
100
AcDbXrecord
 10
0.0
 20
0.0
 30
0.0
  0
XRECORD
  5
9D0
102
{ACAD_REACTORS
330
9BC
102
}
330
9BC
100
AcDbXrecord
 10
0.0
 20
0.0
 30
0.0
  0
XRECORD
  5
9D1
102
{ACAD_REACTORS
330
9BC
102
}
330
9BC
100
AcDbXrecord
 10
0.0
 20
0.0
 30
0.0
  0
XRECORD
  5
9D2
102
{ACAD_REACTORS
330
9BC
102
}
330
9BC
100
AcDbXrecord
 10
0.0
 20
0.0
 30
0.0
  0
XRECORD
  5
9D3
102
{ACAD_REACTORS
330
9BC
102
}
330
9BC
100
AcDbXrecord
340
0
  0
XRECORD
  5
9D4
102
{ACAD_REACTORS
330
9BC
102
}
330
9BC
100
AcDbXrecord
 70
     0
  0
XRECORD
  5
9D5
102
{ACAD_REACTORS
330
9BC
102
}
330
9BC
100
AcDbXrecord
340
0
  0
XRECORD
  5
9D6
102
{ACAD_REACTORS
330
9BC
102
}
330
9BC
100
AcDbXrecord
 10
0.0
 20
0.0
 30
0.0
  0
XRECORD
  5
9D7
102
{ACAD_REACTORS
330
9BC
102
}
330
9BC
100
AcDbXrecord
 10
0.0
 20
0.0
 30
0.0
  0
XRECORD
  5
9D8
102
{ACAD_REACTORS
330
9BC
102
}
330
9BC
100
AcDbXrecord
 10
0.0
 20
0.0
 30
0.0
  0
XRECORD
  5
9D9
102
{ACAD_REACTORS
330
9BC
102
}
330
9BC
100
AcDbXrecord
 10
0.0
 20
0.0
 30
0.0
  0
XRECORD
  5
9DA
102
{ACAD_REACTORS
330
9BC
102
}
330
9BC
100
AcDbXrecord
 10
0.0
 20
0.0
 30
0.0
  0
XRECORD
  5
9DB
102
{ACAD_REACTORS
330
9BC
102
}
330
9BC
100
AcDbXrecord
 10
0.0
 20
0.0
 30
0.0
  0
ENDSEC
  0
EOF
