  0
SECTION
  2
HEADER
  9
$ACADVER
  1
AC1014
  9
$ACADMAINTVER
 70
     9
  9
$DWGCODEPAGE
  3
ANSI_949
  9
$INSBASE
 10
385.0
 20
277.0
 30
0.0
  9
$EXTMIN
 10
34.24163920134503
 20
99.23867878555165
 30
-0.0000000349181948
  9
$EXTMAX
 10
371.5310678159946
 20
200.5030981133495
 30
0.0000000814935747
  9
$LIMMIN
 10
0.0
 20
0.0
  9
$LIMMAX
 10
420.0
 20
297.0
  9
$ORTHOMODE
 70
     0
  9
$REGENMODE
 70
     1
  9
$FILLMODE
 70
     1
  9
$QTEXTMODE
 70
     0
  9
$MIRRTEXT
 70
     1
  9
$DRAGMODE
 70
     2
  9
$LTSCALE
 40
4.0
  9
$OSMODE
 70
    37
  9
$ATTMODE
 70
     1
  9
$TEXTSIZE
 40
3.0
  9
$TRACEWID
 40
0.05
  9
$TEXTSTYLE
  7
STANDARD
  9
$CLAYER
  8
0
  9
$CELTYPE
  6
BYLAYER
  9
$CECOLOR
 62
   256
  9
$CELTSCALE
 40
1.0
  9
$DELOBJ
 70
     1
  9
$DISPSILH
 70
     0
  9
$DIMSCALE
 40
1.0
  9
$DIMASZ
 40
3.0
  9
$DIMEXO
 40
1.0
  9
$DIMDLI
 40
0.38
  9
$DIMRND
 40
0.0
  9
$DIMDLE
 40
0.0
  9
$DIMEXE
 40
1.0
  9
$DIMTP
 40
0.0
  9
$DIMTM
 40
0.0
  9
$DIMTXT
 40
3.0
  9
$DIMCEN
 40
0.09
  9
$DIMTSZ
 40
0.0
  9
$DIMTOL
 70
     0
  9
$DIMLIM
 70
     0
  9
$DIMTIH
 70
     0
  9
$DIMTOH
 70
     1
  9
$DIMSE1
 70
     0
  9
$DIMSE2
 70
     0
  9
$DIMTAD
 70
     1
  9
$DIMZIN
 70
     8
  9
$DIMBLK
  1

  9
$DIMASO
 70
     0
  9
$DIMSHO
 70
     1
  9
$DIMPOST
  1

  9
$DIMAPOST
  1

  9
$DIMALT
 70
     0
  9
$DIMALTD
 70
     2
  9
$DIMALTF
 40
25.4
  9
$DIMLFAC
 40
1.0
  9
$DIMTOFL
 70
     0
  9
$DIMTVP
 40
0.0
  9
$DIMTIX
 70
     1
  9
$DIMSOXD
 70
     0
  9
$DIMSAH
 70
     0
  9
$DIMBLK1
  1

  9
$DIMBLK2
  1

  9
$DIMSTYLE
  2
STANDARD
  9
$DIMCLRD
 70
     5
  9
$DIMCLRE
 70
     5
  9
$DIMCLRT
 70
     3
  9
$DIMTFAC
 40
1.0
  9
$DIMGAP
 40
0.09
  9
$DIMJUST
 70
     0
  9
$DIMSD1
 70
     0
  9
$DIMSD2
 70
     0
  9
$DIMTOLJ
 70
     1
  9
$DIMTZIN
 70
     8
  9
$DIMALTZ
 70
     8
  9
$DIMALTTZ
 70
     8
  9
$DIMFIT
 70
     3
  9
$DIMUPT
 70
     0
  9
$DIMUNIT
 70
     2
  9
$DIMDEC
 70
     4
  9
$DIMTDEC
 70
     4
  9
$DIMALTU
 70
     2
  9
$DIMALTTD
 70
     2
  9
$DIMTXSTY
  7
STANDARD
  9
$DIMAUNIT
 70
     0
  9
$LUNITS
 70
     2
  9
$LUPREC
 70
     4
  9
$SKETCHINC
 40
0.1
  9
$FILLETRAD
 40
2.0
  9
$AUNITS
 70
     0
  9
$AUPREC
 70
     0
  9
$MENU
  1
acad
  9
$ELEVATION
 40
0.0
  9
$PELEVATION
 40
0.0
  9
$THICKNESS
 40
0.0
  9
$LIMCHECK
 70
     0
  9
$BLIPMODE
 70
     0
  9
$CHAMFERA
 40
0.25
  9
$CHAMFERB
 40
0.25
  9
$CHAMFERC
 40
0.0
  9
$CHAMFERD
 40
0.0
  9
$SKPOLY
 70
     0
  9
$TDCREATE
 40
2450306.406837036
  9
$TDUPDATE
 40
2453069.719543356
  9
$TDINDWG
 40
0.4980074884
  9
$TDUSRTIMER
 40
0.4980074884
  9
$USRTIMER
 70
     1
  9
$ANGBASE
 50
0.0
  9
$ANGDIR
 70
     0
  9
$PDMODE
 70
     0
  9
$PDSIZE
 40
0.0
  9
$PLINEWID
 40
0.0
  9
$COORDS
 70
     2
  9
$SPLFRAME
 70
     0
  9
$SPLINETYPE
 70
     6
  9
$SPLINESEGS
 70
     8
  9
$ATTDIA
 70
     0
  9
$ATTREQ
 70
     1
  9
$HANDLING
 70
 12289
  9
$HANDSEED
  5
3528
  9
$SURFTAB1
 70
     6
  9
$SURFTAB2
 70
     6
  9
$SURFTYPE
 70
     6
  9
$SURFU
 70
     6
  9
$SURFV
 70
     6
  9
$UCSNAME
  2

  9
$UCSORG
 10
0.0
 20
0.0
 30
0.0
  9
$UCSXDIR
 10
1.0
 20
0.0
 30
0.0
  9
$UCSYDIR
 10
0.0
 20
1.0
 30
0.0
  9
$PUCSNAME
  2

  9
$PUCSORG
 10
0.0
 20
0.0
 30
0.0
  9
$PUCSXDIR
 10
1.0
 20
0.0
 30
0.0
  9
$PUCSYDIR
 10
0.0
 20
1.0
 30
0.0
  9
$USERI1
 70
     0
  9
$USERI2
 70
     0
  9
$USERI3
 70
     0
  9
$USERI4
 70
     0
  9
$USERI5
 70
     0
  9
$USERR1
 40
0.0
  9
$USERR2
 40
0.0
  9
$USERR3
 40
0.0
  9
$USERR4
 40
0.0
  9
$USERR5
 40
0.0
  9
$WORLDVIEW
 70
     1
  9
$SHADEDGE
 70
     3
  9
$SHADEDIF
 70
    70
  9
$TILEMODE
 70
     1
  9
$MAXACTVP
 70
    16
  9
$PINSBASE
 10
0.0
 20
0.0
 30
0.0
  9
$PLIMCHECK
 70
     0
  9
$PEXTMIN
 10
1.000000000000000E+20
 20
1.000000000000000E+20
 30
1.000000000000000E+20
  9
$PEXTMAX
 10
-1.000000000000000E+20
 20
-1.000000000000000E+20
 30
-1.000000000000000E+20
  9
$PLIMMIN
 10
0.0
 20
0.0
  9
$PLIMMAX
 10
12.0
 20
9.0
  9
$UNITMODE
 70
     0
  9
$VISRETAIN
 70
     0
  9
$PLINEGEN
 70
     0
  9
$PSLTSCALE
 70
     1
  9
$TREEDEPTH
 70
  3020
  9
$PICKSTYLE
 70
     1
  9
$CMLSTYLE
  2
STANDARD
  9
$CMLJUST
 70
     0
  9
$CMLSCALE
 40
1.0
  9
$PROXYGRAPHICS
 70
     1
  9
$MEASUREMENT
 70
     0
  0
ENDSEC
  0
SECTION
  2
CLASSES
  0
CLASS
  1
ACDBDICTIONARYWDFLT
  2
AcDbDictionaryWithDefault
  3
AutoCAD 2000
 90
        0
280
     0
281
     0
  0
CLASS
  1
ACDBPLACEHOLDER
  2
AcDbPlaceHolder
  3
AutoCAD 2000
 90
        0
280
     0
281
     0
  0
CLASS
  1
LAYOUT
  2
AcDbLayout
  3
AutoCAD 2000
 90
        0
280
     0
281
     0
  0
CLASS
  1
LONG_TRANSACTION
  2
AcDbLongTransaction
  3
AutoCAD 2000
 90
        0
280
     0
281
     0
  0
CLASS
  1
LWPOLYLINE
  2
AcDbPolyline
  3
AutoCAD 2000
 90
        0
280
     0
281
     1
  0
CLASS
  1
HATCH
  2
AcDbHatch
  3
AutoCAD 2000
 90
        0
280
     0
281
     1
  0
CLASS
  1
XRECORD
  2
AcDbXrecord
  3
AutoCAD 2000
 90
        0
280
     0
281
     0
  0
CLASS
  1
LONG_TRANSACTION
  2
AcDbLongTransaction
  3
AutoCAD 2000
 90
        0
280
     0
281
     0
  0
CLASS
  1
LWPOLYLINE
  2
AcDbPolyline
  3
AutoCAD 2000
 90
        0
280
     0
281
     1
  0
CLASS
  1
HATCH
  2
AcDbHatch
  3
AutoCAD 2000
 90
        0
280
     0
281
     1
  0
CLASS
  1
XRECORD
  2
AcDbXrecord
  3
AutoCAD 2000
 90
        0
280
     0
281
     0
  0
CLASS
  1
LONG_TRANSACTION
  2
AcDbLongTransaction
  3
AutoCAD 2000
 90
        0
280
     0
281
     0
  0
CLASS
  1
LWPOLYLINE
  2
AcDbPolyline
  3
AutoCAD 2000
 90
        0
280
     0
281
     1
  0
CLASS
  1
HATCH
  2
AcDbHatch
  3
AutoCAD 2000
 90
        0
280
     0
281
     1
  0
CLASS
  1
XRECORD
  2
AcDbXrecord
  3
AutoCAD 2000
 90
        0
280
     0
281
     0
  0
ENDSEC
  0
SECTION
  2
TABLES
  0
TABLE
  2
VPORT
  5
339D
330
0
100
AcDbSymbolTable
 70
     2
  0
VPORT
  5
3505
330
339D
100
AcDbSymbolTableRecord
100
AcDbViewportTableRecord
  2
*ACTIVE
 70
     0
 10
0.0
 20
0.0
 11
1.0
 21
1.0
 12
202.8863535086698
 22
149.8708884494505
 13
0.0
 23
0.0
 14
0.25
 24
0.25
 15
5.0
 25
5.0
 16
0.0
 26
0.0
 36
1.0
 17
0.0
 27
0.0
 37
0.0
 40
230.8697010610993
 41
1.467911318553092
 42
50.0
 43
0.0
 44
0.0
 50
0.0
 51
0.0
 71
     0
 72
  1000
 73
     1
 74
     1
 75
     1
 76
     0
 77
     0
 78
     0
  0
ENDTAB
  0
TABLE
  2
LTYPE
  5
339A
330
0
100
AcDbSymbolTable
 70
     1
  0
LTYPE
  5
33A8
330
339A
100
AcDbSymbolTableRecord
100
AcDbLinetypeTableRecord
  2
BYBLOCK
 70
     0
  3

 72
    65
 73
     0
 40
0.0
  0
LTYPE
  5
33A9
330
339A
100
AcDbSymbolTableRecord
100
AcDbLinetypeTableRecord
  2
BYLAYER
 70
     0
  3

 72
    65
 73
     0
 40
0.0
  0
LTYPE
  5
33AA
330
339A
100
AcDbSymbolTableRecord
100
AcDbLinetypeTableRecord
  2
CONTINUOUS
 70
     0
  3
Solid line
 72
    65
 73
     0
 40
0.0
  0
ENDTAB
  0
TABLE
  2
LAYER
  5
3397
330
0
100
AcDbSymbolTable
 70
     2
  0
LAYER
  5
33A5
330
3397
100
AcDbSymbolTableRecord
100
AcDbLayerTableRecord
  2
0
 70
     0
 62
     7
  6
CONTINUOUS
  0
LAYER
  5
33D2
330
3397
100
AcDbSymbolTableRecord
100
AcDbLayerTableRecord
  2
PEF-L30AG
 70
     0
 62
     7
  6
CONTINUOUS
  0
ENDTAB
  0
TABLE
  2
STYLE
  5
3398
330
0
100
AcDbSymbolTable
 70
     1
  0
STYLE
  5
33A6
330
3398
100
AcDbSymbolTableRecord
100
AcDbTextStyleTableRecord
  2
STANDARD
 70
     0
 40
3.0
 41
1.0
 50
0.0
 71
     0
 42
3.0
  3
txt.shx
  4
whgtxt.shx
  0
ENDTAB
  0
TABLE
  2
VIEW
  5
339B
330
0
100
AcDbSymbolTable
 70
     0
  0
ENDTAB
  0
TABLE
  2
UCS
  5
339C
330
0
100
AcDbSymbolTable
 70
     0
  0
ENDTAB
  0
TABLE
  2
APPID
  5
339E
330
0
100
AcDbSymbolTable
 70
     3
  0
APPID
  5
33A7
330
339E
100
AcDbSymbolTableRecord
100
AcDbRegAppTableRecord
  2
ACAD
 70
     0
  0
APPID
  5
33D0
330
339E
100
AcDbSymbolTableRecord
100
AcDbRegAppTableRecord
  2
AME_SOL
 70
     0
  0
APPID
  5
33DE
330
339E
100
AcDbSymbolTableRecord
100
AcDbRegAppTableRecord
  2
DCO15
 70
     0
  0
ENDTAB
  0
TABLE
  2
DIMSTYLE
  5
339F
330
0
100
AcDbSymbolTable
 70
     1
  0
DIMSTYLE
105
33DA
330
339F
100
AcDbSymbolTableRecord
100
AcDbDimStyleTableRecord
  2
STANDARD
 70
     0
  3

  4

  5

  6

  7

 40
1.0
 41
0.18
 42
0.0625
 43
0.38
 44
0.18
 45
0.0
 46
0.0
 47
0.0
 48
0.0
140
0.18
141
0.09
142
0.0
143
25.4
144
1.0
145
0.0
146
1.0
147
0.09
 71
     0
 72
     0
 73
     1
 74
     1
 75
     0
 76
     0
 77
     0
 78
     0
170
     0
171
     2
172
     0
173
     0
174
     0
175
     0
176
     0
177
     0
178
     0
270
     2
271
     4
272
     4
273
     2
274
     2
340
33A6
275
     0
280
     0
281
     0
282
     0
283
     1
284
     0
285
     0
286
     0
287
     3
288
     0
  0
ENDTAB
  0
TABLE
  2
BLOCK_RECORD
  5
3396
330
0
100
AcDbSymbolTable
 70
     3
  0
BLOCK_RECORD
  5
33B3
102
{ACAD_XDICTIONARY
360
34D1
102
}
330
3396
100
AcDbSymbolTableRecord
100
AcDbBlockTableRecord
  2
*MODEL_SPACE
  0
BLOCK_RECORD
  5
33AF
102
{ACAD_XDICTIONARY
360
34CF
102
}
330
3396
100
AcDbSymbolTableRecord
100
AcDbBlockTableRecord
  2
*PAPER_SPACE
  0
BLOCK_RECORD
  5
33C0
330
3396
100
AcDbSymbolTableRecord
100
AcDbBlockTableRecord
  2
AME_NIL
  0
BLOCK_RECORD
  5
33C1
330
3396
100
AcDbSymbolTableRecord
100
AcDbBlockTableRecord
  2
AME_SOL
  0
BLOCK_RECORD
  5
33C3
330
3396
100
AcDbSymbolTableRecord
100
AcDbBlockTableRecord
  2
*X2
  0
ENDTAB
  0
ENDSEC
  0
SECTION
  2
BLOCKS
  0
BLOCK
  5
33D5
330
33B3
100
AcDbEntity
  8
0
100
AcDbBlockBegin
  2
*MODEL_SPACE
 70
     0
 10
0.0
 20
0.0
 30
0.0
  3
*MODEL_SPACE
  1

  0
ENDBLK
  5
33D6
330
33B3
100
AcDbEntity
  8
0
100
AcDbBlockEnd
  0
BLOCK
  5
33D3
330
33AF
100
AcDbEntity
 67
     1
  8
0
100
AcDbBlockBegin
  2
*PAPER_SPACE
 70
     0
 10
0.0
 20
0.0
 30
0.0
  3
*PAPER_SPACE
  1

  0
ENDBLK
  5
33D4
330
33AF
100
AcDbEntity
 67
     1
  8
0
100
AcDbBlockEnd
  0
BLOCK
  5
1603
330
33C0
100
AcDbEntity
  8
0
100
AcDbBlockBegin
  2
AME_NIL
 70
     0
 10
0.0
 20
0.0
 30
0.0
  3
AME_NIL
  1
AME_NIL
  0
ENDBLK
  5
1604
330
33C0
100
AcDbEntity
  8
0
100
AcDbBlockEnd
  0
BLOCK
  5
1606
330
33C1
100
AcDbEntity
  8
0
100
AcDbBlockBegin
  2
AME_SOL
 70
     0
 10
0.0
 20
0.0
 30
0.0
  3
AME_SOL
  1
AME_SOL
  0
ENDBLK
  5
1607
330
33C1
100
AcDbEntity
  8
0
100
AcDbBlockEnd
  0
BLOCK
  5
32AF
330
33C3
100
AcDbEntity
  8
0
100
AcDbBlockBegin
  2
*X2
 70
     1
 10
0.0
 20
0.0
 30
0.0
  3
*X2
  1
AME_SOL
  0
LINE
  5
32B1
330
33C3
100
AcDbEntity
  8
0
 62
     0
100
AcDbLine
 10
161.1429810825075
 20
191.8
 30
0.0
 11
161.8909634614579
 21
191.8
 31
0.0
  0
LINE
  5
32B2
330
33C3
100
AcDbEntity
  8
0
 62
     0
100
AcDbLine
 10
161.1523853216816
 20
192.0
 30
0.0
 11
161.8815592222841
 21
192.0
 31
0.0
  0
LINE
  5
32B3
330
33C3
100
AcDbEntity
  8
0
 62
     0
100
AcDbLine
 10
161.3025477424745
 20
192.1999999999999
 30
0.0
 11
161.731396801491
 21
192.1999999999999
 31
0.0
  0
LINE
  5
32B4
330
33C3
100
AcDbEntity
  8
0
 62
     0
100
AcDbLine
 10
161.2584859565225
 20
191.6
 30
0.0
 11
161.7754585874431
 21
191.6
 31
0.0
  0
ENDBLK
  5
32B5
330
33C3
100
AcDbEntity
  8
0
100
AcDbBlockEnd
  0
ENDSEC
  0
SECTION
  2
ENTITIES
  0
LINE
  5
160
330
33B3
100
AcDbEntity
  8
PEF-L30AG
100
AcDbLine
 10
82.75
 20
128.75
 30
0.0
 11
51.50000000000001
 21
128.75
 31
0.0
  0
LINE
  5
168
330
33B3
100
AcDbEntity
  8
PEF-L30AG
100
AcDbLine
 10
96.83845726811998
 20
136.7499999999999
 30
0.0
 11
89.25
 21
136.7499999999999
 31
0.0
  0
LINE
  5
169
330
33B3
100
AcDbEntity
  8
PEF-L30AG
100
AcDbLine
 10
128.2499999999999
 20
120.25
 30
0.0
 11
53.25
 21
120.25
 31
0.0
  0
LINE
  5
16A
330
33B3
100
AcDbEntity
  8
PEF-L30AG
100
AcDbLine
 10
148.2499999999999
 20
126.75
 30
0.0
 11
90.25
 21
126.75
 31
0.0
  0
LINE
  5
16B
330
33B3
100
AcDbEntity
  8
PEF-L30AG
100
AcDbLine
 10
179.2499999999999
 20
118.75
 30
0.0
 11
129.2499999999999
 21
118.75
 31
0.0
  0
CIRCLE
  5
16C
330
33B3
100
AcDbEntity
  8
PEF-L30AG
100
AcDbCircle
 10
153.2499999999999
 20
133.2499999999999
 30
0.0
 40
1.5
  0
ARC
  5
16D
330
33B3
100
AcDbEntity
  8
PEF-L30AG
100
AcDbCircle
 10
153.2499999999999
 20
133.2499999999999
 30
0.0
 40
2.0
100
AcDbArc
 50
277.1250163489018
 51
185.1944289077346
  0
LINE
  5
170
330
33B3
100
AcDbEntity
  8
PEF-L30AG
100
AcDbLine
 10
153.2499999999999
 20
138.5
 30
0.0
 11
153.2499999999999
 21
128.0
 31
0.0
  0
LINE
  5
173
330
33B3
100
AcDbEntity
  8
PEF-L30AG
100
AcDbLine
 10
166.25
 20
127.75
 30
0.0
 11
148.35
 21
127.75
 31
0.0
  0
LINE
  5
174
330
33B3
100
AcDbEntity
  8
PEF-L30AG
100
AcDbLine
 10
148.2499999999999
 20
126.75
 30
0.0
 11
169.25
 21
126.75
 31
0.0
  0
LINE
  5
178
330
33B3
100
AcDbEntity
  8
PEF-L30AG
100
AcDbLine
 10
179.2499999999999
 20
126.75
 30
0.0
 11
169.25
 21
126.75
 31
0.0
  0
LINE
  5
179
330
33B3
100
AcDbEntity
  8
PEF-L30AG
100
AcDbLine
 10
179.2499999999999
 20
118.75
 30
0.0
 11
179.2499999999999
 21
126.75
 31
0.0
  0
LINE
  5
17A
330
33B3
100
AcDbEntity
  8
PEF-L30AG
100
AcDbLine
 10
169.25
 20
127.75
 30
0.0
 11
166.25
 21
127.75
 31
0.0
  0
LINE
  5
17B
330
33B3
100
AcDbEntity
  8
PEF-L30AG
100
AcDbLine
 10
169.25
 20
126.75
 30
0.0
 11
169.25
 21
127.75
 31
0.0
  0
LINE
  5
17D
330
33B3
100
AcDbEntity
  8
PEF-L30AG
100
AcDbLine
 10
158.25
 20
133.25
 30
0.0
 11
148.0
 21
133.25
 31
0.0
  0
LINE
  5
189
330
33B3
100
AcDbEntity
  8
PEF-L30AG
100
AcDbLine
 10
98.25000000000001
 20
126.75
 30
0.0
 11
119.25
 21
126.75
 31
0.0
  0
LINE
  5
18A
330
33B3
100
AcDbEntity
  8
PEF-L30AG
100
AcDbLine
 10
116.25
 20
127.75
 30
0.0
 11
98.34999999999997
 21
127.75
 31
0.0
  0
LINE
  5
18C
330
33B3
100
AcDbEntity
  8
PEF-L30AG
100
AcDbLine
 10
142.25
 20
126.75
 30
0.0
 11
142.25
 21
118.75
 31
0.0
  0
LINE
  5
18D
330
33B3
100
AcDbEntity
  8
PEF-L30AG
100
AcDbLine
 10
136.25
 20
126.75
 30
0.0
 11
136.25
 21
118.75
 31
0.0
  0
LINE
  5
18E
330
33B3
100
AcDbEntity
  8
PEF-L30AG
100
AcDbLine
 10
139.25
 20
99.25
 30
0.0
 11
139.25
 21
135.0
 31
0.0
  0
LINE
  5
18F
330
33B3
100
AcDbEntity
  8
PEF-L30AG
100
AcDbLine
 10
129.2499999999999
 20
118.75
 30
0.0
 11
129.2499999999999
 21
119.25
 31
0.0
  0
ARC
  5
190
330
33B3
100
AcDbEntity
  8
PEF-L30AG
100
AcDbCircle
 10
128.2499999999999
 20
119.25
 30
0.0
 40
1.0
100
AcDbArc
 50
0.0
 51
90.0
  0
LINE
  5
191
330
33B3
100
AcDbEntity
  8
PEF-L30AG
100
AcDbLine
 10
119.25
 20
127.75
 30
0.0
 11
116.25
 21
127.75
 31
0.0
  0
LINE
  5
192
330
33B3
100
AcDbEntity
  8
PEF-L30AG
100
AcDbLine
 10
119.25
 20
126.75
 30
0.0
 11
119.25
 21
127.75
 31
0.0
  0
CIRCLE
  5
193
330
33B3
100
AcDbEntity
  8
PEF-L30AG
100
AcDbCircle
 10
103.2499999999999
 20
133.2499999999999
 30
0.0
 40
1.5
  0
ARC
  5
194
330
33B3
100
AcDbEntity
  8
PEF-L30AG
100
AcDbCircle
 10
103.2499999999999
 20
133.2499999999999
 30
0.0
 40
2.0
100
AcDbArc
 50
277.1250163489018
 51
185.1944289077346
  0
LINE
  5
197
330
33B3
100
AcDbEntity
  8
PEF-L30AG
100
AcDbLine
 10
90.25
 20
126.75
 30
0.0
 11
89.25
 21
136.7499999999999
 31
0.0
  0
LINE
  5
198
330
33B3
100
AcDbEntity
  8
PEF-L30AG
100
AcDbLine
 10
103.2499999999999
 20
138.5
 30
0.0
 11
103.2499999999999
 21
128.0
 31
0.0
  0
LINE
  5
199
330
33B3
100
AcDbEntity
  8
PEF-L30AG
100
AcDbLine
 10
98.25000000000001
 20
126.75
 30
0.0
 11
98.59459898771715
 21
130.1959898771718
 31
0.0
  0
LINE
  5
19A
330
33B3
100
AcDbEntity
  8
PEF-L30AG
100
AcDbLine
 10
108.25
 20
133.25
 30
0.0
 11
98.0
 21
133.25
 31
0.0
  0
LINE
  5
1A3
330
33B3
100
AcDbEntity
  8
PEF-L30AG
100
AcDbLine
 10
82.75
 20
128.75
 30
0.0
 11
82.75
 21
120.25
 31
0.0
  0
LINE
  5
1DD
330
33B3
100
AcDbEntity
  8
PEF-L30AG
100
AcDbLine
 10
42.25
 20
126.75
 30
0.0
 11
51.25
 21
126.75
 31
0.0
  0
LINE
  5
1DE
330
33B3
100
AcDbEntity
  8
PEF-L30AG
100
AcDbLine
 10
52.25
 20
118.75
 30
0.0
 11
34.25
 21
118.75
 31
0.0
  0
LINE
  5
1DF
330
33B3
100
AcDbEntity
  8
PEF-L30AG
100
AcDbLine
 10
80.75000000000001
 20
136.7499999999999
 30
0.0
 11
80.75000000000001
 21
128.75
 31
0.0
  0
LINE
  5
1E0
330
33B3
100
AcDbEntity
  8
PEF-L30AG
100
AcDbLine
 10
51.25
 20
126.75
 30
0.0
 11
52.31250000000001
 21
135.25
 31
0.0
  0
LINE
  5
1E1
330
33B3
100
AcDbEntity
  8
PEF-L30AG
100
AcDbLine
 10
52.25
 20
118.75
 30
0.0
 11
52.25
 21
119.25
 31
0.0
  0
ARC
  5
1E2
330
33B3
100
AcDbEntity
  8
PEF-L30AG
100
AcDbCircle
 10
53.25
 20
119.25
 30
0.0
 40
1.0
100
AcDbArc
 50
90.0
 51
180.0
  0
LINE
  5
1E3
330
33B3
100
AcDbEntity
  8
PEF-L30AG
100
AcDbLine
 10
34.25
 20
118.75
 30
0.0
 11
34.25
 21
136.7499999999999
 31
0.0
  0
LINE
  5
1E4
330
33B3
100
AcDbEntity
  8
PEF-L30AG
100
AcDbLine
 10
34.25
 20
126.75
 30
0.0
 11
42.25
 21
126.75
 31
0.0
  0
LINE
  5
1E5
330
33B3
100
AcDbEntity
  8
PEF-L30AG
100
AcDbLine
 10
45.25
 20
126.75
 30
0.0
 11
45.25
 21
118.75
 31
0.0
  0
LINE
  5
1E6
330
33B3
100
AcDbEntity
  8
PEF-L30AG
100
AcDbLine
 10
39.25
 20
118.75
 30
0.0
 11
39.25
 21
126.75
 31
0.0
  0
LINE
  5
210
330
33B3
100
AcDbEntity
  8
PEF-L30AG
100
AcDbLine
 10
280.867321007141
 20
178.3924940999758
 30
0.0
 11
278.5663394964294
 21
146.1787529500121
 31
0.0
  0
LINE
  5
211
330
33B3
100
AcDbEntity
  8
PEF-L30AG
100
AcDbLine
 10
331.1326789928588
 20
178.3924940999758
 30
0.0
 11
333.190881763527
 21
149.577655310621
 31
0.0
  0
LINE
  5
212
330
33B3
100
AcDbEntity
  8
PEF-L30AG
100
AcDbLine
 10
281.9336669782311
 20
167.25
 30
0.0
 11
288.75
 21
167.25
 31
0.0
  0
LINE
  5
214
330
33B3
100
AcDbEntity
  8
PEF-L30AG
100
AcDbLine
 10
276.5
 20
144.7499999999999
 30
0.0
 11
276.5
 21
135.25
 31
0.0
  0
ARC
  5
215
330
33B3
100
AcDbEntity
  8
PEF-L30AG
100
AcDbCircle
 10
277.0
 20
144.7499999999999
 30
0.0
 40
0.5
100
AcDbArc
 50
90.0
 51
180.0
  0
ARC
  5
216
330
33B3
100
AcDbEntity
  8
PEF-L30AG
100
AcDbCircle
 10
277.5688807965987
 20
146.25
 30
0.0
 40
1.0
100
AcDbArc
 50
270.0
 51
355.9143832200254
  0
ARC
  5
217
330
33B3
100
AcDbEntity
  8
PEF-L30AG
100
AcDbCircle
 10
281.9336669782311
 20
165.25
 30
0.0
 40
2.0
100
AcDbArc
 50
90.0
 51
175.9143832200249
  0
LINE
  5
218
330
33B3
100
AcDbEntity
  8
PEF-L30AG
100
AcDbLine
 10
335.4999999999999
 20
135.25
 30
0.0
 11
335.4999999999999
 21
143.5666700987798
 31
0.0
  0
ARC
  5
219
330
33B3
100
AcDbEntity
  8
PEF-L30AG
100
AcDbCircle
 10
335.0
 20
144.7499999999999
 30
0.0
 40
0.5
100
AcDbArc
 50
0.0
 51
90.0
  0
ARC
  5
21A
330
33B3
100
AcDbEntity
  8
PEF-L30AG
100
AcDbCircle
 10
334.4311192034012
 20
146.25
 30
0.0
 40
1.0
100
AcDbArc
 50
184.0856167799745
 51
270.0
  0
ARC
  5
21B
330
33B3
100
AcDbEntity
  8
PEF-L30AG
100
AcDbCircle
 10
330.0663330217687
 20
165.25
 30
0.0
 40
2.0
100
AcDbArc
 50
4.085616779974873
 51
90.0
  0
LINE
  5
21C
330
33B3
100
AcDbEntity
  8
PEF-L30AG
100
AcDbLine
 10
282.8622384068026
 20
180.25
 30
0.0
 11
288.75
 21
180.2499999999999
 31
0.0
  0
ARC
  5
21D
330
33B3
100
AcDbEntity
  8
PEF-L30AG
100
AcDbCircle
 10
282.8622384068026
 20
178.2499999999999
 30
0.0
 40
2.0
100
AcDbArc
 50
90.0
 51
175.9143832200249
  0
ARC
  5
21E
330
33B3
100
AcDbEntity
  8
PEF-L30AG
100
AcDbCircle
 10
329.1377615931973
 20
178.2499999999999
 30
0.0
 40
2.0
100
AcDbArc
 50
4.085616779974873
 51
90.0
  0
LINE
  5
21F
330
33B3
100
AcDbEntity
  8
PEF-L30AG
100
AcDbLine
 10
48.66421356237319
 20
179.6642135623731
 30
0.0
 11
36.76201592858976
 21
167.7620159285895
 31
0.0
  0
LINE
  5
220
330
33B3
100
AcDbEntity
  8
PEF-L30AG
100
AcDbLine
 10
89.25
 20
135.25
 30
0.0
 11
34.25
 21
135.25
 31
0.0
  0
LINE
  5
221
330
33B3
100
AcDbEntity
  8
PEF-L30AG
100
AcDbLine
 10
89.25
 20
145.25
 30
0.0
 11
34.25
 21
145.25
 31
0.0
  0
LINE
  5
222
330
33B3
100
AcDbEntity
  8
PEF-L30AG
100
AcDbLine
 10
69.25
 20
180.25
 30
0.0
 11
69.25
 21
189.25
 31
0.0
  0
LINE
  5
223
330
33B3
100
AcDbEntity
  8
PEF-L30AG
100
AcDbLine
 10
89.25
 20
145.25
 30
0.0
 11
80.26897594153092
 21
178.7676380902048
 31
0.0
  0
LINE
  5
226
330
33B3
100
AcDbEntity
  8
PEF-L30AG
100
AcDbLine
 10
89.25
 20
135.25
 30
0.0
 11
89.25
 21
145.25
 31
0.0
  0
LINE
  5
227
330
33B3
100
AcDbEntity
  8
PEF-L30AG
100
AcDbLine
 10
78.33712428895279
 20
180.25
 30
0.0
 11
50.07842712474629
 21
180.25
 31
0.0
  0
ARC
  5
228
330
33B3
100
AcDbEntity
  8
PEF-L30AG
100
AcDbCircle
 10
78.33712428895279
 20
178.2499999999999
 30
0.0
 40
2.0
100
AcDbArc
 50
14.99999999999998
 51
90.0
  0
LINE
  5
22A
330
33B3
100
AcDbEntity
  8
PEF-L30AG
100
AcDbLine
 10
34.25
 20
145.25
 30
0.0
 11
36.18444307802747
 21
166.5288738583016
 31
0.0
  0
LINE
  5
22B
330
33B3
100
AcDbEntity
  8
PEF-L30AG
100
AcDbLine
 10
34.25
 20
135.25
 30
0.0
 11
34.25
 21
145.25
 31
0.0
  0
ARC
  5
22C
330
33B3
100
AcDbEntity
  8
PEF-L30AG
100
AcDbCircle
 10
38.17622949096286
 20
166.3478023662166
 30
0.0
 40
2.0
100
AcDbArc
 50
135.0
 51
174.8055710922651
  0
LINE
  5
22D
330
33B3
100
AcDbEntity
  8
PEF-L30AG
100
AcDbLine
 10
96.25004816765043
 20
195.7499999999999
 30
0.0
 11
152.2499999999999
 21
195.7499999999999
 31
0.0
  0
LINE
  5
22F
330
33B3
100
AcDbEntity
  8
PEF-L30AG
100
AcDbLine
 10
146.75
 20
190.7499999999999
 30
0.0
 11
146.75
 21
195.7499999999999
 31
0.0
  0
LINE
  5
230
330
33B3
100
AcDbEntity
  8
PEF-L30AG
100
AcDbLine
 10
147.5
 20
195.7499999999999
 30
0.0
 11
147.5
 21
190.7499999999999
 31
0.0
  0
LINE
  5
231
330
33B3
100
AcDbEntity
  8
PEF-L30AG
100
AcDbLine
 10
150.75
 20
190.7499999999999
 30
0.0
 11
150.75
 21
195.7499999999999
 31
0.0
  0
LINE
  5
232
330
33B3
100
AcDbEntity
  8
PEF-L30AG
100
AcDbLine
 10
150.0
 20
195.7499999999999
 30
0.0
 11
150.0
 21
190.7499999999999
 31
0.0
  0
LINE
  5
233
330
33B3
100
AcDbEntity
  8
PEF-L30AG
100
AcDbLine
 10
153.5897459621554
 20
190.7499999999999
 30
0.0
 11
152.2499999999999
 21
195.7499999999999
 31
0.0
  0
LINE
  5
234
330
33B3
100
AcDbEntity
  8
PEF-L30AG
100
AcDbLine
 10
148.75
 20
200.0
 30
0.0
 11
148.7499999999999
 21
190.7499999999999
 31
0.0
  0
LINE
  5
242
330
33B3
100
AcDbEntity
  8
PEF-L30AG
100
AcDbLine
 10
97.58979412980608
 20
190.7499999999999
 30
0.0
 11
96.25004816765049
 21
195.7499999999999
 31
0.0
  0
LINE
  5
243
330
33B3
100
AcDbEntity
  8
PEF-L30AG
100
AcDbLine
 10
107.9226
 20
195.7499999999999
 30
0.0
 11
107.9226
 21
190.7499999999999
 31
0.0
  0
LINE
  5
244
330
33B3
100
AcDbEntity
  8
PEF-L30AG
100
AcDbLine
 10
107.1725999999999
 20
190.7499999999999
 30
0.0
 11
107.1725999999999
 21
195.7499999999999
 31
0.0
  0
LINE
  5
245
330
33B3
100
AcDbEntity
  8
PEF-L30AG
100
AcDbLine
 10
110.4225999999999
 20
195.7499999999999
 30
0.0
 11
110.4225999999999
 21
190.7499999999999
 31
0.0
  0
LINE
  5
246
330
33B3
100
AcDbEntity
  8
PEF-L30AG
100
AcDbLine
 10
111.1725999999999
 20
190.7499999999999
 30
0.0
 11
111.1725999999999
 21
195.7499999999999
 31
0.0
  0
LINE
  5
247
330
33B3
100
AcDbEntity
  8
PEF-L30AG
100
AcDbLine
 10
109.1725999999999
 20
200.0
 30
0.0
 11
109.1725999999999
 21
190.7499999999999
 31
0.0
  0
LINE
  5
255
330
33B3
100
AcDbEntity
  8
PEF-L30AG
100
AcDbLine
 10
75.0
 20
180.25
 30
0.0
 11
75.0
 21
181.0
 31
0.0
  0
LINE
  5
256
330
33B3
100
AcDbEntity
  8
PEF-L30AG
100
AcDbLine
 10
75.0
 20
181.0
 30
0.0
 11
69.25
 21
181.0
 31
0.0
  0
LINE
  5
259
330
33B3
100
AcDbEntity
  8
PEF-L30AG
100
AcDbLine
 10
75.0
 20
181.0
 30
0.0
 11
75.0
 21
184.75
 31
0.0
  0
LINE
  5
25A
330
33B3
100
AcDbEntity
  8
PEF-L30AG
100
AcDbLine
 10
34.75
 20
118.75
 30
0.0
 11
34.75
 21
116.5
 31
0.0
  0
LINE
  5
25B
330
33B3
100
AcDbEntity
  8
PEF-L30AG
100
AcDbLine
 10
34.75
 20
103.4999999999999
 30
0.0
 11
89.74999999999999
 21
103.4999999999999
 31
0.0
  0
LINE
  5
25C
330
33B3
100
AcDbEntity
  8
PEF-L30AG
100
AcDbLine
 10
34.75
 20
105.75
 30
0.0
 11
89.74999999999999
 21
105.75
 31
0.0
  0
LINE
  5
25D
330
33B3
100
AcDbEntity
  8
PEF-L30AG
100
AcDbLine
 10
89.74999999999999
 20
103.4999999999999
 30
0.0
 11
89.74999999999999
 21
105.75
 31
0.0
  0
LINE
  5
25E
330
33B3
100
AcDbEntity
  8
PEF-L30AG
100
AcDbLine
 10
49.75
 20
118.75
 30
0.0
 11
49.75
 21
116.5
 31
0.0
  0
LINE
  5
25F
330
33B3
100
AcDbEntity
  8
PEF-L30AG
100
AcDbLine
 10
35.75
 20
115.5
 30
0.0
 11
35.75
 21
106.75
 31
0.0
  0
LINE
  5
260
330
33B3
100
AcDbEntity
  8
PEF-L30AG
100
AcDbLine
 10
48.75
 20
115.5
 30
0.0
 11
48.75
 21
106.75
 31
0.0
  0
ARC
  5
261
330
33B3
100
AcDbEntity
  8
PEF-L30AG
100
AcDbCircle
 10
34.75
 20
106.75
 30
0.0
 40
1.0
100
AcDbArc
 50
270.0
 51
0.0
  0
ARC
  5
262
330
33B3
100
AcDbEntity
  8
PEF-L30AG
100
AcDbCircle
 10
49.75
 20
106.75
 30
0.0
 40
1.0
100
AcDbArc
 50
180.0
 51
270.0
  0
LINE
  5
263
330
33B3
100
AcDbEntity
  8
PEF-L30AG
100
AcDbLine
 10
34.75
 20
116.5
 30
0.0
 11
49.75
 21
116.5
 31
0.0
  0
ARC
  5
264
330
33B3
100
AcDbEntity
  8
PEF-L30AG
100
AcDbCircle
 10
49.75
 20
115.5
 30
0.0
 40
1.0
100
AcDbArc
 50
90.0
 51
180.0
  0
ARC
  5
265
330
33B3
100
AcDbEntity
  8
PEF-L30AG
100
AcDbCircle
 10
34.75
 20
115.5
 30
0.0
 40
1.0
100
AcDbArc
 50
0.0
 51
90.0
  0
LINE
  5
266
330
33B3
100
AcDbEntity
  8
PEF-L30AG
100
AcDbLine
 10
34.75
 20
105.75
 30
0.0
 11
34.75
 21
103.4999999999999
 31
0.0
  0
LINE
  5
267
330
33B3
100
AcDbEntity
  8
PEF-L30AG
100
AcDbLine
 10
146.75
 20
105.75
 30
0.0
 11
96.25000000000007
 21
105.75
 31
0.0
  0
LINE
  5
268
330
33B3
100
AcDbEntity
  8
PEF-L30AG
100
AcDbLine
 10
146.75
 20
103.4999999999999
 30
0.0
 11
96.25000000000007
 21
103.4999999999999
 31
0.0
  0
ARC
  5
269
330
33B3
100
AcDbEntity
  8
PEF-L30AG
100
AcDbCircle
 10
131.75
 20
115.5
 30
0.0
 40
1.0
100
AcDbArc
 50
0.0
 51
90.0
  0
LINE
  5
26A
330
33B3
100
AcDbEntity
  8
PEF-L30AG
100
AcDbLine
 10
132.75
 20
115.5
 30
0.0
 11
132.75
 21
106.75
 31
0.0
  0
ARC
  5
26B
330
33B3
100
AcDbEntity
  8
PEF-L30AG
100
AcDbCircle
 10
131.75
 20
106.75
 30
0.0
 40
1.0
100
AcDbArc
 50
270.0
 51
0.0
  0
LINE
  5
26C
330
33B3
100
AcDbEntity
  8
PEF-L30AG
100
AcDbLine
 10
146.75
 20
116.5
 30
0.0
 11
131.75
 21
116.5
 31
0.0
  0
LINE
  5
26D
330
33B3
100
AcDbEntity
  8
PEF-L30AG
100
AcDbLine
 10
131.75
 20
118.75
 30
0.0
 11
131.75
 21
116.5
 31
0.0
  0
LINE
  5
26E
330
33B3
100
AcDbEntity
  8
PEF-L30AG
100
AcDbLine
 10
96.25000000000007
 20
103.4999999999999
 30
0.0
 11
96.25000000000007
 21
105.75
 31
0.0
  0
ARC
  5
26F
330
33B3
100
AcDbEntity
  8
PEF-L30AG
100
AcDbCircle
 10
146.75
 20
115.5
 30
0.0
 40
1.0
100
AcDbArc
 50
90.0
 51
180.0
  0
LINE
  5
270
330
33B3
100
AcDbEntity
  8
PEF-L30AG
100
AcDbLine
 10
146.75
 20
105.75
 30
0.0
 11
146.75
 21
103.4999999999999
 31
0.0
  0
LINE
  5
271
330
33B3
100
AcDbEntity
  8
PEF-L30AG
100
AcDbLine
 10
145.75
 20
115.5
 30
0.0
 11
145.75
 21
106.75
 31
0.0
  0
ARC
  5
272
330
33B3
100
AcDbEntity
  8
PEF-L30AG
100
AcDbCircle
 10
146.75
 20
106.75
 30
0.0
 40
1.0
100
AcDbArc
 50
180.0
 51
270.0
  0
LINE
  5
273
330
33B3
100
AcDbEntity
  8
PEF-L30AG
100
AcDbLine
 10
146.75
 20
118.75
 30
0.0
 11
146.75
 21
116.5
 31
0.0
  0
LINE
  5
274
330
33B3
100
AcDbEntity
  8
PEF-L30AG
100
AcDbLine
 10
85.75000000000001
 20
103.4999999999999
 30
0.0
 11
85.75000000000001
 21
105.75
 31
0.0
  0
LINE
  5
275
330
33B3
100
AcDbEntity
  8
PEF-L30AG
100
AcDbLine
 10
58.75
 20
103.4999999999999
 30
0.0
 11
58.75
 21
105.75
 31
0.0
  0
LINE
  5
276
330
33B3
100
AcDbEntity
  8
PEF-L30AG
100
AcDbLine
 10
72.25
 20
110.0
 30
0.0
 11
72.25
 21
99.50000000000001
 31
0.0
  0
LINE
  5
277
330
33B3
100
AcDbEntity
  8
PEF-L30AG
100
AcDbLine
 10
114.25
 20
110.0
 30
0.0
 11
114.25
 21
99.50000000000001
 31
0.0
  0
LINE
  5
278
330
33B3
100
AcDbEntity
  8
PEF-L30AG
100
AcDbLine
 10
127.2499999999999
 20
103.4999999999999
 30
0.0
 11
127.2499999999999
 21
105.75
 31
0.0
  0
LINE
  5
279
330
33B3
100
AcDbEntity
  8
PEF-L30AG
100
AcDbLine
 10
101.2499999999999
 20
103.4999999999999
 30
0.0
 11
101.2499999999999
 21
105.75
 31
0.0
  0
LINE
  5
28C
330
33B3
100
AcDbEntity
  8
PEF-L30AG
100
AcDbLine
 10
63.5
 20
181.0
 30
0.0
 11
63.5
 21
184.75
 31
0.0
  0
LINE
  5
28D
330
33B3
100
AcDbEntity
  8
PEF-L30AG
100
AcDbLine
 10
63.5
 20
181.0
 30
0.0
 11
69.25
 21
181.0
 31
0.0
  0
LINE
  5
28E
330
33B3
100
AcDbEntity
  8
PEF-L30AG
100
AcDbLine
 10
63.5
 20
180.25
 30
0.0
 11
63.5
 21
181.0
 31
0.0
  0
LINE
  5
28F
330
33B3
100
AcDbEntity
  8
PEF-L30AG
100
AcDbLine
 10
66.25
 20
181.0
 30
0.0
 11
66.25
 21
184.75
 31
0.0
  0
LINE
  5
290
330
33B3
100
AcDbEntity
  8
PEF-L30AG
100
AcDbLine
 10
72.25
 20
181.0
 30
0.0
 11
72.25
 21
184.75
 31
0.0
  0
ARC
  5
291
330
33B3
100
AcDbEntity
  8
PEF-L30AG
100
AcDbCircle
 10
64.875
 20
183.8645833333333
 30
0.0
 40
1.63541666666666
100
AcDbArc
 50
32.77908066806928
 51
147.2209193319307
  0
ARC
  5
292
330
33B3
100
AcDbEntity
  8
PEF-L30AG
100
AcDbCircle
 10
69.25
 20
179.1249999999999
 30
0.0
 40
6.375
100
AcDbArc
 50
61.92751306414704
 51
118.0724869358529
  0
ARC
  5
293
330
33B3
100
AcDbEntity
  8
PEF-L30AG
100
AcDbCircle
 10
73.625
 20
183.8645833333333
 30
0.0
 40
1.63541666666666
100
AcDbArc
 50
32.77908066806928
 51
147.2209193319307
  0
LINE
  5
294
330
33B3
100
AcDbEntity
  8
PEF-L30AG
100
AcDbLine
 10
73.625
 20
185.5
 30
0.0
 11
64.875
 21
185.5
 31
0.0
  0
ARC
  5
295
330
33B3
100
AcDbEntity
  8
PEF-L30AG
100
AcDbCircle
 10
38.875
 20
129.484375
 30
0.0
 40
1.515625
100
AcDbArc
 50
42.07502205084363
 51
137.9249779491563
  0
LINE
  5
296
330
33B3
100
AcDbEntity
  8
PEF-L30AG
100
AcDbLine
 10
38.875
 20
131.0
 30
0.0
 11
45.625
 21
131.0
 31
0.0
  0
LINE
  5
297
330
33B3
100
AcDbEntity
  8
PEF-L30AG
100
AcDbLine
 10
40.0
 20
130.4999999999999
 30
0.0
 11
40.0
 21
127.5
 31
0.0
  0
LINE
  5
298
330
33B3
100
AcDbEntity
  8
PEF-L30AG
100
AcDbLine
 10
44.5
 20
130.4999999999999
 30
0.0
 11
44.5
 21
127.5
 31
0.0
  0
LINE
  5
299
330
33B3
100
AcDbEntity
  8
PEF-L30AG
100
AcDbLine
 10
46.74999999999999
 20
130.4999999999999
 30
0.0
 11
46.74999999999999
 21
127.5
 31
0.0
  0
ARC
  5
29A
330
33B3
100
AcDbEntity
  8
PEF-L30AG
100
AcDbCircle
 10
45.625
 20
129.484375
 30
0.0
 40
1.515625
100
AcDbArc
 50
42.07502205084363
 51
137.9249779491563
  0
ARC
  5
29B
330
33B3
100
AcDbEntity
  8
PEF-L30AG
100
AcDbCircle
 10
42.25
 20
125.6874999999999
 30
0.0
 40
5.3125
100
AcDbArc
 50
64.94238458169697
 51
115.0576154183029
  0
LINE
  5
29C
330
33B3
100
AcDbEntity
  8
PEF-L30AG
100
AcDbLine
 10
37.75
 20
130.4999999999999
 30
0.0
 11
37.75
 21
127.5
 31
0.0
  0
LINE
  5
29D
330
33B3
100
AcDbEntity
  8
PEF-L30AG
100
AcDbLine
 10
37.75
 20
127.5
 30
0.0
 11
46.74999999999999
 21
127.5
 31
0.0
  0
LINE
  5
29E
330
33B3
100
AcDbEntity
  8
PEF-L30AG
100
AcDbLine
 10
46.74999999999999
 20
127.5
 30
0.0
 11
46.74999999999999
 21
126.75
 31
0.0
  0
LINE
  5
29F
330
33B3
100
AcDbEntity
  8
PEF-L30AG
100
AcDbLine
 10
37.75
 20
127.5
 30
0.0
 11
37.75
 21
126.75
 31
0.0
  0
LINE
  5
2B6
330
33B3
100
AcDbEntity
  8
PEF-L30AG
100
AcDbLine
 10
40.49999999999999
 20
127.5
 30
0.0
 11
39.75
 21
126.75
 31
0.0
  0
LINE
  5
2B7
330
33B3
100
AcDbEntity
  8
PEF-L30AG
100
AcDbLine
 10
39.5
 20
127.5
 30
0.0
 11
38.75
 21
126.75
 31
0.0
  0
LINE
  5
2B8
330
33B3
100
AcDbEntity
  8
PEF-L30AG
100
AcDbLine
 10
45.0
 20
127.5
 30
0.0
 11
44.24999999999999
 21
126.75
 31
0.0
  0
LINE
  5
2B9
330
33B3
100
AcDbEntity
  8
PEF-L30AG
100
AcDbLine
 10
46.0
 20
127.5
 30
0.0
 11
45.25
 21
126.75
 31
0.0
  0
LINE
  5
2BA
330
33B3
100
AcDbEntity
  8
PEF-L30AG
100
AcDbLine
 10
73.0
 20
181.0
 30
0.0
 11
72.25
 21
180.25
 31
0.0
  0
LINE
  5
2BB
330
33B3
100
AcDbEntity
  8
PEF-L30AG
100
AcDbLine
 10
72.0
 20
181.0
 30
0.0
 11
71.25
 21
180.25
 31
0.0
  0
LINE
  5
2BC
330
33B3
100
AcDbEntity
  8
PEF-L30AG
100
AcDbLine
 10
67.25
 20
181.0
 30
0.0
 11
66.5
 21
180.25
 31
0.0
  0
LINE
  5
2BD
330
33B3
100
AcDbEntity
  8
PEF-L30AG
100
AcDbLine
 10
66.25
 20
181.0
 30
0.0
 11
65.5
 21
180.25
 31
0.0
  0
LINE
  5
2BE
330
33B3
100
AcDbEntity
  8
PEF-L30AG
100
AcDbLine
 10
143.0
 20
127.5
 30
0.0
 11
142.25
 21
126.75
 31
0.0
  0
LINE
  5
2BF
330
33B3
100
AcDbEntity
  8
PEF-L30AG
100
AcDbLine
 10
142.0
 20
127.5
 30
0.0
 11
141.25
 21
126.75
 31
0.0
  0
LINE
  5
2C0
330
33B3
100
AcDbEntity
  8
PEF-L30AG
100
AcDbLine
 10
143.75
 20
127.5
 30
0.0
 11
143.75
 21
126.75
 31
0.0
  0
LINE
  5
2C1
330
33B3
100
AcDbEntity
  8
PEF-L30AG
100
AcDbLine
 10
137.5
 20
127.5
 30
0.0
 11
136.7499999999999
 21
126.75
 31
0.0
  0
LINE
  5
2C2
330
33B3
100
AcDbEntity
  8
PEF-L30AG
100
AcDbLine
 10
134.7499999999999
 20
127.5
 30
0.0
 11
134.7499999999999
 21
126.75
 31
0.0
  0
LINE
  5
2C3
330
33B3
100
AcDbEntity
  8
PEF-L30AG
100
AcDbLine
 10
136.4999999999999
 20
127.5
 30
0.0
 11
135.7499999999999
 21
126.75
 31
0.0
  0
LINE
  5
2C4
330
33B3
100
AcDbEntity
  8
PEF-L30AG
100
AcDbLine
 10
135.875
 20
131.0
 30
0.0
 11
142.625
 21
131.0
 31
0.0
  0
ARC
  5
2C5
330
33B3
100
AcDbEntity
  8
PEF-L30AG
100
AcDbCircle
 10
135.875
 20
129.484375
 30
0.0
 40
1.515625
100
AcDbArc
 50
42.07502205084363
 51
137.9249779491563
  0
LINE
  5
2C6
330
33B3
100
AcDbEntity
  8
PEF-L30AG
100
AcDbLine
 10
134.7499999999999
 20
127.5
 30
0.0
 11
143.75
 21
127.5
 31
0.0
  0
LINE
  5
2C7
330
33B3
100
AcDbEntity
  8
PEF-L30AG
100
AcDbLine
 10
134.7499999999999
 20
130.4999999999999
 30
0.0
 11
134.7499999999999
 21
127.5
 31
0.0
  0
ARC
  5
2C8
330
33B3
100
AcDbEntity
  8
PEF-L30AG
100
AcDbCircle
 10
139.25
 20
125.6874999999999
 30
0.0
 40
5.3125
100
AcDbArc
 50
64.94238458169697
 51
115.0576154183029
  0
LINE
  5
2C9
330
33B3
100
AcDbEntity
  8
PEF-L30AG
100
AcDbLine
 10
137.0
 20
130.4999999999999
 30
0.0
 11
137.0
 21
127.5
 31
0.0
  0
ARC
  5
2CA
330
33B3
100
AcDbEntity
  8
PEF-L30AG
100
AcDbCircle
 10
142.625
 20
129.484375
 30
0.0
 40
1.515625
100
AcDbArc
 50
42.07502205084363
 51
137.9249779491563
  0
LINE
  5
2CB
330
33B3
100
AcDbEntity
  8
PEF-L30AG
100
AcDbLine
 10
143.75
 20
130.4999999999999
 30
0.0
 11
143.75
 21
127.5
 31
0.0
  0
LINE
  5
2CC
330
33B3
100
AcDbEntity
  8
PEF-L30AG
100
AcDbLine
 10
141.5
 20
130.4999999999999
 30
0.0
 11
141.5
 21
127.5
 31
0.0
  0
LINE
  5
2CD
330
33B3
100
AcDbEntity
  8
PEF-L30AG
100
AcDbLine
 10
42.25
 20
134.4999999999999
 30
0.0
 11
42.25
 21
99.50000000000001
 31
0.0
  0
LINE
  5
2F2
330
33B3
100
AcDbEntity
  8
PEF-L30AG
100
AcDbLine
 10
276.0
 20
118.75
 30
0.0
 11
336.0
 21
118.75
 31
0.0
  0
LINE
  5
2F3
330
33B3
100
AcDbEntity
  8
PEF-L30AG
100
AcDbLine
 10
336.0
 20
118.75
 30
0.0
 11
336.0
 21
126.75
 31
0.0
  0
LINE
  5
2F4
330
33B3
100
AcDbEntity
  8
PEF-L30AG
100
AcDbLine
 10
276.0
 20
118.75
 30
0.0
 11
276.0
 21
126.75
 31
0.0
  0
LINE
  5
2F6
330
33B3
100
AcDbEntity
  8
PEF-L30AG
100
AcDbLine
 10
276.0
 20
120.2499999999999
 30
0.0
 11
336.0
 21
120.25
 31
0.0
  0
LINE
  5
2F7
330
33B3
100
AcDbEntity
  8
PEF-L30AG
100
AcDbLine
 10
306.0
 20
114.25
 30
0.0
 11
306.0
 21
200.4999999999999
 31
0.0
  0
LINE
  5
33A
330
33B3
100
AcDbEntity
  8
PEF-L30AG
100
AcDbLine
 10
335.0
 20
145.25
 30
0.0
 11
324.75
 21
145.25
 31
0.0
  0
LINE
  5
33B
330
33B3
100
AcDbEntity
  8
PEF-L30AG
100
AcDbLine
 10
276.0
 20
126.75
 30
0.0
 11
276.0
 21
135.25
 31
0.0
  0
LINE
  5
33C
330
33B3
100
AcDbEntity
  8
PEF-L30AG
100
AcDbLine
 10
276.0
 20
135.25
 30
0.0
 11
276.5
 21
135.25
 31
0.0
  0
LINE
  5
33D
330
33B3
100
AcDbEntity
  8
PEF-L30AG
100
AcDbLine
 10
336.0
 20
126.75
 30
0.0
 11
336.0
 21
135.25
 31
0.0
  0
LINE
  5
33E
330
33B3
100
AcDbEntity
  8
PEF-L30AG
100
AcDbLine
 10
336.0
 20
135.25
 30
0.0
 11
335.4999999999999
 21
135.25
 31
0.0
  0
LINE
  5
33F
330
33B3
100
AcDbEntity
  8
PEF-L30AG
100
AcDbLine
 10
328.5
 20
99.25
 30
0.0
 11
328.5
 21
133.25
 31
0.0
  0
LINE
  5
340
330
33B3
100
AcDbEntity
  8
PEF-L30AG
100
AcDbLine
 10
283.4999999999999
 20
99.25
 30
0.0
 11
283.4999999999999
 21
133.25
 31
0.0
  0
LINE
  5
341
330
33B3
100
AcDbEntity
  8
PEF-L30AG
100
AcDbLine
 10
291.0
 20
103.4999999999999
 30
0.0
 11
240.5
 21
103.4999999999999
 31
0.0
  0
LINE
  5
342
330
33B3
100
AcDbEntity
  8
PEF-L30AG
100
AcDbLine
 10
291.0
 20
105.75
 30
0.0
 11
240.5
 21
105.75
 31
0.0
  0
LINE
  5
343
330
33B3
100
AcDbEntity
  8
PEF-L30AG
100
AcDbLine
 10
291.0
 20
118.75
 30
0.0
 11
291.0
 21
116.5
 31
0.0
  0
LINE
  5
344
330
33B3
100
AcDbEntity
  8
PEF-L30AG
100
AcDbLine
 10
290.0
 20
115.5
 30
0.0
 11
290.0
 21
106.75
 31
0.0
  0
LINE
  5
345
330
33B3
100
AcDbEntity
  8
PEF-L30AG
100
AcDbLine
 10
291.0
 20
105.75
 30
0.0
 11
291.0
 21
103.4999999999999
 31
0.0
  0
ARC
  5
346
330
33B3
100
AcDbEntity
  8
PEF-L30AG
100
AcDbCircle
 10
291.0
 20
106.75
 30
0.0
 40
1.0
100
AcDbArc
 50
180.0
 51
270.0
  0
LINE
  5
347
330
33B3
100
AcDbEntity
  8
PEF-L30AG
100
AcDbLine
 10
291.0
 20
116.5
 30
0.0
 11
276.0
 21
116.5
 31
0.0
  0
ARC
  5
348
330
33B3
100
AcDbEntity
  8
PEF-L30AG
100
AcDbCircle
 10
291.0
 20
115.5
 30
0.0
 40
1.0
100
AcDbArc
 50
90.0
 51
180.0
  0
LINE
  5
349
330
33B3
100
AcDbEntity
  8
PEF-L30AG
100
AcDbLine
 10
271.4999999999999
 20
103.4999999999999
 30
0.0
 11
271.4999999999999
 21
105.75
 31
0.0
  0
LINE
  5
34A
330
33B3
100
AcDbEntity
  8
PEF-L30AG
100
AcDbLine
 10
276.0
 20
118.75
 30
0.0
 11
276.0
 21
116.5
 31
0.0
  0
LINE
  5
34B
330
33B3
100
AcDbEntity
  8
PEF-L30AG
100
AcDbLine
 10
277.0
 20
115.5
 30
0.0
 11
277.0
 21
106.75
 31
0.0
  0
ARC
  5
34C
330
33B3
100
AcDbEntity
  8
PEF-L30AG
100
AcDbCircle
 10
276.0
 20
106.75
 30
0.0
 40
1.0
100
AcDbArc
 50
270.0
 51
0.0
  0
ARC
  5
34D
330
33B3
100
AcDbEntity
  8
PEF-L30AG
100
AcDbCircle
 10
276.0
 20
115.5
 30
0.0
 40
1.0
100
AcDbArc
 50
0.0
 51
90.0
  0
LINE
  5
34E
330
33B3
100
AcDbEntity
  8
PEF-L30AG
100
AcDbLine
 10
240.5
 20
103.4999999999999
 30
0.0
 11
240.5
 21
105.75
 31
0.0
  0
LINE
  5
34F
330
33B3
100
AcDbEntity
  8
PEF-L30AG
100
AcDbLine
 10
245.5
 20
103.4999999999999
 30
0.0
 11
245.5
 21
105.75
 31
0.0
  0
LINE
  5
350
330
33B3
100
AcDbEntity
  8
PEF-L30AG
100
AcDbLine
 10
258.4999999999999
 20
110.0
 30
0.0
 11
258.4999999999999
 21
99.50000000000002
 31
0.0
  0
LINE
  5
351
330
33B3
100
AcDbEntity
  8
PEF-L30AG
100
AcDbLine
 10
321.0
 20
116.5
 30
0.0
 11
336.0
 21
116.5
 31
0.0
  0
LINE
  5
352
330
33B3
100
AcDbEntity
  8
PEF-L30AG
100
AcDbLine
 10
321.0
 20
105.75
 30
0.0
 11
371.4999999999998
 21
105.75
 31
0.0
  0
LINE
  5
353
330
33B3
100
AcDbEntity
  8
PEF-L30AG
100
AcDbLine
 10
321.0
 20
103.4999999999999
 30
0.0
 11
371.4999999999998
 21
103.4999999999999
 31
0.0
  0
LINE
  5
354
330
33B3
100
AcDbEntity
  8
PEF-L30AG
100
AcDbLine
 10
321.0
 20
118.75
 30
0.0
 11
321.0
 21
116.5
 31
0.0
  0
LINE
  5
355
330
33B3
100
AcDbEntity
  8
PEF-L30AG
100
AcDbLine
 10
322.0
 20
115.5
 30
0.0
 11
322.0
 21
106.75
 31
0.0
  0
ARC
  5
356
330
33B3
100
AcDbEntity
  8
PEF-L30AG
100
AcDbCircle
 10
321.0
 20
106.75
 30
0.0
 40
1.0
100
AcDbArc
 50
270.0
 51
0.0
  0
LINE
  5
357
330
33B3
100
AcDbEntity
  8
PEF-L30AG
100
AcDbLine
 10
321.0
 20
105.75
 30
0.0
 11
321.0
 21
103.4999999999999
 31
0.0
  0
ARC
  5
358
330
33B3
100
AcDbEntity
  8
PEF-L30AG
100
AcDbCircle
 10
321.0
 20
115.5
 30
0.0
 40
1.0
100
AcDbArc
 50
0.0
 51
90.0
  0
LINE
  5
359
330
33B3
100
AcDbEntity
  8
PEF-L30AG
100
AcDbLine
 10
371.4999999999998
 20
103.4999999999999
 30
0.0
 11
371.4999999999998
 21
105.75
 31
0.0
  0
LINE
  5
35A
330
33B3
100
AcDbEntity
  8
PEF-L30AG
100
AcDbLine
 10
366.5
 20
103.4999999999999
 30
0.0
 11
366.5
 21
105.75
 31
0.0
  0
LINE
  5
35B
330
33B3
100
AcDbEntity
  8
PEF-L30AG
100
AcDbLine
 10
336.0
 20
118.75
 30
0.0
 11
336.0
 21
116.5
 31
0.0
  0
LINE
  5
35C
330
33B3
100
AcDbEntity
  8
PEF-L30AG
100
AcDbLine
 10
353.5
 20
110.0
 30
0.0
 11
353.5
 21
99.50000000000002
 31
0.0
  0
LINE
  5
35D
330
33B3
100
AcDbEntity
  8
PEF-L30AG
100
AcDbLine
 10
335.0
 20
115.5
 30
0.0
 11
335.0
 21
106.75
 31
0.0
  0
LINE
  5
35E
330
33B3
100
AcDbEntity
  8
PEF-L30AG
100
AcDbLine
 10
340.5
 20
103.4999999999999
 30
0.0
 11
340.5
 21
105.75
 31
0.0
  0
ARC
  5
35F
330
33B3
100
AcDbEntity
  8
PEF-L30AG
100
AcDbCircle
 10
336.0
 20
106.75
 30
0.0
 40
1.0
100
AcDbArc
 50
180.0
 51
270.0
  0
ARC
  5
360
330
33B3
100
AcDbEntity
  8
PEF-L30AG
100
AcDbCircle
 10
336.0
 20
115.5
 30
0.0
 40
1.0
100
AcDbArc
 50
90.0
 51
180.0
  0
LINE
  5
374
330
33B3
100
AcDbEntity
  8
PEF-L30AG
100
AcDbLine
 10
154.8987529697753
 20
192.3297246507123
 30
0.0
 11
158.0380119052148
 21
193.1708865472954
 31
0.0
  0
LINE
  5
379
330
33B3
100
AcDbEntity
  8
PEF-L30AG
100
AcDbLine
 10
154.8987529697753
 20
192.3297246507123
 30
0.0
 11
155.3220389141972
 21
190.7499999999999
 31
0.0
  0
LINE
  5
382
330
33B3
100
AcDbEntity
  8
PEF-L30AG
100
AcDbLine
 10
153.2824692846456
 20
191.896642742542
 30
0.0
 11
154.8987529697753
 21
192.3297246507123
 31
0.0
  0
LINE
  5
391
330
33B3
100
AcDbEntity
  8
PEF-L30AG
100
AcDbLine
 10
163.0866102672728
 20
190.7499999999999
 30
0.0
 11
162.4020157120456
 21
193.3049416626919
 31
0.0
  0
LINE
  5
392
330
33B3
100
AcDbEntity
  8
PEF-L30AG
100
AcDbLine
 10
162.7082019298935
 20
193.1281649673954
 30
0.0
 11
163.3454293123751
 21
190.7499999999999
 31
0.0
  0
LINE
  5
393
330
33B3
100
AcDbEntity
  8
PEF-L30AG
100
AcDbLine
 10
158.7797938634618
 20
192.3343702435577
 30
0.0
 11
159.2043245907349
 21
190.7499999999999
 31
0.0
  0
LINE
  5
394
330
33B3
100
AcDbEntity
  8
PEF-L30AG
100
AcDbLine
 10
158.0380119052148
 20
193.1708865472954
 30
0.0
 11
158.68668650053
 21
190.7499999999999
 31
0.0
  0
LINE
  5
39A
330
33B3
100
AcDbEntity
  8
PEF-L30AG
100
AcDbLine
 10
162.4020157120456
 20
193.3049416626919
 30
0.0
 11
158.7797938634618
 21
192.3343702435577
 31
0.0
  0
LINE
  5
39C
330
33B3
100
AcDbEntity
  8
PEF-L30AG
100
AcDbLine
 10
159.1033176698398
 20
191.1269629606961
 30
0.0
 11
158.8856780030074
 21
190.7499999999999
 31
0.0
  0
LINE
  5
39D
330
33B3
100
AcDbEntity
  8
PEF-L30AG
100
AcDbLine
 10
158.2968309503173
 20
192.2049607210063
 30
0.0
 11
158.7797938634618
 21
192.3343702435577
 31
0.0
  0
LINE
  5
39E
330
33B3
100
AcDbEntity
  8
PEF-L30AG
100
AcDbLine
 10
162.4020157120456
 20
193.3049416626919
 30
0.0
 11
162.7082019298935
 21
193.1281649673954
 31
0.0
  0
LINE
  5
3C0
330
33B3
100
AcDbEntity
  8
PEF-L30AG
100
AcDbLine
 10
97.49596870895295
 20
191.1000643840216
 30
0.0
 11
96.25842454031142
 21
190.7684654234362
 31
0.0
  0
LINE
  5
3DE
330
33B3
100
AcDbEntity
  8
PEF-L30AG
100
AcDbLine
 10
292.0
 20
195.7499999999999
 30
0.0
 11
320.0
 21
195.7499999999999
 31
0.0
  0
LINE
  5
3DF
330
33B3
100
AcDbEntity
  8
PEF-L30AG
100
AcDbLine
 10
292.0
 20
180.75
 30
0.0
 11
294.4999999999998
 21
180.75
 31
0.0
  0
LINE
  5
3E4
330
33B3
100
AcDbEntity
  8
PEF-L30AG
100
AcDbLine
 10
294.4999999999998
 20
184.4775541106938
 30
0.0
 11
317.5
 21
184.4775541106938
 31
0.0
  0
LINE
  5
3E5
330
33B3
100
AcDbEntity
  8
PEF-L30AG
100
AcDbLine
 10
294.4999999999998
 20
183.6363922141106
 30
0.0
 11
317.5
 21
183.6363922141106
 31
0.0
  0
LINE
  5
3E6
330
33B3
100
AcDbEntity
  8
PEF-L30AG
100
AcDbLine
 10
323.2499999999999
 20
190.7499999999999
 30
0.0
 11
323.2499999999999
 21
127.75
 31
0.0
  0
LINE
  5
3E7
330
33B3
100
AcDbEntity
  8
PEF-L30AG
100
AcDbLine
 10
322.0
 20
190.7499999999999
 30
0.0
 11
322.0
 21
162.0685165257813
 31
0.0
  0
LINE
  5
3E8
330
33B3
100
AcDbEntity
  8
PEF-L30AG
100
AcDbLine
 10
290.0
 20
190.7499999999999
 30
0.0
 11
290.0
 21
162.0685165257813
 31
0.0
  0
LINE
  5
3E9
330
33B3
100
AcDbEntity
  8
PEF-L30AG
100
AcDbLine
 10
288.75
 20
190.7499999999999
 30
0.0
 11
288.75
 21
127.75
 31
0.0
  0
CIRCLE
  5
3EA
330
33B3
100
AcDbEntity
  8
PEF-L30AG
100
AcDbCircle
 10
139.25
 20
147.75
 30
0.0
 40
5.0
  0
LINE
  5
3EB
330
33B3
100
AcDbEntity
  8
PEF-L30AG
100
AcDbLine
 10
129.9
 20
147.75
 30
0.0
 11
148.5999999999999
 21
147.75
 31
0.0
  0
LINE
  5
3EC
330
33B3
100
AcDbEntity
  8
PEF-L30AG
100
AcDbLine
 10
91.25000000000005
 20
190.7499999999999
 30
0.0
 11
162.5518038234113
 21
190.7499999999999
 31
0.0
  0
LINE
  5
3ED
330
33B3
100
AcDbEntity
  8
PEF-L30AG
100
AcDbLine
 10
103.0866349398948
 20
127.75
 30
0.0
 11
174.2499999999999
 21
127.75
 31
0.0
  0
ARC
  5
3EE
330
33B3
100
AcDbEntity
  8
PEF-L30AG
100
AcDbCircle
 10
174.2499999999999
 20
132.75
 30
0.0
 40
5.0
100
AcDbArc
 50
270.0
 51
0.0
  0
LINE
  5
3EF
330
33B3
100
AcDbEntity
  8
PEF-L30AG
100
AcDbLine
 10
178.0908890084531
 20
142.4394171458769
 30
0.0
 11
172.9145081064027
 21
161.7579336716581
 31
0.0
  0
LINE
  5
3F0
330
33B3
100
AcDbEntity
  8
PEF-L30AG
100
AcDbLine
 10
179.2499999999999
 20
142.75
 30
0.0
 11
174.0736190979496
 21
162.0685165257813
 31
0.0
  0
LINE
  5
3F1
330
33B3
100
AcDbEntity
  8
PEF-L30AG
100
AcDbLine
 10
179.2499999999999
 20
141.5076685835078
 30
0.0
 11
179.2499999999999
 21
132.75
 31
0.0
  0
LINE
  5
3F2
330
33B3
100
AcDbEntity
  8
PEF-L30AG
100
AcDbLine
 10
179.2499999999999
 20
142.75
 30
0.0
 11
178.0908890084532
 21
142.4394171458769
 31
0.0
  0
ARC
  5
3F3
330
33B3
100
AcDbEntity
  8
PEF-L30AG
100
AcDbCircle
 10
178.8257359312881
 20
142.0151530771649
 30
0.0
 40
0.6
100
AcDbArc
 50
105.0000000000009
 51
284.9999999999996
  0
LINE
  5
3F4
330
33B3
100
AcDbEntity
  8
PEF-L30AG
100
AcDbLine
 10
179.2499999999999
 20
141.5076685835078
 30
0.0
 11
178.9810273583496
 21
141.4355975813915
 31
0.0
  0
LINE
  5
3F5
330
33B3
100
AcDbEntity
  8
PEF-L30AG
100
AcDbLine
 10
173.7630362438266
 20
163.2276275173281
 30
0.0
 11
167.3814329548565
 21
187.0440952255125
 31
0.0
  0
LINE
  5
3F6
330
33B3
100
AcDbEntity
  8
PEF-L30AG
100
AcDbLine
 10
147.75
 20
133.25
 30
0.0
 11
158.75
 21
133.25
 31
0.0
  0
ARC
  5
3F7
330
33B3
100
AcDbEntity
  8
PEF-L30AG
100
AcDbCircle
 10
173.3387721751145
 20
162.4927805944933
 30
0.0
 40
0.6
100
AcDbArc
 50
105.0000000000002
 51
285.0000000000001
  0
LINE
  5
3F8
330
33B3
100
AcDbEntity
  8
PEF-L30AG
100
AcDbLine
 10
173.7630362438266
 20
163.2276275173281
 30
0.0
 11
173.183480748053
 21
163.0723360902665
 31
0.0
  0
LINE
  5
3F9
330
33B3
100
AcDbEntity
  8
PEF-L30AG
100
AcDbLine
 10
174.0736190979496
 20
162.0685165257813
 30
0.0
 11
172.9145081064027
 21
161.7579336716581
 31
0.0
  0
CIRCLE
  5
3FA
330
33B3
100
AcDbEntity
  8
PEF-L30AG
100
AcDbCircle
 10
153.2499999999999
 20
133.25
 30
0.0
 40
2.5
  0
LINE
  5
3FB
330
33B3
100
AcDbEntity
  8
PEF-L30AG
100
AcDbLine
 10
153.2499999999999
 20
138.7499999999999
 30
0.0
 11
153.2499999999999
 21
127.75
 31
0.0
  0
ARC
  5
3FC
330
33B3
100
AcDbEntity
  8
PEF-L30AG
100
AcDbCircle
 10
162.5518038234113
 20
185.7499999999999
 30
0.0
 40
5.0
100
AcDbArc
 50
14.99999999999984
 51
90.0
  0
LINE
  5
3FD
330
33B3
100
AcDbEntity
  8
PEF-L30AG
100
AcDbLine
 10
98.00000000000006
 20
133.25
 30
0.0
 11
108.4999999999999
 21
133.25
 31
0.0
  0
LINE
  5
3FE
330
33B3
100
AcDbEntity
  8
PEF-L30AG
100
AcDbLine
 10
139.25
 20
157.0999999999999
 30
0.0
 11
139.25
 21
138.4
 31
0.0
  0
LINE
  5
3FF
330
33B3
100
AcDbEntity
  8
PEF-L30AG
100
AcDbLine
 10
126.0
 20
127.75
 30
0.0
 11
126.0
 21
127.75
 31
0.0
  0
LINE
  5
400
330
33B3
100
AcDbEntity
  8
PEF-L30AG
100
AcDbLine
 10
98.25700580844952
 20
131.4559047744874
 30
0.0
 11
86.25000000000005
 21
176.2666604983954
 31
0.0
  0
ARC
  5
401
330
33B3
100
AcDbEntity
  8
PEF-L30AG
100
AcDbCircle
 10
103.0866349398948
 20
132.75
 30
0.0
 40
5.0
100
AcDbArc
 50
194.9999999999999
 51
270.0
  0
CIRCLE
  5
402
330
33B3
100
AcDbEntity
  8
PEF-L30AG
100
AcDbCircle
 10
103.2499999999999
 20
133.25
 30
0.0
 40
2.5
  0
LINE
  5
403
330
33B3
100
AcDbEntity
  8
PEF-L30AG
100
AcDbLine
 10
103.2499999999999
 20
138.5
 30
0.0
 11
103.2499999999999
 21
128.0
 31
0.0
  0
ARC
  5
404
330
33B3
100
AcDbEntity
  8
PEF-L30AG
100
AcDbCircle
 10
91.25000000000005
 20
185.7499999999999
 30
0.0
 40
5.0
100
AcDbArc
 50
90.0
 51
180.0
  0
LINE
  5
405
330
33B3
100
AcDbEntity
  8
PEF-L30AG
100
AcDbLine
 10
86.25000000000005
 20
185.7499999999999
 30
0.0
 11
86.25000000000005
 21
176.2666604983955
 31
0.0
  0
LINE
  5
406
330
33B3
100
AcDbEntity
  8
PEF-L30AG
100
AcDbLine
 10
288.75
 20
190.7499999999999
 30
0.0
 11
290.0
 21
190.7499999999999
 31
0.0
  0
LINE
  5
407
330
33B3
100
AcDbEntity
  8
PEF-L30AG
100
AcDbLine
 10
322.0
 20
190.7499999999999
 30
0.0
 11
323.2499999999999
 21
190.7499999999999
 31
0.0
  0
LINE
  5
408
330
33B3
100
AcDbEntity
  8
PEF-L30AG
100
AcDbLine
 10
320.0
 20
195.7499999999999
 30
0.0
 11
320.0
 21
180.75
 31
0.0
  0
LINE
  5
409
330
33B3
100
AcDbEntity
  8
PEF-L30AG
100
AcDbLine
 10
292.0
 20
195.7499999999999
 30
0.0
 11
292.0
 21
180.75
 31
0.0
  0
LINE
  5
40B
330
33B3
100
AcDbEntity
  8
PEF-L30AG
100
AcDbLine
 10
294.4999999999998
 20
163.0407871510724
 30
0.0
 11
317.4999999999998
 21
163.0407871510724
 31
0.0
  0
LINE
  5
40C
330
33B3
100
AcDbEntity
  8
PEF-L30AG
100
AcDbLine
 10
294.4999999999998
 20
162.1996252544893
 30
0.0
 11
317.4999999999998
 21
162.1996252544893
 31
0.0
  0
LINE
  5
413
330
33B3
100
AcDbEntity
  8
PEF-L30AG
100
AcDbLine
 10
294.4999999999998
 20
128.5816900253534
 30
0.0
 11
317.5
 21
128.5816900253534
 31
0.0
  0
LINE
  5
414
330
33B3
100
AcDbEntity
  8
PEF-L30AG
100
AcDbLine
 10
294.4999999999998
 20
129.4228519219366
 30
0.0
 11
317.4999999999998
 21
129.4228519219366
 31
0.0
  0
LINE
  5
416
330
33B3
100
AcDbEntity
  8
PEF-L30AG
100
AcDbLine
 10
294.4999999999998
 20
127.75
 30
0.0
 11
317.5
 21
127.75
 31
0.0
  0
LWPOLYLINE
  5
41D
330
33B3
100
AcDbEntity
  8
PEF-L30AG
100
AcDbPolyline
 90
       16
 70
     1
 43
0.0
 10
315.2499999999998
 20
134.9675999735762
 42
0.1131349928827582
 10
315.0110502651343
 20
136.0101213251224
 42
0.1033997336897447
 10
314.2980970388562
 20
136.9350539002341
 42
0.0920727078959216
 10
313.2657059092806
 20
137.5322229636252
 42
0.085402407645405
 10
312.0
 20
137.7499999999999
 42
0.0854024076454067
 10
310.7342940907193
 20
137.5322229636252
 42
0.0920727078959148
 10
309.7019029611436
 20
136.9350539002341
 42
0.1033997336897656
 10
308.9889497348656
 20
136.0101213251226
 42
0.1131349928828218
 10
308.7499999999999
 20
134.9675999735762
 42
0.1131349928828121
 10
308.9889497348656
 20
133.9250786220302
 42
0.1033997336897874
 10
309.7019029611436
 20
133.0001460469186
 42
0.0920727078959044
 10
310.7342940907193
 20
132.4029769835274
 42
0.0854024076453957
 10
312.0
 20
132.1851999471528
 42
0.0854024076453995
 10
313.2657059092806
 20
132.4029769835274
 42
0.0920727078959166
 10
314.2980970388562
 20
133.0001460469186
 42
0.1033997336897639
 10
315.0110502651343
 20
133.9250786220302
 42
0.1131349928827844
  0
LWPOLYLINE
  5
42F
330
33B3
100
AcDbEntity
  8
PEF-L30AG
100
AcDbPolyline
 90
       16
 70
     1
 43
0.0
 10
315.5
 20
134.9675999735762
 42
0.1119550289883007
 10
315.2419134861752
 20
136.1057876825725
 42
0.1030865627603325
 10
314.4748737341529
 20
137.1118305955308
 42
0.0926082477696933
 10
313.3614002876868
 20
137.7631103625709
 42
0.0863534309692997
 10
312.0
 20
138.0
 42
0.0863534309693013
 10
310.6385997123128
 20
137.7631103625709
 42
0.0926082477696869
 10
309.525126265847
 20
137.1118305955308
 42
0.1030865627603633
 10
308.7580865138247
 20
136.1057876825725
 42
0.1119550289883129
 10
308.4999999999999
 20
134.9675999735762
 42
0.1119550289883206
 10
308.7580865138248
 20
133.82941226458
 42
0.10308656276034
 10
309.525126265847
 20
132.823369351622
 42
0.0926082477696887
 10
310.638599712313
 20
132.1720895845817
 42
0.0863534309692946
 10
312.0
 20
131.9351999471527
 42
0.0863534309692997
 10
313.3614002876868
 20
132.1720895845817
 42
0.0926082477696937
 10
314.4748737341529
 20
132.823369351622
 42
0.1030865627603544
 10
315.2419134861751
 20
133.82941226458
 42
0.1119550289883433
  0
LINE
  5
441
330
33B3
100
AcDbEntity
  8
PEF-L30AG
100
AcDbLine
 10
315.5
 20
134.9675999735762
 30
0.0
 11
315.5
 21
133.75
 31
0.0
  0
LINE
  5
442
330
33B3
100
AcDbEntity
  8
PEF-L30AG
100
AcDbLine
 10
308.4999999999999
 20
134.9675999735762
 30
0.0
 11
308.4999999999999
 21
133.75
 31
0.0
  0
LWPOLYLINE
  5
495
330
33B3
100
AcDbEntity
  8
PEF-L30AG
100
AcDbPolyline
 90
        9
 70
     0
 43
0.0
 10
308.4999999999999
 20
133.75
 42
0.1119550289883206
 10
308.7580865138248
 20
132.6118122910035
 42
0.10308656276034
 10
309.525126265847
 20
131.6057693780456
 42
0.0926082477696887
 10
310.638599712313
 20
130.9544896110053
 42
0.0863534309692946
 10
312.0
 20
130.7175999735762
 42
0.0863534309692997
 10
313.3614002876868
 20
130.9544896110053
 42
0.0926082477696937
 10
314.4748737341529
 20
131.6057693780456
 42
0.1030865627603544
 10
315.2419134861751
 20
132.6118122910035
 42
0.1119550289883433
 10
315.5
 20
133.75
 42
0.1119550289883007
  0
LWPOLYLINE
  5
4B2
330
33B3
100
AcDbEntity
  8
PEF-L30AG
100
AcDbPolyline
 90
        2
 70
     0
 43
0.0
 10
315.75
 20
133.75
 42
0.1070375901346893
 10
315.4993174689293
 20
134.9075860851479
 42
0.103227174426423
  0
LWPOLYLINE
  5
4B6
330
33B3
100
AcDbEntity
  8
PEF-L30AG
100
AcDbPolyline
 90
       10
 70
     0
 43
0.0
 10
308.5006825310705
 20
134.9075860851479
 42
0.1070375901346787
 10
308.25
 20
133.75
 42
0.1124784045813953
 10
308.5261624844103
 20
132.5379066843185
 42
0.1032271744264029
 10
309.3483495705504
 20
131.4647633036414
 42
0.0923709529987339
 10
310.540559356021
 20
130.7708713450518
 42
0.0859295931771069
 10
312.0
 20
130.5181872707769
 42
0.0859295931771003
 10
313.459440643979
 20
130.7708713450518
 42
0.0923709529987132
 10
314.6516504294495
 20
131.4647633036414
 42
0.1032271744264002
 10
315.4738375155896
 20
132.5379066843185
 42
0.1124784045814102
 10
315.75
 20
133.75
 42
0.1124784045814192
  0
LWPOLYLINE
  5
4C6
330
33B3
100
AcDbEntity
  8
PEF-L30AG
100
AcDbPolyline
 90
        6
 70
     1
 43
0.0
 10
311.1152684322381
 20
136.4999999999999
 10
310.2305368644763
 20
134.9675999735762
 10
311.1152684322381
 20
133.4351999471528
 10
312.8847315677616
 20
133.4351999471528
 10
313.7694631355236
 20
134.9675999735762
 10
312.8847315677616
 20
136.4999999999999
  0
LWPOLYLINE
  5
4D6
330
33B3
100
AcDbEntity
  8
PEF-L30AG
100
AcDbPolyline
 90
        2
 70
     0
 43
0.0
 10
311.1152684322381
 20
136.0
 10
310.3748744317736
 20
134.7175999735761
  0
LWPOLYLINE
  5
4DA
330
33B3
100
AcDbEntity
  8
PEF-L30AG
100
AcDbPolyline
 90
        3
 70
     0
 43
0.0
 10
313.6251255682263
 20
134.7175999735762
 10
312.8847315677616
 20
136.0
 10
311.1152684322381
 20
136.0
  0
LWPOLYLINE
  5
4DF
330
33B3
100
AcDbEntity
  8
PEF-L30AG
100
AcDbPolyline
 90
        3
 70
     0
 43
0.0
 10
301.6251255682262
 20
134.7175999735762
 10
300.8847315677616
 20
136.0
 10
299.1152684322381
 20
136.0
  0
LWPOLYLINE
  5
4E4
330
33B3
100
AcDbEntity
  8
PEF-L30AG
100
AcDbPolyline
 90
        6
 70
     1
 43
0.0
 10
299.1152684322381
 20
136.4999999999999
 10
298.2305368644763
 20
134.9675999735762
 10
299.1152684322381
 20
133.4351999471528
 10
300.8847315677616
 20
133.4351999471528
 10
301.7694631355236
 20
134.9675999735762
 10
300.8847315677616
 20
136.4999999999999
  0
LWPOLYLINE
  5
4EC
330
33B3
100
AcDbEntity
  8
PEF-L30AG
100
AcDbPolyline
 90
       10
 70
     0
 43
0.0
 10
296.5006825310703
 20
134.9075860851479
 42
0.1070375901346787
 10
296.25
 20
133.75
 42
0.1124784045813953
 10
296.5261624844103
 20
132.5379066843185
 42
0.1032271744264029
 10
297.3483495705504
 20
131.4647633036414
 42
0.0923709529987339
 10
298.5405593560211
 20
130.7708713450518
 42
0.0859295931771069
 10
300.0
 20
130.5181872707769
 42
0.0859295931771003
 10
301.459440643979
 20
130.7708713450518
 42
0.0923709529987132
 10
302.6516504294495
 20
131.4647633036414
 42
0.1032271744264002
 10
303.4738375155896
 20
132.5379066843185
 42
0.1124784045814102
 10
303.75
 20
133.75
 42
0.1124784045814192
  0
LWPOLYLINE
  5
4F8
330
33B3
100
AcDbEntity
  8
PEF-L30AG
100
AcDbPolyline
 90
        9
 70
     0
 43
0.0
 10
296.4999999999998
 20
133.75
 42
0.1119550289883206
 10
296.7580865138248
 20
132.6118122910035
 42
0.10308656276034
 10
297.525126265847
 20
131.6057693780456
 42
0.0926082477696887
 10
298.638599712313
 20
130.9544896110053
 42
0.0863534309692946
 10
300.0
 20
130.7175999735762
 42
0.0863534309692997
 10
301.3614002876868
 20
130.9544896110053
 42
0.0926082477696937
 10
302.4748737341527
 20
131.6057693780456
 42
0.1030865627603544
 10
303.2419134861751
 20
132.6118122910035
 42
0.1119550289883433
 10
303.5
 20
133.75
 42
0.1119550289883007
  0
LWPOLYLINE
  5
503
330
33B3
100
AcDbEntity
  8
PEF-L30AG
100
AcDbPolyline
 90
       16
 70
     1
 43
0.0
 10
303.25
 20
134.9675999735762
 42
0.1131349928827582
 10
303.0110502651343
 20
136.0101213251224
 42
0.1033997336897447
 10
302.2980970388562
 20
136.9350539002341
 42
0.0920727078959216
 10
301.2657059092806
 20
137.5322229636252
 42
0.085402407645405
 10
300.0
 20
137.7499999999999
 42
0.0854024076454067
 10
298.7342940907191
 20
137.5322229636252
 42
0.0920727078959148
 10
297.7019029611436
 20
136.9350539002341
 42
0.1033997336897656
 10
296.9889497348656
 20
136.0101213251226
 42
0.1131349928828218
 10
296.75
 20
134.9675999735762
 42
0.1131349928828121
 10
296.9889497348656
 20
133.9250786220302
 42
0.1033997336897874
 10
297.7019029611436
 20
133.0001460469186
 42
0.0920727078959044
 10
298.7342940907191
 20
132.4029769835274
 42
0.0854024076453957
 10
300.0
 20
132.1851999471528
 42
0.0854024076453995
 10
301.2657059092806
 20
132.4029769835274
 42
0.0920727078959166
 10
302.2980970388562
 20
133.0001460469186
 42
0.1033997336897639
 10
303.0110502651343
 20
133.9250786220302
 42
0.1131349928827844
  0
LWPOLYLINE
  5
515
330
33B3
100
AcDbEntity
  8
PEF-L30AG
100
AcDbPolyline
 90
       16
 70
     1
 43
0.0
 10
303.5
 20
134.9675999735762
 42
0.1119550289883007
 10
303.2419134861751
 20
136.1057876825725
 42
0.1030865627603325
 10
302.4748737341527
 20
137.1118305955308
 42
0.0926082477696933
 10
301.3614002876868
 20
137.7631103625709
 42
0.0863534309692997
 10
300.0
 20
138.0
 42
0.0863534309693013
 10
298.6385997123128
 20
137.7631103625709
 42
0.0926082477696869
 10
297.525126265847
 20
137.1118305955308
 42
0.1030865627603633
 10
296.7580865138247
 20
136.1057876825725
 42
0.1119550289883129
 10
296.4999999999998
 20
134.9675999735762
 42
0.1119550289883206
 10
296.7580865138248
 20
133.82941226458
 42
0.10308656276034
 10
297.525126265847
 20
132.823369351622
 42
0.0926082477696887
 10
298.638599712313
 20
132.1720895845817
 42
0.0863534309692946
 10
300.0
 20
131.9351999471527
 42
0.0863534309692997
 10
301.3614002876868
 20
132.1720895845817
 42
0.0926082477696937
 10
302.4748737341527
 20
132.823369351622
 42
0.1030865627603544
 10
303.2419134861751
 20
133.82941226458
 42
0.1119550289883433
  0
LWPOLYLINE
  5
527
330
33B3
100
AcDbEntity
  8
PEF-L30AG
100
AcDbPolyline
 90
        2
 70
     0
 43
0.0
 10
299.1152684322381
 20
136.0
 10
298.3748744317738
 20
134.7175999735761
  0
LINE
  5
52B
330
33B3
100
AcDbEntity
  8
PEF-L30AG
100
AcDbLine
 10
296.4999999999998
 20
134.9675999735762
 30
0.0
 11
296.4999999999998
 21
133.75
 31
0.0
  0
LWPOLYLINE
  5
52C
330
33B3
100
AcDbEntity
  8
PEF-L30AG
100
AcDbPolyline
 90
        2
 70
     0
 43
0.0
 10
303.75
 20
133.75
 42
0.1070375901346893
 10
303.4993174689293
 20
134.9075860851479
 42
0.103227174426423
  0
LINE
  5
530
330
33B3
100
AcDbEntity
  8
PEF-L30AG
100
AcDbLine
 10
303.5
 20
134.9675999735762
 30
0.0
 11
303.5
 21
133.75
 31
0.0
  0
LWPOLYLINE
  5
531
330
33B3
100
AcDbEntity
  8
PEF-L30AG
100
AcDbPolyline
 90
       16
 70
     1
 43
0.0
 10
303.5
 20
168.5855352027121
 42
0.1119550289883007
 10
303.2419134861751
 20
169.7237229117085
 42
0.1030865627603325
 10
302.4748737341527
 20
170.7297658246666
 42
0.0926082477696933
 10
301.3614002876868
 20
171.3810455917069
 42
0.0863534309692997
 10
300.0
 20
171.6179352291358
 42
0.0863534309693013
 10
298.6385997123128
 20
171.3810455917069
 42
0.0926082477696869
 10
297.525126265847
 20
170.7297658246666
 42
0.1030865627603633
 10
296.7580865138247
 20
169.7237229117084
 42
0.1119550289883129
 10
296.4999999999998
 20
168.5855352027121
 42
0.1119550289883206
 10
296.7580865138248
 20
167.4473474937158
 42
0.10308656276034
 10
297.525126265847
 20
166.4413045807578
 42
0.0926082477696887
 10
298.638599712313
 20
165.7900248137176
 42
0.0863534309692946
 10
300.0
 20
165.5531351762885
 42
0.0863534309692997
 10
301.3614002876868
 20
165.7900248137176
 42
0.0926082477696937
 10
302.4748737341527
 20
166.4413045807578
 42
0.1030865627603544
 10
303.2419134861751
 20
167.4473474937158
 42
0.1119550289883433
  0
LWPOLYLINE
  5
543
330
33B3
100
AcDbEntity
  8
PEF-L30AG
100
AcDbPolyline
 90
       16
 70
     1
 43
0.0
 10
303.25
 20
168.5855352027121
 42
0.1131349928827582
 10
303.0110502651343
 20
169.6280565542583
 42
0.1033997336897447
 10
302.2980970388562
 20
170.55298912937
 42
0.0920727078959216
 10
301.2657059092806
 20
171.150158192761
 42
0.085402407645405
 10
300.0
 20
171.3679352291356
 42
0.0854024076454067
 10
298.7342940907191
 20
171.150158192761
 42
0.0920727078959148
 10
297.7019029611436
 20
170.55298912937
 42
0.1033997336897656
 10
296.9889497348656
 20
169.6280565542584
 42
0.1131349928828218
 10
296.75
 20
168.5855352027121
 42
0.1131349928828121
 10
296.9889497348656
 20
167.5430138511661
 42
0.1033997336897874
 10
297.7019029611436
 20
166.6180812760545
 42
0.0920727078959044
 10
298.7342940907191
 20
166.0209122126633
 42
0.0854024076453957
 10
300.0
 20
165.8031351762885
 42
0.0854024076453995
 10
301.2657059092806
 20
166.0209122126633
 42
0.0920727078959166
 10
302.2980970388562
 20
166.6180812760545
 42
0.1033997336897639
 10
303.0110502651343
 20
167.5430138511661
 42
0.1131349928827844
  0
LWPOLYLINE
  5
555
330
33B3
100
AcDbEntity
  8
PEF-L30AG
100
AcDbPolyline
 90
        9
 70
     0
 43
0.0
 10
296.4999999999998
 20
167.3679352291358
 42
0.1119550289883206
 10
296.7580865138248
 20
166.2297475201395
 42
0.10308656276034
 10
297.525126265847
 20
165.2237046071815
 42
0.0926082477696887
 10
298.638599712313
 20
164.5724248401412
 42
0.0863534309692946
 10
300.0
 20
164.3355352027121
 42
0.0863534309692997
 10
301.3614002876868
 20
164.5724248401412
 42
0.0926082477696937
 10
302.4748737341527
 20
165.2237046071815
 42
0.1030865627603544
 10
303.2419134861751
 20
166.2297475201395
 42
0.1119550289883433
 10
303.5
 20
167.3679352291358
 42
0.1119550289883007
  0
LWPOLYLINE
  5
560
330
33B3
100
AcDbEntity
  8
PEF-L30AG
100
AcDbPolyline
 90
       10
 70
     0
 43
0.0
 10
296.5006825310703
 20
168.5255213142838
 42
0.1070375901346787
 10
296.25
 20
167.3679352291358
 42
0.1124784045813953
 10
296.5261624844103
 20
166.1558419134544
 42
0.1032271744264029
 10
297.3483495705504
 20
165.0826985327771
 42
0.0923709529987339
 10
298.5405593560211
 20
164.3888065741878
 42
0.0859295931771069
 10
300.0
 20
164.1361224999128
 42
0.0859295931771003
 10
301.459440643979
 20
164.3888065741878
 42
0.0923709529987132
 10
302.6516504294495
 20
165.0826985327771
 42
0.1032271744264002
 10
303.4738375155896
 20
166.1558419134543
 42
0.1124784045814102
 10
303.75
 20
167.3679352291358
 42
0.1124784045814192
  0
LWPOLYLINE
  5
56C
330
33B3
100
AcDbEntity
  8
PEF-L30AG
100
AcDbPolyline
 90
        2
 70
     0
 43
0.0
 10
299.1152684322381
 20
169.6179352291358
 10
298.3748744317738
 20
168.335535202712
  0
LWPOLYLINE
  5
570
330
33B3
100
AcDbEntity
  8
PEF-L30AG
100
AcDbPolyline
 90
        6
 70
     1
 43
0.0
 10
299.1152684322381
 20
170.1179352291358
 10
298.2305368644763
 20
168.5855352027121
 10
299.1152684322381
 20
167.0531351762885
 10
300.8847315677616
 20
167.0531351762885
 10
301.7694631355236
 20
168.5855352027121
 10
300.8847315677616
 20
170.1179352291358
  0
LWPOLYLINE
  5
578
330
33B3
100
AcDbEntity
  8
PEF-L30AG
100
AcDbPolyline
 90
        3
 70
     0
 43
0.0
 10
301.6251255682262
 20
168.3355352027121
 10
300.8847315677616
 20
169.6179352291358
 10
299.1152684322381
 20
169.6179352291358
  0
LINE
  5
57D
330
33B3
100
AcDbEntity
  8
PEF-L30AG
100
AcDbLine
 10
296.4999999999998
 20
168.5855352027121
 30
0.0
 11
296.4999999999998
 21
167.3679352291358
 31
0.0
  0
LWPOLYLINE
  5
57E
330
33B3
100
AcDbEntity
  8
PEF-L30AG
100
AcDbPolyline
 90
        3
 70
     0
 43
0.0
 10
313.6251255682263
 20
168.3355352027121
 10
312.8847315677616
 20
169.6179352291358
 10
311.1152684322381
 20
169.6179352291358
  0
LWPOLYLINE
  5
583
330
33B3
100
AcDbEntity
  8
PEF-L30AG
100
AcDbPolyline
 90
        6
 70
     1
 43
0.0
 10
311.1152684322381
 20
170.1179352291358
 10
310.2305368644763
 20
168.5855352027121
 10
311.1152684322381
 20
167.0531351762885
 10
312.8847315677616
 20
167.0531351762885
 10
313.7694631355236
 20
168.5855352027121
 10
312.8847315677616
 20
170.1179352291358
  0
LWPOLYLINE
  5
58B
330
33B3
100
AcDbEntity
  8
PEF-L30AG
100
AcDbPolyline
 90
       10
 70
     0
 43
0.0
 10
308.5006825310705
 20
168.5255213142838
 42
0.1070375901346787
 10
308.25
 20
167.3679352291358
 42
0.1124784045813953
 10
308.5261624844103
 20
166.1558419134544
 42
0.1032271744264029
 10
309.3483495705504
 20
165.0826985327771
 42
0.0923709529987339
 10
310.540559356021
 20
164.3888065741878
 42
0.0859295931771069
 10
312.0
 20
164.1361224999128
 42
0.0859295931771003
 10
313.459440643979
 20
164.3888065741878
 42
0.0923709529987132
 10
314.6516504294495
 20
165.0826985327771
 42
0.1032271744264002
 10
315.4738375155896
 20
166.1558419134543
 42
0.1124784045814102
 10
315.75
 20
167.3679352291358
 42
0.1124784045814192
  0
LWPOLYLINE
  5
597
330
33B3
100
AcDbEntity
  8
PEF-L30AG
100
AcDbPolyline
 90
        9
 70
     0
 43
0.0
 10
308.4999999999999
 20
167.3679352291358
 42
0.1119550289883206
 10
308.7580865138248
 20
166.2297475201395
 42
0.10308656276034
 10
309.525126265847
 20
165.2237046071815
 42
0.0926082477696887
 10
310.638599712313
 20
164.5724248401412
 42
0.0863534309692946
 10
312.0
 20
164.3355352027121
 42
0.0863534309692997
 10
313.3614002876868
 20
164.5724248401412
 42
0.0926082477696937
 10
314.4748737341529
 20
165.2237046071815
 42
0.1030865627603544
 10
315.2419134861751
 20
166.2297475201395
 42
0.1119550289883433
 10
315.5
 20
167.3679352291358
 42
0.1119550289883007
  0
LWPOLYLINE
  5
5A2
330
33B3
100
AcDbEntity
  8
PEF-L30AG
100
AcDbPolyline
 90
       16
 70
     1
 43
0.0
 10
315.2499999999998
 20
168.5855352027121
 42
0.1131349928827582
 10
315.0110502651343
 20
169.6280565542583
 42
0.1033997336897447
 10
314.2980970388562
 20
170.55298912937
 42
0.0920727078959216
 10
313.2657059092806
 20
171.150158192761
 42
0.085402407645405
 10
312.0
 20
171.3679352291356
 42
0.0854024076454067
 10
310.7342940907193
 20
171.150158192761
 42
0.0920727078959148
 10
309.7019029611436
 20
170.55298912937
 42
0.1033997336897656
 10
308.9889497348656
 20
169.6280565542584
 42
0.1131349928828218
 10
308.7499999999999
 20
168.5855352027121
 42
0.1131349928828121
 10
308.9889497348656
 20
167.5430138511661
 42
0.1033997336897874
 10
309.7019029611436
 20
166.6180812760545
 42
0.0920727078959044
 10
310.7342940907193
 20
166.0209122126633
 42
0.0854024076453957
 10
312.0
 20
165.8031351762885
 42
0.0854024076453995
 10
313.2657059092806
 20
166.0209122126633
 42
0.0920727078959166
 10
314.2980970388562
 20
166.6180812760545
 42
0.1033997336897639
 10
315.0110502651343
 20
167.5430138511661
 42
0.1131349928827844
  0
LWPOLYLINE
  5
5B4
330
33B3
100
AcDbEntity
  8
PEF-L30AG
100
AcDbPolyline
 90
       16
 70
     1
 43
0.0
 10
315.5
 20
168.5855352027121
 42
0.1119550289883007
 10
315.2419134861752
 20
169.7237229117085
 42
0.1030865627603325
 10
314.4748737341529
 20
170.7297658246666
 42
0.0926082477696933
 10
313.3614002876868
 20
171.3810455917069
 42
0.0863534309692997
 10
312.0
 20
171.6179352291358
 42
0.0863534309693013
 10
310.6385997123128
 20
171.3810455917069
 42
0.0926082477696869
 10
309.525126265847
 20
170.7297658246666
 42
0.1030865627603633
 10
308.7580865138247
 20
169.7237229117084
 42
0.1119550289883129
 10
308.4999999999999
 20
168.5855352027121
 42
0.1119550289883206
 10
308.7580865138248
 20
167.4473474937158
 42
0.10308656276034
 10
309.525126265847
 20
166.4413045807578
 42
0.0926082477696887
 10
310.638599712313
 20
165.7900248137176
 42
0.0863534309692946
 10
312.0
 20
165.5531351762885
 42
0.0863534309692997
 10
313.3614002876868
 20
165.7900248137176
 42
0.0926082477696937
 10
314.4748737341529
 20
166.4413045807578
 42
0.1030865627603544
 10
315.2419134861751
 20
167.4473474937158
 42
0.1119550289883433
  0
LWPOLYLINE
  5
5C6
330
33B3
100
AcDbEntity
  8
PEF-L30AG
100
AcDbPolyline
 90
        2
 70
     0
 43
0.0
 10
311.1152684322381
 20
169.6179352291358
 10
310.3748744317736
 20
168.335535202712
  0
LINE
  5
5CA
330
33B3
100
AcDbEntity
  8
PEF-L30AG
100
AcDbLine
 10
303.5
 20
168.5855352027121
 30
0.0
 11
303.5
 21
167.3679352291358
 31
0.0
  0
LWPOLYLINE
  5
5CB
330
33B3
100
AcDbEntity
  8
PEF-L30AG
100
AcDbPolyline
 90
        2
 70
     0
 43
0.0
 10
303.75
 20
167.3679352291358
 42
0.1070375901346893
 10
303.4993174689293
 20
168.5255213142837
 42
0.103227174426423
  0
LINE
  5
5CF
330
33B3
100
AcDbEntity
  8
PEF-L30AG
100
AcDbLine
 10
308.4999999999999
 20
168.5855352027121
 30
0.0
 11
308.4999999999999
 21
167.3679352291358
 31
0.0
  0
LWPOLYLINE
  5
5D0
330
33B3
100
AcDbEntity
  8
PEF-L30AG
100
AcDbPolyline
 90
        2
 70
     0
 43
0.0
 10
315.75
 20
167.3679352291358
 42
0.1070375901346893
 10
315.4993174689293
 20
168.5255213142837
 42
0.103227174426423
  0
LINE
  5
5D4
330
33B3
100
AcDbEntity
  8
PEF-L30AG
100
AcDbLine
 10
315.5
 20
168.5855352027121
 30
0.0
 11
315.5
 21
167.3679352291358
 31
0.0
  0
LWPOLYLINE
  5
5D5
330
33B3
100
AcDbEntity
  8
PEF-L30AG
100
AcDbPolyline
 90
        9
 70
     0
 43
0.0
 10
308.4999999999999
 20
188.804702188757
 42
0.1119550289883206
 10
308.7580865138248
 20
187.6665144797609
 42
0.10308656276034
 10
309.525126265847
 20
186.6604715668028
 42
0.0926082477696887
 10
310.638599712313
 20
186.0091917997626
 42
0.0863534309692946
 10
312.0
 20
185.7723021623336
 42
0.0863534309692997
 10
313.3614002876868
 20
186.0091917997626
 42
0.0926082477696937
 10
314.4748737341529
 20
186.6604715668028
 42
0.1030865627603544
 10
315.2419134861751
 20
187.6665144797609
 42
0.1119550289883433
 10
315.5
 20
188.804702188757
 42
0.1119550289883007
  0
LWPOLYLINE
  5
5E0
330
33B3
100
AcDbEntity
  8
PEF-L30AG
100
AcDbPolyline
 90
       10
 70
     0
 43
0.0
 10
308.5006825310705
 20
189.9622882739052
 42
0.1070375901346787
 10
308.25
 20
188.804702188757
 42
0.1124784045813953
 10
308.5261624844103
 20
187.5926088730758
 42
0.1032271744264029
 10
309.3483495705504
 20
186.5194654923986
 42
0.0923709529987339
 10
310.540559356021
 20
185.825573533809
 42
0.0859295931771069
 10
312.0
 20
185.5728894595342
 42
0.0859295931771003
 10
313.459440643979
 20
185.825573533809
 42
0.0923709529987132
 10
314.6516504294495
 20
186.5194654923986
 42
0.1032271744264002
 10
315.4738375155896
 20
187.5926088730755
 42
0.1124784045814102
 10
315.75
 20
188.804702188757
 42
0.1124784045814192
  0
LWPOLYLINE
  5
5EC
330
33B3
100
AcDbEntity
  8
PEF-L30AG
100
AcDbPolyline
 90
       10
 70
     0
 43
0.0
 10
296.5006825310703
 20
189.9622882739052
 42
0.1070375901346787
 10
296.25
 20
188.804702188757
 42
0.1124784045813953
 10
296.5261624844103
 20
187.5926088730758
 42
0.1032271744264029
 10
297.3483495705504
 20
186.5194654923986
 42
0.0923709529987339
 10
298.5405593560211
 20
185.825573533809
 42
0.0859295931771069
 10
300.0
 20
185.5728894595342
 42
0.0859295931771003
 10
301.459440643979
 20
185.825573533809
 42
0.0923709529987132
 10
302.6516504294495
 20
186.5194654923986
 42
0.1032271744264002
 10
303.4738375155896
 20
187.5926088730755
 42
0.1124784045814102
 10
303.75
 20
188.804702188757
 42
0.1124784045814192
  0
LWPOLYLINE
  5
5F8
330
33B3
100
AcDbEntity
  8
PEF-L30AG
100
AcDbPolyline
 90
        9
 70
     0
 43
0.0
 10
296.4999999999998
 20
188.804702188757
 42
0.1119550289883206
 10
296.7580865138248
 20
187.6665144797609
 42
0.10308656276034
 10
297.525126265847
 20
186.6604715668028
 42
0.0926082477696887
 10
298.638599712313
 20
186.0091917997626
 42
0.0863534309692946
 10
300.0
 20
185.7723021623336
 42
0.0863534309692997
 10
301.3614002876868
 20
186.0091917997626
 42
0.0926082477696937
 10
302.4748737341527
 20
186.6604715668028
 42
0.1030865627603544
 10
303.2419134861751
 20
187.6665144797609
 42
0.1119550289883433
 10
303.5
 20
188.804702188757
 42
0.1119550289883007
  0
LWPOLYLINE
  5
603
330
33B3
100
AcDbEntity
  8
PEF-L30AG
100
AcDbPolyline
 90
       16
 70
     1
 43
0.0
 10
303.25
 20
190.0223021623336
 42
0.1131349928827582
 10
303.0110502651343
 20
191.0648235138799
 42
0.1033997336897447
 10
302.2980970388562
 20
191.9897560889913
 42
0.0920727078959216
 10
301.2657059092806
 20
192.5869251523825
 42
0.085402407645405
 10
300.0
 20
192.804702188757
 42
0.0854024076454067
 10
298.7342940907191
 20
192.5869251523825
 42
0.0920727078959148
 10
297.7019029611436
 20
191.9897560889913
 42
0.1033997336897656
 10
296.9889497348656
 20
191.06482351388
 42
0.1131349928828218
 10
296.75
 20
190.0223021623336
 42
0.1131349928828121
 10
296.9889497348656
 20
188.9797808107872
 42
0.1033997336897874
 10
297.7019029611436
 20
188.0548482356758
 42
0.0920727078959044
 10
298.7342940907191
 20
187.4576791722845
 42
0.0854024076453957
 10
300.0
 20
187.2399021359101
 42
0.0854024076453995
 10
301.2657059092806
 20
187.4576791722845
 42
0.0920727078959166
 10
302.2980970388562
 20
188.0548482356758
 42
0.1033997336897639
 10
303.0110502651343
 20
188.9797808107872
 42
0.1131349928827844
  0
LWPOLYLINE
  5
615
330
33B3
100
AcDbEntity
  8
PEF-L30AG
100
AcDbPolyline
 90
       16
 70
     1
 43
0.0
 10
303.5
 20
190.0223021623336
 42
0.1119550289883007
 10
303.2419134861751
 20
191.1604898713298
 42
0.1030865627603325
 10
302.4748737341527
 20
192.1665327842879
 42
0.0926082477696933
 10
301.3614002876868
 20
192.8178125513283
 42
0.0863534309692997
 10
300.0
 20
193.054702188757
 42
0.0863534309693013
 10
298.6385997123128
 20
192.8178125513283
 42
0.0926082477696869
 10
297.525126265847
 20
192.1665327842879
 42
0.1030865627603633
 10
296.7580865138247
 20
191.1604898713297
 42
0.1119550289883129
 10
296.4999999999998
 20
190.0223021623336
 42
0.1119550289883206
 10
296.7580865138248
 20
188.8841144533373
 42
0.10308656276034
 10
297.525126265847
 20
187.8780715403791
 42
0.0926082477696887
 10
298.638599712313
 20
187.226791773339
 42
0.0863534309692946
 10
300.0
 20
186.9899021359101
 42
0.0863534309692997
 10
301.3614002876868
 20
187.226791773339
 42
0.0926082477696937
 10
302.4748737341527
 20
187.8780715403791
 42
0.1030865627603544
 10
303.2419134861751
 20
188.8841144533373
 42
0.1119550289883433
  0
LWPOLYLINE
  5
627
330
33B3
100
AcDbEntity
  8
PEF-L30AG
100
AcDbPolyline
 90
        6
 70
     1
 43
0.0
 10
299.1152684322381
 20
191.554702188757
 10
298.2305368644763
 20
190.0223021623336
 10
299.1152684322381
 20
188.4899021359101
 10
300.8847315677616
 20
188.4899021359101
 10
301.7694631355236
 20
190.0223021623336
 10
300.8847315677616
 20
191.554702188757
  0
LWPOLYLINE
  5
62F
330
33B3
100
AcDbEntity
  8
PEF-L30AG
100
AcDbPolyline
 90
        2
 70
     0
 43
0.0
 10
299.1152684322381
 20
191.054702188757
 10
298.3748744317738
 20
189.7723021623336
  0
LINE
  5
633
330
33B3
100
AcDbEntity
  8
PEF-L30AG
100
AcDbLine
 10
296.4999999999998
 20
190.0223021623336
 30
0.0
 11
296.4999999999998
 21
188.804702188757
 31
0.0
  0
LWPOLYLINE
  5
634
330
33B3
100
AcDbEntity
  8
PEF-L30AG
100
AcDbPolyline
 90
        3
 70
     0
 43
0.0
 10
301.6251255682262
 20
189.7723021623336
 10
300.8847315677616
 20
191.054702188757
 10
299.1152684322381
 20
191.054702188757
  0
LWPOLYLINE
  5
639
330
33B3
100
AcDbEntity
  8
PEF-L30AG
100
AcDbPolyline
 90
       16
 70
     1
 43
0.0
 10
315.5
 20
190.0223021623336
 42
0.1119550289883007
 10
315.2419134861752
 20
191.1604898713298
 42
0.1030865627603325
 10
314.4748737341529
 20
192.1665327842879
 42
0.0926082477696933
 10
313.3614002876868
 20
192.8178125513283
 42
0.0863534309692997
 10
312.0
 20
193.054702188757
 42
0.0863534309693013
 10
310.6385997123128
 20
192.8178125513283
 42
0.0926082477696869
 10
309.525126265847
 20
192.1665327842879
 42
0.1030865627603633
 10
308.7580865138247
 20
191.1604898713297
 42
0.1119550289883129
 10
308.4999999999999
 20
190.0223021623336
 42
0.1119550289883206
 10
308.7580865138248
 20
188.8841144533373
 42
0.10308656276034
 10
309.525126265847
 20
187.8780715403791
 42
0.0926082477696887
 10
310.638599712313
 20
187.226791773339
 42
0.0863534309692946
 10
312.0
 20
186.9899021359101
 42
0.0863534309692997
 10
313.3614002876868
 20
187.226791773339
 42
0.0926082477696937
 10
314.4748737341529
 20
187.8780715403791
 42
0.1030865627603544
 10
315.2419134861751
 20
188.8841144533373
 42
0.1119550289883433
  0
LWPOLYLINE
  5
64B
330
33B3
100
AcDbEntity
  8
PEF-L30AG
100
AcDbPolyline
 90
       16
 70
     1
 43
0.0
 10
315.2499999999998
 20
190.0223021623336
 42
0.1131349928827582
 10
315.0110502651343
 20
191.0648235138799
 42
0.1033997336897447
 10
314.2980970388562
 20
191.9897560889913
 42
0.0920727078959216
 10
313.2657059092806
 20
192.5869251523825
 42
0.085402407645405
 10
312.0
 20
192.804702188757
 42
0.0854024076454067
 10
310.7342940907193
 20
192.5869251523825
 42
0.0920727078959148
 10
309.7019029611436
 20
191.9897560889913
 42
0.1033997336897656
 10
308.9889497348656
 20
191.06482351388
 42
0.1131349928828218
 10
308.7499999999999
 20
190.0223021623336
 42
0.1131349928828121
 10
308.9889497348656
 20
188.9797808107872
 42
0.1033997336897874
 10
309.7019029611436
 20
188.0548482356758
 42
0.0920727078959044
 10
310.7342940907193
 20
187.4576791722845
 42
0.0854024076453957
 10
312.0
 20
187.2399021359101
 42
0.0854024076453995
 10
313.2657059092806
 20
187.4576791722845
 42
0.0920727078959166
 10
314.2980970388562
 20
188.0548482356758
 42
0.1033997336897639
 10
315.0110502651343
 20
188.9797808107872
 42
0.1131349928827844
  0
LWPOLYLINE
  5
65D
330
33B3
100
AcDbEntity
  8
PEF-L30AG
100
AcDbPolyline
 90
        6
 70
     1
 43
0.0
 10
311.1152684322381
 20
191.554702188757
 10
310.2305368644763
 20
190.0223021623336
 10
311.1152684322381
 20
188.4899021359101
 10
312.8847315677616
 20
188.4899021359101
 10
313.7694631355236
 20
190.0223021623336
 10
312.8847315677616
 20
191.554702188757
  0
LWPOLYLINE
  5
665
330
33B3
100
AcDbEntity
  8
PEF-L30AG
100
AcDbPolyline
 90
        3
 70
     0
 43
0.0
 10
313.6251255682263
 20
189.7723021623336
 10
312.8847315677616
 20
191.054702188757
 10
311.1152684322381
 20
191.054702188757
  0
LWPOLYLINE
  5
66A
330
33B3
100
AcDbEntity
  8
PEF-L30AG
100
AcDbPolyline
 90
        2
 70
     0
 43
0.0
 10
303.75
 20
188.804702188757
 42
0.1070375901346893
 10
303.4993174689293
 20
189.9622882739051
 42
0.103227174426423
  0
LINE
  5
66E
330
33B3
100
AcDbEntity
  8
PEF-L30AG
100
AcDbLine
 10
303.5
 20
190.0223021623336
 30
0.0
 11
303.5
 21
188.804702188757
 31
0.0
  0
LINE
  5
66F
330
33B3
100
AcDbEntity
  8
PEF-L30AG
100
AcDbLine
 10
308.4999999999999
 20
190.0223021623336
 30
0.0
 11
308.4999999999999
 21
188.804702188757
 31
0.0
  0
LWPOLYLINE
  5
670
330
33B3
100
AcDbEntity
  8
PEF-L30AG
100
AcDbPolyline
 90
        2
 70
     0
 43
0.0
 10
311.1152684322381
 20
191.054702188757
 10
310.3748744317736
 20
189.7723021623336
  0
LINE
  5
674
330
33B3
100
AcDbEntity
  8
PEF-L30AG
100
AcDbLine
 10
315.5
 20
190.0223021623336
 30
0.0
 11
315.5
 21
188.804702188757
 31
0.0
  0
LWPOLYLINE
  5
675
330
33B3
100
AcDbEntity
  8
PEF-L30AG
100
AcDbPolyline
 90
        2
 70
     0
 43
0.0
 10
315.75
 20
188.804702188757
 42
0.1070375901346893
 10
315.4993174689293
 20
189.9622882739051
 42
0.103227174426423
  0
LINE
  5
679
330
33B3
100
AcDbEntity
  8
PEF-L30AG
100
AcDbLine
 10
294.4999999999998
 20
193.1708865472954
 30
0.0
 11
317.5
 21
193.1708865472954
 31
0.0
  0
LINE
  5
67A
330
33B3
100
AcDbEntity
  8
PEF-L30AG
100
AcDbLine
 10
317.5
 20
193.1708865472954
 30
0.0
 11
317.5
 21
180.75
 31
0.0
  0
INSERT
  5
1605
330
33B3
100
AcDbEntity
  8
PEF-L30AG
100
AcDbBlockReference
  2
AME_NIL
 10
0.0
 20
0.0
 30
0.0
  0
INSERT
  5
1608
330
33B3
100
AcDbEntity
  8
PEF-L30AG
100
AcDbBlockReference
  2
AME_SOL
 10
0.0
 20
0.0
 30
0.0
1001
AME_SOL
1000
R2.1_c2
1000
AME2
1000
sq cm
1070
     3
1070
     0
1070
     3
1000
wire
1040
45.0
1000
U
1040
1.0
1000
cm
1000
gm
1000
MILD_STEEL
1070
    25
1000
CSG
1070
     1
1070
     3
1070
     3
1070
     3
1070
     0
1000
cu cm
1070
     1
1070
     0
1005
1605
  0
LINE
  5
1609
330
33B3
100
AcDbEntity
  8
PEF-L30AG
100
AcDbLine
 10
294.4999999999998
 20
193.1708865472954
 30
0.0
 11
294.4999999999998
 21
180.75
 31
0.0
  0
LINE
  5
160A
330
33B3
100
AcDbEntity
  8
PEF-L30AG
100
AcDbLine
 10
292.0
 20
183.2033064299418
 30
0.0
 11
294.4999999999998
 21
183.2033064299418
 31
0.0
  0
LINE
  5
160B
330
33B3
100
AcDbEntity
  8
PEF-L30AG
100
AcDbLine
 10
317.5
 20
183.2033064299418
 30
0.0
 11
320.0
 21
183.2033064299418
 31
0.0
  0
LINE
  5
160C
330
33B3
100
AcDbEntity
  8
PEF-L30AG
100
AcDbLine
 10
290.0
 20
142.75
 30
0.0
 11
305.25
 21
142.75
 31
0.0
  0
LINE
  5
160D
330
33B3
100
AcDbEntity
  8
PEF-L30AG
100
AcDbLine
 10
290.0
 20
162.0685165257813
 30
0.0
 11
305.25
 21
162.0685165257813
 31
0.0
  0
LINE
  5
160E
330
33B3
100
AcDbEntity
  8
PEF-L30AG
100
AcDbLine
 10
306.7499999999999
 20
142.75
 30
0.0
 11
306.7499999999999
 21
162.0685165257813
 31
0.0
  0
LINE
  5
160F
330
33B3
100
AcDbEntity
  8
PEF-L30AG
100
AcDbLine
 10
305.25
 20
142.75
 30
0.0
 11
305.25
 21
162.0685165257813
 31
0.0
  0
LINE
  5
1610
330
33B3
100
AcDbEntity
  8
PEF-L30AG
100
AcDbLine
 10
306.7499999999999
 20
142.75
 30
0.0
 11
322.0
 21
142.75
 31
0.0
  0
LINE
  5
1611
330
33B3
100
AcDbEntity
  8
PEF-L30AG
100
AcDbLine
 10
306.7499999999999
 20
162.0685165257813
 30
0.0
 11
322.0
 21
162.0685165257813
 31
0.0
  0
LINE
  5
1612
330
33B3
100
AcDbEntity
  8
PEF-L30AG
100
AcDbLine
 10
322.0
 20
142.75
 30
0.0
 11
322.0
 21
127.75
 31
0.0
  0
LINE
  5
1613
330
33B3
100
AcDbEntity
  8
PEF-L30AG
100
AcDbLine
 10
290.0
 20
142.75
 30
0.0
 11
290.0
 21
127.75
 31
0.0
  0
LINE
  5
1615
330
33B3
100
AcDbEntity
  8
PEF-L30AG
100
AcDbLine
 10
317.5
 20
171.7341195876741
 30
0.0
 11
317.5
 21
162.1996252544893
 31
0.0
  0
LINE
  5
1616
330
33B3
100
AcDbEntity
  8
PEF-L30AG
100
AcDbLine
 10
294.4999999999998
 20
171.7341195876741
 30
0.0
 11
317.5
 21
171.7341195876741
 31
0.0
  0
LINE
  5
1617
330
33B3
100
AcDbEntity
  8
PEF-L30AG
100
AcDbLine
 10
294.4999999999998
 20
171.7341195876741
 30
0.0
 11
294.4999999999998
 21
162.1996252544893
 31
0.0
  0
LINE
  5
1618
330
33B3
100
AcDbEntity
  8
PEF-L30AG
100
AcDbLine
 10
317.5
 20
171.7341195876741
 30
0.0
 11
317.5
 21
180.75
 31
0.0
  0
LINE
  5
1619
330
33B3
100
AcDbEntity
  8
PEF-L30AG
100
AcDbLine
 10
294.4999999999998
 20
180.75
 30
0.0
 11
294.4999999999998
 21
171.7341195876741
 31
0.0
  0
LINE
  5
161A
330
33B3
100
AcDbEntity
  8
PEF-L30AG
100
AcDbLine
 10
323.2499999999999
 20
167.25
 30
0.0
 11
330.0663330217687
 21
167.25
 31
0.0
  0
LINE
  5
161B
330
33B3
100
AcDbEntity
  8
PEF-L30AG
100
AcDbLine
 10
290.0
 20
167.25
 30
0.0
 11
294.4999999999998
 21
167.25
 31
0.0
  0
LINE
  5
161C
330
33B3
100
AcDbEntity
  8
PEF-L30AG
100
AcDbLine
 10
317.5
 20
167.25
 30
0.0
 11
322.0
 21
167.25
 31
0.0
  0
LINE
  5
161D
330
33B3
100
AcDbEntity
  8
PEF-L30AG
100
AcDbLine
 10
323.2499999999999
 20
180.25
 30
0.0
 11
329.1377615931973
 21
180.25
 31
0.0
  0
LINE
  5
161E
330
33B3
100
AcDbEntity
  8
PEF-L30AG
100
AcDbLine
 10
290.0
 20
180.25
 30
0.0
 11
294.4999999999998
 21
180.25
 31
0.0
  0
LINE
  5
161F
330
33B3
100
AcDbEntity
  8
PEF-L30AG
100
AcDbLine
 10
317.5
 20
180.75
 30
0.0
 11
320.0
 21
180.75
 31
0.0
  0
LINE
  5
1620
330
33B3
100
AcDbEntity
  8
PEF-L30AG
100
AcDbLine
 10
317.5
 20
180.25
 30
0.0
 11
322.0
 21
180.25
 31
0.0
  0
LINE
  5
1621
330
33B3
100
AcDbEntity
  8
PEF-L30AG
100
AcDbLine
 10
294.4999999999998
 20
180.25
 30
0.0
 11
317.5
 21
180.25
 31
0.0
  0
LINE
  5
1622
330
33B3
100
AcDbEntity
  8
PEF-L30AG
100
AcDbLine
 10
294.4999999999998
 20
162.1996252544893
 30
0.0
 11
294.4999999999998
 21
162.0685165257813
 31
0.0
  0
LINE
  5
1623
330
33B3
100
AcDbEntity
  8
PEF-L30AG
100
AcDbLine
 10
317.5
 20
162.1996252544893
 30
0.0
 11
317.5
 21
162.0685165257813
 31
0.0
  0
LINE
  5
1624
330
33B3
100
AcDbEntity
  8
PEF-L30AG
100
AcDbLine
 10
317.5
 20
142.75
 30
0.0
 11
317.5
 21
127.75
 31
0.0
  0
LINE
  5
1625
330
33B3
100
AcDbEntity
  8
PEF-L30AG
100
AcDbLine
 10
294.4999999999998
 20
142.75
 30
0.0
 11
294.4999999999998
 21
127.75
 31
0.0
  0
LINE
  5
1626
330
33B3
100
AcDbEntity
  8
PEF-L30AG
100
AcDbLine
 10
276.0
 20
126.7499999999997
 30
0.0
 11
336.0
 21
126.75
 31
0.0
  0
LINE
  5
1627
330
33B3
100
AcDbEntity
  8
PEF-L30AG
100
AcDbLine
 10
287.25
 20
145.25
 30
0.0
 11
277.0
 21
145.25
 31
0.0
  0
LINE
  5
1628
330
33B3
100
AcDbEntity
  8
PEF-L30AG
100
AcDbLine
 10
294.4999999999998
 20
138.1495804889158
 30
0.0
 11
317.5
 21
138.1495804889158
 31
0.0
  0
LINE
  5
1629
330
33B3
100
AcDbEntity
  8
PEF-L30AG
100
AcDbLine
 10
317.5
 20
162.0685165257813
 30
0.0
 11
317.5
 21
142.75
 31
0.0
  0
LINE
  5
162A
330
33B3
100
AcDbEntity
  8
PEF-L30AG
100
AcDbLine
 10
322.0
 20
162.0685165257813
 30
0.0
 11
322.0
 21
142.75
 31
0.0
  0
LINE
  5
162B
330
33B3
100
AcDbEntity
  8
PEF-L30AG
100
AcDbLine
 10
290.0
 20
162.0685165257813
 30
0.0
 11
290.0
 21
142.75
 31
0.0
  0
LINE
  5
162C
330
33B3
100
AcDbEntity
  8
PEF-L30AG
100
AcDbLine
 10
294.4999999999998
 20
162.0685165257813
 30
0.0
 11
294.4999999999998
 21
142.75
 31
0.0
  0
LINE
  5
162D
330
33B3
100
AcDbEntity
  8
PEF-L30AG
100
AcDbLine
 10
335.4999999999999
 20
135.25
 30
0.0
 11
327.7499999999998
 21
135.25
 31
0.0
  0
LINE
  5
162E
330
33B3
100
AcDbEntity
  8
PEF-L30AG
100
AcDbLine
 10
284.25
 20
135.25
 30
0.0
 11
276.5
 21
135.25
 31
0.0
  0
CIRCLE
  5
162F
330
33B3
100
AcDbEntity
  8
PEF-L30AG
100
AcDbCircle
 10
139.25
 20
147.75
 30
0.0
 40
7.5
  0
LINE
  5
1631
330
33B3
100
AcDbEntity
  8
PEF-L30AG
100
AcDbLine
 10
287.25
 20
153.75
 30
0.0
 11
287.25
 21
141.7499999999999
 31
0.0
  0
LINE
  5
1635
330
33B3
100
AcDbEntity
  8
PEF-L30AG
100
AcDbLine
 10
281.25
 20
147.75
 30
0.0
 11
294.75
 21
147.75
 31
0.0
  0
ARC
  5
1636
330
33B3
100
AcDbEntity
  8
PEF-L30AG
100
AcDbCircle
 10
288.75
 20
141.7499999999999
 30
0.0
 40
1.5
100
AcDbArc
 50
180.0
 51
270.0
  0
ARC
  5
1637
330
33B3
100
AcDbEntity
  8
PEF-L30AG
100
AcDbCircle
 10
288.75
 20
153.75
 30
0.0
 40
1.5
100
AcDbArc
 50
90.0
 51
180.0
  0
ARC
  5
1638
330
33B3
100
AcDbEntity
  8
PEF-L30AG
100
AcDbCircle
 10
323.2499999999999
 20
153.75
 30
0.0
 40
1.5
100
AcDbArc
 50
0.0
 51
90.0
  0
LINE
  5
1639
330
33B3
100
AcDbEntity
  8
PEF-L30AG
100
AcDbLine
 10
324.75
 20
153.75
 30
0.0
 11
324.75
 21
141.7499999999999
 31
0.0
  0
LINE
  5
163A
330
33B3
100
AcDbEntity
  8
PEF-L30AG
100
AcDbLine
 10
330.75
 20
147.75
 30
0.0
 11
317.2499999999998
 21
147.75
 31
0.0
  0
ARC
  5
163B
330
33B3
100
AcDbEntity
  8
PEF-L30AG
100
AcDbCircle
 10
323.2499999999999
 20
141.7499999999999
 30
0.0
 40
1.5
100
AcDbArc
 50
270.0
 51
0.0
  0
LINE
  5
163C
330
33B3
100
AcDbEntity
  8
PEF-L30AG
100
AcDbLine
 10
285.7499999999999
 20
129.7499999999999
 30
0.0
 11
285.7499999999999
 21
127.4999999999999
 31
0.0
  0
LINE
  5
163D
330
33B3
100
AcDbEntity
  8
PEF-L30AG
100
AcDbLine
 10
288.0
 20
129.75
 30
0.0
 11
288.0
 21
127.4999999999999
 31
0.0
  0
LINE
  5
163E
330
33B3
100
AcDbEntity
  8
PEF-L30AG
100
AcDbLine
 10
281.25
 20
130.4999999999999
 30
0.0
 11
281.25
 21
127.4999999999999
 31
0.0
  0
LINE
  5
163F
330
33B3
100
AcDbEntity
  8
PEF-L30AG
100
AcDbLine
 10
279.0
 20
130.4999999999999
 30
0.0
 11
279.0
 21
127.4999999999999
 31
0.0
  0
LINE
  5
1640
330
33B3
100
AcDbEntity
  8
PEF-L30AG
100
AcDbLine
 10
279.0
 20
127.4999999999999
 30
0.0
 11
288.0
 21
127.4999999999999
 31
0.0
  0
LINE
  5
1641
330
33B3
100
AcDbEntity
  8
PEF-L30AG
100
AcDbLine
 10
280.75
 20
127.4999999999999
 30
0.0
 11
280.0
 21
126.7499999999997
 31
0.0
  0
LINE
  5
1642
330
33B3
100
AcDbEntity
  8
PEF-L30AG
100
AcDbLine
 10
279.0
 20
127.4999999999999
 30
0.0
 11
279.0
 21
126.7499999999997
 31
0.0
  0
LINE
  5
1643
330
33B3
100
AcDbEntity
  8
PEF-L30AG
100
AcDbLine
 10
281.7499999999999
 20
127.4999999999999
 30
0.0
 11
281.0
 21
126.7499999999997
 31
0.0
  0
LINE
  5
1644
330
33B3
100
AcDbEntity
  8
PEF-L30AG
100
AcDbLine
 10
286.25
 20
127.4999999999999
 30
0.0
 11
285.5
 21
126.7499999999997
 31
0.0
  0
LINE
  5
1645
330
33B3
100
AcDbEntity
  8
PEF-L30AG
100
AcDbLine
 10
288.0
 20
127.4999999999999
 30
0.0
 11
288.0
 21
126.7499999999997
 31
0.0
  0
LINE
  5
1646
330
33B3
100
AcDbEntity
  8
PEF-L30AG
100
AcDbLine
 10
287.25
 20
127.4999999999999
 30
0.0
 11
286.5
 21
126.7499999999997
 31
0.0
  0
ARC
  5
1647
330
33B3
100
AcDbEntity
  8
PEF-L30AG
100
AcDbCircle
 10
283.4999999999999
 20
125.6874999999999
 30
0.0
 40
5.3125
100
AcDbArc
 50
81.88407075919865
 51
115.0576154183029
  0
LINE
  5
1648
330
33B3
100
AcDbEntity
  8
PEF-L30AG
100
AcDbLine
 10
280.1249999999999
 20
131.0
 30
0.0
 11
284.25
 21
131.0
 31
0.0
  0
ARC
  5
1649
330
33B3
100
AcDbEntity
  8
PEF-L30AG
100
AcDbCircle
 10
280.1249999999999
 20
129.484375
 30
0.0
 40
1.515625
100
AcDbArc
 50
42.07502205084363
 51
137.9249779491563
  0
ARC
  5
164B
330
33B3
100
AcDbEntity
  8
PEF-L30AG
100
AcDbCircle
 10
331.875
 20
129.484375
 30
0.0
 40
1.515625
100
AcDbArc
 50
42.07502205084363
 51
137.9249779491563
  0
LINE
  5
164C
330
33B3
100
AcDbEntity
  8
PEF-L30AG
100
AcDbLine
 10
327.7499999999998
 20
131.0
 30
0.0
 11
331.875
 21
131.0
 31
0.0
  0
LINE
  5
164D
330
33B3
100
AcDbEntity
  8
PEF-L30AG
100
AcDbLine
 10
332.25
 20
127.5
 30
0.0
 11
331.4999999999999
 21
126.75
 31
0.0
  0
LINE
  5
164E
330
33B3
100
AcDbEntity
  8
PEF-L30AG
100
AcDbLine
 10
324.0
 20
127.5
 30
0.0
 11
333.0
 21
127.5
 31
0.0
  0
LINE
  5
164F
330
33B3
100
AcDbEntity
  8
PEF-L30AG
100
AcDbLine
 10
324.0
 20
129.75
 30
0.0
 11
324.0
 21
127.5
 31
0.0
  0
LINE
  5
1650
330
33B3
100
AcDbEntity
  8
PEF-L30AG
100
AcDbLine
 10
326.25
 20
129.7499999999999
 30
0.0
 11
326.25
 21
127.5
 31
0.0
  0
LINE
  5
1651
330
33B3
100
AcDbEntity
  8
PEF-L30AG
100
AcDbLine
 10
330.75
 20
130.4999999999999
 30
0.0
 11
330.75
 21
127.5
 31
0.0
  0
LINE
  5
1652
330
33B3
100
AcDbEntity
  8
PEF-L30AG
100
AcDbLine
 10
326.75
 20
127.5
 30
0.0
 11
326.0
 21
126.75
 31
0.0
  0
LINE
  5
1653
330
33B3
100
AcDbEntity
  8
PEF-L30AG
100
AcDbLine
 10
324.0
 20
127.5
 30
0.0
 11
324.0
 21
126.75
 31
0.0
  0
LINE
  5
1654
330
33B3
100
AcDbEntity
  8
PEF-L30AG
100
AcDbLine
 10
325.75
 20
127.5
 30
0.0
 11
325.0
 21
126.75
 31
0.0
  0
LINE
  5
1655
330
33B3
100
AcDbEntity
  8
PEF-L30AG
100
AcDbLine
 10
331.25
 20
127.5
 30
0.0
 11
330.5
 21
126.75
 31
0.0
  0
ARC
  5
1656
330
33B3
100
AcDbEntity
  8
PEF-L30AG
100
AcDbCircle
 10
328.5
 20
125.6874999999999
 30
0.0
 40
5.3125
100
AcDbArc
 50
64.94238458169697
 51
98.11592924080194
  0
LINE
  5
1658
330
33B3
100
AcDbEntity
  8
PEF-L30AG
100
AcDbLine
 10
333.0
 20
130.4999999999999
 30
0.0
 11
333.0
 21
127.5
 31
0.0
  0
LINE
  5
1659
330
33B3
100
AcDbEntity
  8
PEF-L30AG
100
AcDbLine
 10
333.0
 20
127.5
 30
0.0
 11
333.0
 21
126.75
 31
0.0
  0
LINE
  5
165E
330
33B3
100
AcDbEntity
  8
PEF-L30AG
100
AcDbLine
 10
317.5
 20
127.75
 30
0.0
 11
324.0
 21
127.75
 31
0.0
  0
LINE
  5
165F
330
33B3
100
AcDbEntity
  8
PEF-L30AG
100
AcDbLine
 10
294.4999999999998
 20
127.75
 30
0.0
 11
288.0
 21
127.75
 31
0.0
  0
LINE
  5
1662
330
33B3
100
AcDbEntity
  8
PEF-L30AG
100
AcDbLine
 10
282.25
 20
133.25
 30
0.0
 11
294.2499999999999
 21
133.25
 31
0.0
  0
LINE
  5
1663
330
33B3
100
AcDbEntity
  8
PEF-L30AG
100
AcDbLine
 10
329.7499999999998
 20
133.25
 30
0.0
 11
317.75
 21
133.25
 31
0.0
  0
LINE
  5
1665
330
33B3
100
AcDbEntity
  8
PEF-L30AG
100
AcDbLine
 10
288.2499999999998
 20
131.0
 30
0.0
 11
288.75
 21
131.4999999999999
 31
0.0
  0
LINE
  5
1666
330
33B3
100
AcDbEntity
  8
PEF-L30AG
100
AcDbLine
 10
288.75
 20
132.0
 30
0.0
 11
288.2499999999998
 21
131.4999999999999
 31
0.0
  0
LINE
  5
1667
330
33B3
100
AcDbEntity
  8
PEF-L30AG
100
AcDbLine
 10
288.2499999999998
 20
129.75
 30
0.0
 11
288.2499999999998
 21
136.7499999999999
 31
0.0
  0
LINE
  5
1668
330
33B3
100
AcDbEntity
  8
PEF-L30AG
100
AcDbLine
 10
284.5
 20
129.7499999999999
 30
0.0
 11
288.2499999999998
 21
129.75
 31
0.0
  0
LINE
  5
1669
330
33B3
100
AcDbEntity
  8
PEF-L30AG
100
AcDbLine
 10
288.75
 20
129.7499999999999
 30
0.0
 11
288.2499999999998
 21
129.75
 31
0.0
  0
LINE
  5
166A
330
33B3
100
AcDbEntity
  8
PEF-L30AG
100
AcDbLine
 10
284.25
 20
130.0
 30
0.0
 11
284.25
 21
136.4999999999999
 31
0.0
  0
LINE
  5
166B
330
33B3
100
AcDbEntity
  8
PEF-L30AG
100
AcDbLine
 10
284.5
 20
136.7499999999999
 30
0.0
 11
284.5
 21
129.7499999999999
 31
0.0
  0
LINE
  5
166C
330
33B3
100
AcDbEntity
  8
PEF-L30AG
100
AcDbLine
 10
284.5
 20
136.7499999999999
 30
0.0
 11
288.2499999999998
 21
136.7499999999999
 31
0.0
  0
LINE
  5
166D
330
33B3
100
AcDbEntity
  8
PEF-L30AG
100
AcDbLine
 10
288.2499999999998
 20
134.4999999999999
 30
0.0
 11
288.75
 21
134.9999999999999
 31
0.0
  0
LINE
  5
166E
330
33B3
100
AcDbEntity
  8
PEF-L30AG
100
AcDbLine
 10
288.75
 20
135.4999999999999
 30
0.0
 11
288.2499999999998
 21
135.0
 31
0.0
  0
LINE
  5
166F
330
33B3
100
AcDbEntity
  8
PEF-L30AG
100
AcDbLine
 10
288.2499999999998
 20
136.7499999999999
 30
0.0
 11
288.75
 21
136.7499999999999
 31
0.0
  0
LINE
  5
1670
330
33B3
100
AcDbEntity
  8
PEF-L30AG
100
AcDbLine
 10
284.25
 20
136.4999999999999
 30
0.0
 11
284.5
 21
136.7499999999999
 31
0.0
  0
LINE
  5
1671
330
33B3
100
AcDbEntity
  8
PEF-L30AG
100
AcDbLine
 10
284.5
 20
129.7499999999999
 30
0.0
 11
284.25
 21
130.0
 31
0.0
  0
LINE
  5
1673
330
33B3
100
AcDbEntity
  8
PEF-L30AG
100
AcDbLine
 10
327.4999999999999
 20
136.7499999999999
 30
0.0
 11
323.75
 21
136.7499999999999
 31
0.0
  0
LINE
  5
1674
330
33B3
100
AcDbEntity
  8
PEF-L30AG
100
AcDbLine
 10
327.4999999999999
 20
136.7499999999999
 30
0.0
 11
327.4999999999999
 21
129.7499999999999
 31
0.0
  0
LINE
  5
1675
330
33B3
100
AcDbEntity
  8
PEF-L30AG
100
AcDbLine
 10
327.7499999999998
 20
130.0
 30
0.0
 11
327.7499999999998
 21
136.4999999999999
 31
0.0
  0
LINE
  5
1676
330
33B3
100
AcDbEntity
  8
PEF-L30AG
100
AcDbLine
 10
327.7499999999998
 20
136.4999999999999
 30
0.0
 11
327.4999999999999
 21
136.7499999999999
 31
0.0
  0
LINE
  5
1677
330
33B3
100
AcDbEntity
  8
PEF-L30AG
100
AcDbLine
 10
323.75
 20
129.75
 30
0.0
 11
323.75
 21
136.7499999999999
 31
0.0
  0
LINE
  5
1678
330
33B3
100
AcDbEntity
  8
PEF-L30AG
100
AcDbLine
 10
323.2499999999999
 20
129.7499999999999
 30
0.0
 11
323.75
 21
129.75
 31
0.0
  0
LINE
  5
1679
330
33B3
100
AcDbEntity
  8
PEF-L30AG
100
AcDbLine
 10
323.75
 20
131.0
 30
0.0
 11
323.2499999999999
 21
131.4999999999999
 31
0.0
  0
LINE
  5
167A
330
33B3
100
AcDbEntity
  8
PEF-L30AG
100
AcDbLine
 10
323.2499999999999
 20
132.0
 30
0.0
 11
323.7499999999998
 21
131.4999999999999
 31
0.0
  0
LINE
  5
167B
330
33B3
100
AcDbEntity
  8
PEF-L30AG
100
AcDbLine
 10
323.75
 20
134.4999999999999
 30
0.0
 11
323.2499999999999
 21
134.9999999999999
 31
0.0
  0
LINE
  5
167C
330
33B3
100
AcDbEntity
  8
PEF-L30AG
100
AcDbLine
 10
323.2499999999999
 20
135.4999999999999
 30
0.0
 11
323.75
 21
135.0
 31
0.0
  0
LINE
  5
167D
330
33B3
100
AcDbEntity
  8
PEF-L30AG
100
AcDbLine
 10
323.75
 20
136.7499999999999
 30
0.0
 11
323.2499999999999
 21
136.7499999999999
 31
0.0
  0
LINE
  5
167E
330
33B3
100
AcDbEntity
  8
PEF-L30AG
100
AcDbLine
 10
327.4999999999999
 20
129.7499999999999
 30
0.0
 11
323.75
 21
129.75
 31
0.0
  0
LINE
  5
167F
330
33B3
100
AcDbEntity
  8
PEF-L30AG
100
AcDbLine
 10
327.4999999999999
 20
129.7499999999999
 30
0.0
 11
327.7499999999998
 21
130.0
 31
0.0
  0
LINE
  5
1681
330
33B3
100
AcDbEntity
  8
PEF-L30AG
100
AcDbLine
 10
89.25
 20
136.7499999999999
 30
0.0
 11
34.25
 21
136.7499999999999
 31
0.0
  0
CIRCLE
  5
32AE
330
33B3
100
AcDbEntity
  8
PEF-L30AG
100
AcDbCircle
 10
161.5169722719828
 20
191.8826355863119
 30
0.0
 40
0.3830118143461131
  0
INSERT
  5
32B0
330
33B3
100
AcDbEntity
  8
PEF-L30AG
100
AcDbBlockReference
  2
*X2
 10
0.0
 20
0.0
 30
0.0
1001
ACAD
1000
HATCH
1002
{
1070
    16
1000
_U
1040
0.2
1040
0.0
1070
     0
1002
}
  0
LINE
  5
32F9
330
33B3
100
AcDbEntity
  8
PEF-L30AG
100
AcDbLine
 10
324.75
 20
150.75
 30
0.0
 11
349.0189144258936
 21
147.379317440848
 31
0.0
  0
LINE
  5
32FA
330
33B3
100
AcDbEntity
  8
PEF-L30AG
100
AcDbLine
 10
353.4887338277846
 20
144.860019904265
 30
0.0
 11
355.9982253338931
 21
141.8440747785566
 31
0.0
  0
LINE
  5
32FB
330
33B3
100
AcDbEntity
  8
PEF-L30AG
100
AcDbLine
 10
324.75
 20
144.7499999999999
 30
0.0
 11
346.9057709476666
 21
142.3111547677249
 31
0.0
  0
LINE
  5
32FC
330
33B3
100
AcDbEntity
  8
PEF-L30AG
100
AcDbLine
 10
350.2319954582412
 20
140.5030571526232
 30
0.0
 11
351.993097052452
 21
138.4374321400602
 31
0.0
  0
LINE
  5
32FD
330
33B3
100
AcDbEntity
  8
PEF-L30AG
100
AcDbLine
 10
355.4386717104664
 20
132.5556964432132
 30
0.0
 11
355.4386717104664
 21
127.5
 31
0.0
  0
LINE
  5
32FE
330
33B3
100
AcDbEntity
  8
PEF-L30AG
100
AcDbLine
 10
361.25
 20
133.724796873812
 30
0.0
 11
361.25
 21
127.5
 31
0.0
  0
LINE
  5
3300
330
33B3
100
AcDbEntity
  8
PEF-L30AG
100
AcDbLine
 10
361.25
 20
127.5
 30
0.0
 11
355.4386717104664
 21
127.5
 31
0.0
  0
ARC
  5
3301
330
33B3
100
AcDbEntity
  8
PEF-L30AG
100
AcDbCircle
 10
350.4386717104662
 20
132.5556964432132
 30
0.0
 40
5.0
100
AcDbArc
 50
0.0
 51
39.22567409733681
  0
ARC
  5
3302
330
33B3
100
AcDbEntity
  8
PEF-L30AG
100
AcDbCircle
 10
356.25
 20
133.724796873812
 30
0.0
 40
5.0
100
AcDbArc
 50
0.0
 51
39.0938588862294
  0
ARC
  5
3303
330
33B3
100
AcDbEntity
  8
PEF-L30AG
100
AcDbCircle
 10
346.3586894575286
 20
137.3411747030619
 30
0.0
 40
5.0
100
AcDbArc
 50
39.22567409733654
 51
83.71833118774736
  0
ARC
  5
3304
330
33B3
100
AcDbEntity
  8
PEF-L30AG
100
AcDbCircle
 10
348.0559358269708
 20
140.4458715286037
 30
0.0
 40
7.0
100
AcDbArc
 50
39.09385888622949
 51
82.09283729704162
  0
LINE
  5
3305
330
33B3
100
AcDbEntity
  8
PEF-L30AG
100
AcDbLine
 10
335.4999999999999
 20
143.5666700987798
 30
0.0
 11
335.4999999999999
 21
144.7499999999999
 31
0.0
  0
LINE
  5
3306
330
33B3
100
AcDbEntity
  8
PEF-L30AG
100
AcDbLine
 10
333.4336605035705
 20
146.1787529500121
 30
0.0
 11
333.190881763527
 21
149.577655310621
 31
0.0
  0
LINE
  5
3307
330
33B3
100
AcDbEntity
  8
PEF-L30AG
100
AcDbLine
 10
351.6050968354012
 20
118.5093016159155
 30
0.0
 11
350.089091378408
 21
113.2223622882549
 31
0.0
  0
LINE
  5
3308
330
33B3
100
AcDbEntity
  8
PEF-L30AG
100
AcDbLine
 10
350.089091378408
 20
113.2223622882549
 30
0.0
 11
351.5309839223152
 21
112.8089062545293
 31
0.0
  0
LINE
  5
3309
330
33B3
100
AcDbEntity
  8
PEF-L30AG
100
AcDbLine
 10
355.8566615540379
 20
111.5685381533529
 30
0.0
 11
357.3726670110313
 21
116.8554774810136
 31
0.0
  0
LINE
  5
330A
330
33B3
100
AcDbEntity
  8
PEF-L30AG
100
AcDbLine
 10
356.68704267091
 20
118.0923765327688
 30
0.0
 11
352.8419958871566
 21
119.1949259560369
 31
0.0
  0
ARC
  5
330B
330
33B3
100
AcDbEntity
  8
PEF-L30AG
100
AcDbCircle
 10
354.0065165505366
 20
116.0001815805724
 30
0.0
 40
1.5
100
AcDbArc
 50
344.0
 51
164.0
  0
LINE
  5
330C
330
33B3
100
AcDbEntity
  8
PEF-L30AG
100
AcDbLine
 10
355.4484090944441
 20
115.5867255468471
 30
0.0
 11
354.4147690101303
 21
111.9819941870783
 31
0.0
  0
LINE
  5
330D
330
33B3
100
AcDbEntity
  8
PEF-L30AG
100
AcDbLine
 10
352.5646240066291
 20
116.4136376142981
 30
0.0
 11
351.5309839223152
 21
112.8089062545293
 31
0.0
  0
LINE
  5
330E
330
33B3
100
AcDbEntity
  8
PEF-L30AG
100
AcDbLine
 10
354.4147690101303
 20
111.9819941870783
 30
0.0
 11
355.8566615540379
 21
111.5685381533529
 31
0.0
  0
ARC
  5
3310
330
33B3
100
AcDbEntity
  8
PEF-L30AG
100
AcDbCircle
 10
356.411405315093
 20
117.1311148368305
 30
0.0
 40
1.0
100
AcDbArc
 50
344.0
 51
74.00000000000003
  0
ARC
  5
3311
330
33B3
100
AcDbEntity
  8
PEF-L30AG
100
AcDbCircle
 10
352.5663585313397
 20
118.2336642600986
 30
0.0
 40
1.0
100
AcDbArc
 50
74.00000000000003
 51
164.0
  0
LINE
  5
3312
330
33B3
100
AcDbEntity
  8
PEF-L30AG
100
AcDbLine
 10
352.8419958871566
 20
119.1949259560369
 30
0.0
 11
354.0823639883332
 21
123.5206035877594
 31
0.0
  0
LINE
  5
3313
330
33B3
100
AcDbEntity
  8
PEF-L30AG
100
AcDbLine
 10
354.0823639883332
 20
123.5206035877594
 30
0.0
 11
357.9274107720864
 21
122.4180541644914
 31
0.0
  0
LINE
  5
3314
330
33B3
100
AcDbEntity
  8
PEF-L30AG
100
AcDbLine
 10
357.9274107720864
 20
122.4180541644914
 30
0.0
 11
356.68704267091
 21
118.0923765327688
 31
0.0
  0
LINE
  5
3315
330
33B3
100
AcDbEntity
  8
PEF-L30AG
100
AcDbLine
 10
355.0436256842715
 20
123.2449662319424
 30
0.0
 11
356.2637369835099
 21
127.5
 31
0.0
  0
LINE
  5
3316
330
33B3
100
AcDbEntity
  8
PEF-L30AG
100
AcDbLine
 10
356.9661490761482
 20
122.6936915203084
 30
0.0
 11
358.3443358552331
 21
127.5
 31
0.0
  0
LINE
  5
3317
330
33B3
100
AcDbEntity
  8
PEF-L30AG
100
AcDbLine
 10
362.6063077221331
 20
123.5206035877594
 30
0.0
 11
363.8466758233096
 21
119.1949259560369
 31
0.0
  0
LINE
  5
3318
330
33B3
100
AcDbEntity
  8
PEF-L30AG
100
AcDbLine
 10
360.0016290395562
 20
118.0923765327688
 30
0.0
 11
358.7612609383799
 21
122.4180541644914
 31
0.0
  0
LINE
  5
3319
330
33B3
100
AcDbEntity
  8
PEF-L30AG
100
AcDbLine
 10
363.8466758233096
 20
119.1949259560369
 30
0.0
 11
360.0016290395562
 21
118.0923765327688
 31
0.0
  0
ARC
  5
331A
330
33B3
100
AcDbEntity
  8
PEF-L30AG
100
AcDbCircle
 10
362.6821551599299
 20
116.0001815805724
 30
0.0
 40
1.5
100
AcDbArc
 50
16.0
 51
196.0
  0
LINE
  5
331B
330
33B3
100
AcDbEntity
  8
PEF-L30AG
100
AcDbLine
 10
359.3160046994351
 20
116.8554774810136
 30
0.0
 11
360.8320101564286
 21
111.5685381533529
 31
0.0
  0
LINE
  5
331C
330
33B3
100
AcDbEntity
  8
PEF-L30AG
100
AcDbLine
 10
360.8320101564286
 20
111.5685381533529
 30
0.0
 11
362.273902700336
 21
111.9819941870783
 31
0.0
  0
LINE
  5
331D
330
33B3
100
AcDbEntity
  8
PEF-L30AG
100
AcDbLine
 10
361.2402626160223
 20
115.5867255468471
 30
0.0
 11
362.273902700336
 21
111.9819941870783
 31
0.0
  0
ARC
  5
331E
330
33B3
100
AcDbEntity
  8
PEF-L30AG
100
AcDbCircle
 10
360.2772663953733
 20
117.1311148368305
 30
0.0
 40
1.0
100
AcDbArc
 50
105.9999999999999
 51
196.0
  0
LINE
  5
331F
330
33B3
100
AcDbEntity
  8
PEF-L30AG
100
AcDbLine
 10
366.5995803320585
 20
113.2223622882549
 30
0.0
 11
365.0835748750648
 21
118.5093016159155
 31
0.0
  0
LINE
  5
3320
330
33B3
100
AcDbEntity
  8
PEF-L30AG
100
AcDbLine
 10
365.157687788151
 20
112.8089062545294
 30
0.0
 11
366.5995803320585
 21
113.2223622882549
 31
0.0
  0
LINE
  5
3321
330
33B3
100
AcDbEntity
  8
PEF-L30AG
100
AcDbLine
 10
364.1240477038373
 20
116.4136376142981
 30
0.0
 11
365.157687788151
 21
112.8089062545294
 31
0.0
  0
ARC
  5
3322
330
33B3
100
AcDbEntity
  8
PEF-L30AG
100
AcDbCircle
 10
364.1223131791265
 20
118.2336642600986
 30
0.0
 40
1.0
100
AcDbArc
 50
16.0
 51
105.9999999999999
  0
LINE
  5
3323
330
33B3
100
AcDbEntity
  8
PEF-L30AG
100
AcDbLine
 10
358.7612609383799
 20
122.4180541644914
 30
0.0
 11
362.6063077221331
 21
123.5206035877594
 31
0.0
  0
LINE
  5
3324
330
33B3
100
AcDbEntity
  8
PEF-L30AG
100
AcDbLine
 10
359.7225226343183
 20
122.6936915203084
 30
0.0
 11
358.3443358552331
 21
127.5
 31
0.0
  0
LINE
  5
3325
330
33B3
100
AcDbEntity
  8
PEF-L30AG
100
AcDbLine
 10
361.6450460261948
 20
123.2449662319424
 30
0.0
 11
360.4249347269565
 21
127.5
 31
0.0
  0
LWPOLYLINE
  5
335E
330
33B3
100
AcDbEntity
  8
PEF-L30AG
100
AcDbPolyline
 90
        4
 70
     0
 43
0.0
 10
352.546119031062
 20
137.7887835696038
 42
0.0433609470501045
 10
354.4999999999998
 20
139.0
 42
0.0452370965610964
 10
356.28365450774
 20
140.6026779570981
 42
0.0109425626141279
 10
356.6696902087961
 20
141.0370980617121
  0
LWPOLYLINE
  5
3364
330
33B3
100
AcDbEntity
  8
PEF-L30AG
100
AcDbPolyline
 90
        4
 70
     0
 43
0.0
 10
355.9982253338931
 20
141.8440747785566
 42
-0.0164766716444861
 10
355.5260278228872
 20
141.2472072267874
 42
-0.0463701796415962
 10
354.0
 20
139.7499999999999
 42
-0.0520423068691388
 10
351.993097052452
 20
138.4374321400602
 42
-0.0549411396395162
  0
LINE
  5
336A
330
33B3
100
AcDbEntity
  8
PEF-L30AG
100
AcDbLine
 10
356.6696902087961
 20
141.0370980617121
 30
0.0
 11
360.1305700005811
 21
136.8777599992845
 31
0.0
  0
LINE
  5
336B
330
33B3
100
AcDbEntity
  8
PEF-L30AG
100
AcDbLine
 10
352.546119031062
 20
137.7887835696038
 30
0.0
 11
354.3119777111789
 21
135.7175788927744
 31
0.0
  0
TEXT
  5
3384
330
33B3
100
AcDbEntity
  8
PEF-L30AG
100
AcDbText
 10
196.75
 20
103.4999999999999
 30
0.0
 40
3.0
  1
 PEF-L30AG
100
AcDbText
  0
ARC
  5
3504
330
33B3
100
AcDbEntity
  8
PEF-L30AG
100
AcDbCircle
 10
50.07842712474629
 20
178.25
 30
0.0
 40
2.0
100
AcDbArc
 50
90.0
 51
135.0000000000002
  0
ENDSEC
  0
SECTION
  2
OBJECTS
  0
DICTIONARY
  5
33A1
330
0
100
AcDbDictionary
  3
ACAD_GROUP
350
33A2
  3
ACAD_LAYOUT
350
33AE
  3
ACAD_MLINESTYLE
350
33AB
  3
ACAD_PLOTSETTINGS
350
33AD
  3
ACAD_PLOTSTYLENAME
350
33A3
  3
DWGPROPS
350
34AC
  3
ACDBHEADERROUNDTRIPXREC
350
3506
  0
DICTIONARY
  5
34D1
330
33B3
100
AcDbDictionary
280
     1
  3
ACAD_LAYOUTSELFREF
360
3527
  0
DICTIONARY
  5
34CF
330
33AF
100
AcDbDictionary
280
     1
  3
ACAD_LAYOUTSELFREF
360
3526
  0
DICTIONARY
  5
33A2
102
{ACAD_REACTORS
330
33A1
102
}
330
33A1
100
AcDbDictionary
  0
DICTIONARY
  5
33AE
102
{ACAD_REACTORS
330
33A1
102
}
330
33A1
100
AcDbDictionary
  0
DICTIONARY
  5
33AB
102
{ACAD_REACTORS
330
33A1
102
}
330
33A1
100
AcDbDictionary
  3
STANDARD
350
33AC
  0
DICTIONARY
  5
33AD
102
{ACAD_REACTORS
330
33A1
102
}
330
33A1
100
AcDbDictionary
  0
ACDBDICTIONARYWDFLT
  5
33A3
102
{ACAD_REACTORS
330
33A1
102
}
330
33A1
100
AcDbDictionary
281
     1
  3
Normal
350
33A4
100
AcDbDictionaryWithDefault
340
33A4
  0
XRECORD
  5
34AC
102
{ACAD_REACTORS
330
33A1
102
}
330
33A1
100
AcDbXrecord
  1
DWGPROPS COOKIE
  2

  3

  4

  6

  7

  8
한신
  9

300
=
301
=
302
=
303
=
304
=
305
=
306
=
307
=
308
=
309
=
 40
0.4951775462962963
 41
2450306.406837035
 42
2451814.623708217
  1

 90
        0
  0
DICTIONARY
  5
3506
102
{ACAD_REACTORS
330
33A1
102
}
330
33A1
100
AcDbDictionary
  3
TSTACKALIGN
350
3507
  3
TSTACKSIZE
350
3508
  3
HYPERLINKBASE
350
3509
  3
STYLESHEET
350
350A
  3
LAYOUTDICT
350
350B
  3
PLOTSETDICT
350
350C
  3
PLOTSTYLNAMDICT
350
350D
  3
LWETCUNION
350
350E
  3
INSUNITS
350
350F
  3
CEPSNTYPE
350
3510
  3
FINGERPRINTGUID
350
3511
  3
VERSIONGUID
350
3512
  3
PSVPSCALE
350
3513
  3
PUCSORTHOREF
350
3514
  3
PUCSORTHOVIEW
350
3515
  3
PUCSBASE
350
3516
  3
PUCSORGTOP
350
3517
  3
PUCSORGBOTTOM
350
3518
  3
PUCSORGLEFT
350
3519
  3
PUCSORGRIGHT
350
351A
  3
PUCSORGFRONT
350
351B
  3
PUCSORGBACK
350
351C
  3
UCSORTHOREF
350
351D
  3
UCSORTHOVIEW
350
351E
  3
UCSBASE
350
351F
  3
UCSORGTOP
350
3520
  3
UCSORGBOTTOM
350
3521
  3
UCSORGLEFT
350
3522
  3
UCSORGRIGHT
350
3523
  3
UCSORGFRONT
350
3524
  3
UCSORGBACK
350
3525
  0
XRECORD
  5
3527
102
{ACAD_REACTORS
330
34D1
102
}
330
34D1
100
AcDbXrecord
340
33B3
  0
XRECORD
  5
3526
102
{ACAD_REACTORS
330
34CF
102
}
330
34CF
100
AcDbXrecord
340
33AF
  0
MLINESTYLE
  5
33AC
102
{ACAD_REACTORS
330
33AB
102
}
330
33AB
100
AcDbMlineStyle
  2
STANDARD
 70
     0
  3

 62
   256
 51
90.0
 52
90.0
 71
     2
 49
0.5
 62
   256
  6
BYLAYER
 49
-0.5
 62
   256
  6
BYLAYER
  0
ACDBPLACEHOLDER
  5
33A4
102
{ACAD_REACTORS
330
33A3
102
}
330
33A3
100
AcDbPlaceHolder
280
     0
  0
XRECORD
  5
3507
102
{ACAD_REACTORS
330
3506
102
}
330
3506
100
AcDbXrecord
 90
        1
  0
XRECORD
  5
3508
102
{ACAD_REACTORS
330
3506
102
}
330
3506
100
AcDbXrecord
 90
       70
  0
XRECORD
  5
3509
102
{ACAD_REACTORS
330
3506
102
}
330
3506
100
AcDbXrecord
  1

  0
XRECORD
  5
350A
102
{ACAD_REACTORS
330
3506
102
}
330
3506
100
AcDbXrecord
  1

  0
XRECORD
  5
350B
102
{ACAD_REACTORS
330
3506
102
}
330
3506
100
AcDbXrecord
340
33AE
  0
XRECORD
  5
350C
102
{ACAD_REACTORS
330
3506
102
}
330
3506
100
AcDbXrecord
340
33AD
  0
XRECORD
  5
350D
102
{ACAD_REACTORS
330
3506
102
}
330
3506
100
AcDbXrecord
340
33A3
  0
XRECORD
  5
350E
102
{ACAD_REACTORS
330
3506
102
}
330
3506
100
AcDbXrecord
 90
    14877
  0
XRECORD
  5
350F
102
{ACAD_REACTORS
330
3506
102
}
330
3506
100
AcDbXrecord
 90
        0
  0
XRECORD
  5
3510
102
{ACAD_REACTORS
330
3506
102
}
330
3506
100
AcDbXrecord
 90
        0
  0
XRECORD
  5
3511
102
{ACAD_REACTORS
330
3506
102
}
330
3506
100
AcDbXrecord
  1
{2E5998CD-6201-11D4-BC29-A0594FC10001}
  0
XRECORD
  5
3512
102
{ACAD_REACTORS
330
3506
102
}
330
3506
100
AcDbXrecord
  1
{4EB875DE-69EE-43F9-963B-FF4337D937D7}
  0
XRECORD
  5
3513
102
{ACAD_REACTORS
330
3506
102
}
330
3506
100
AcDbXrecord
 40
0.0
  0
XRECORD
  5
3514
102
{ACAD_REACTORS
330
3506
102
}
330
3506
100
AcDbXrecord
340
0
  0
XRECORD
  5
3515
102
{ACAD_REACTORS
330
3506
102
}
330
3506
100
AcDbXrecord
 70
     0
  0
XRECORD
  5
3516
102
{ACAD_REACTORS
330
3506
102
}
330
3506
100
AcDbXrecord
340
0
  0
XRECORD
  5
3517
102
{ACAD_REACTORS
330
3506
102
}
330
3506
100
AcDbXrecord
 10
0.0
 20
0.0
 30
0.0
  0
XRECORD
  5
3518
102
{ACAD_REACTORS
330
3506
102
}
330
3506
100
AcDbXrecord
 10
0.0
 20
0.0
 30
0.0
  0
XRECORD
  5
3519
102
{ACAD_REACTORS
330
3506
102
}
330
3506
100
AcDbXrecord
 10
0.0
 20
0.0
 30
0.0
  0
XRECORD
  5
351A
102
{ACAD_REACTORS
330
3506
102
}
330
3506
100
AcDbXrecord
 10
0.0
 20
0.0
 30
0.0
  0
XRECORD
  5
351B
102
{ACAD_REACTORS
330
3506
102
}
330
3506
100
AcDbXrecord
 10
0.0
 20
0.0
 30
0.0
  0
XRECORD
  5
351C
102
{ACAD_REACTORS
330
3506
102
}
330
3506
100
AcDbXrecord
 10
0.0
 20
0.0
 30
0.0
  0
XRECORD
  5
351D
102
{ACAD_REACTORS
330
3506
102
}
330
3506
100
AcDbXrecord
340
0
  0
XRECORD
  5
351E
102
{ACAD_REACTORS
330
3506
102
}
330
3506
100
AcDbXrecord
 70
     0
  0
XRECORD
  5
351F
102
{ACAD_REACTORS
330
3506
102
}
330
3506
100
AcDbXrecord
340
0
  0
XRECORD
  5
3520
102
{ACAD_REACTORS
330
3506
102
}
330
3506
100
AcDbXrecord
 10
0.0
 20
0.0
 30
0.0
  0
XRECORD
  5
3521
102
{ACAD_REACTORS
330
3506
102
}
330
3506
100
AcDbXrecord
 10
0.0
 20
0.0
 30
0.0
  0
XRECORD
  5
3522
102
{ACAD_REACTORS
330
3506
102
}
330
3506
100
AcDbXrecord
 10
0.0
 20
0.0
 30
0.0
  0
XRECORD
  5
3523
102
{ACAD_REACTORS
330
3506
102
}
330
3506
100
AcDbXrecord
 10
0.0
 20
0.0
 30
0.0
  0
XRECORD
  5
3524
102
{ACAD_REACTORS
330
3506
102
}
330
3506
100
AcDbXrecord
 10
0.0
 20
0.0
 30
0.0
  0
XRECORD
  5
3525
102
{ACAD_REACTORS
330
3506
102
}
330
3506
100
AcDbXrecord
 10
0.0
 20
0.0
 30
0.0
  0
ENDSEC
  0
EOF
