  0
SECTION
  2
HEADER
  9
$ACADVER
  1
AC1014
  9
$ACADMAINTVER
 70
     9
  9
$DWGCODEPAGE
  3
ANSI_949
  9
$INSBASE
 10
384.0
 20
277.0
 30
0.0
  9
$EXTMIN
 10
65.22766218663628
 20
102.5016182424752
 30
-0.0000000000112498
  9
$EXTMAX
 10
343.3969125098046
 20
186.5223089125033
 30
0.0000000000002956
  9
$LIMMIN
 10
0.0
 20
0.0
  9
$LIMMAX
 10
420.0
 20
297.0
  9
$ORTHOMODE
 70
     0
  9
$REGENMODE
 70
     1
  9
$FILLMODE
 70
     1
  9
$QTEXTMODE
 70
     0
  9
$MIRRTEXT
 70
     1
  9
$DRAGMODE
 70
     2
  9
$LTSCALE
 40
4.0
  9
$OSMODE
 70
    37
  9
$ATTMODE
 70
     1
  9
$TEXTSIZE
 40
3.0
  9
$TRACEWID
 40
0.05
  9
$TEXTSTYLE
  7
STANDARD
  9
$CLAYER
  8
0
  9
$CELTYPE
  6
BYLAYER
  9
$CECOLOR
 62
   256
  9
$CELTSCALE
 40
1.0
  9
$DELOBJ
 70
     1
  9
$DISPSILH
 70
     0
  9
$DIMSCALE
 40
1.0
  9
$DIMASZ
 40
3.0
  9
$DIMEXO
 40
1.0
  9
$DIMDLI
 40
0.38
  9
$DIMRND
 40
0.0
  9
$DIMDLE
 40
0.0
  9
$DIMEXE
 40
1.0
  9
$DIMTP
 40
0.0
  9
$DIMTM
 40
0.0
  9
$DIMTXT
 40
3.0
  9
$DIMCEN
 40
0.09
  9
$DIMTSZ
 40
0.0
  9
$DIMTOL
 70
     0
  9
$DIMLIM
 70
     0
  9
$DIMTIH
 70
     0
  9
$DIMTOH
 70
     1
  9
$DIMSE1
 70
     0
  9
$DIMSE2
 70
     0
  9
$DIMTAD
 70
     1
  9
$DIMZIN
 70
     8
  9
$DIMBLK
  1

  9
$DIMASO
 70
     0
  9
$DIMSHO
 70
     1
  9
$DIMPOST
  1

  9
$DIMAPOST
  1

  9
$DIMALT
 70
     0
  9
$DIMALTD
 70
     2
  9
$DIMALTF
 40
25.4
  9
$DIMLFAC
 40
1.0
  9
$DIMTOFL
 70
     1
  9
$DIMTVP
 40
0.0
  9
$DIMTIX
 70
     1
  9
$DIMSOXD
 70
     0
  9
$DIMSAH
 70
     0
  9
$DIMBLK1
  1

  9
$DIMBLK2
  1

  9
$DIMSTYLE
  2
STANDARD
  9
$DIMCLRD
 70
     5
  9
$DIMCLRE
 70
     5
  9
$DIMCLRT
 70
     3
  9
$DIMTFAC
 40
1.0
  9
$DIMGAP
 40
0.09
  9
$DIMJUST
 70
     0
  9
$DIMSD1
 70
     0
  9
$DIMSD2
 70
     0
  9
$DIMTOLJ
 70
     1
  9
$DIMTZIN
 70
     8
  9
$DIMALTZ
 70
     8
  9
$DIMALTTZ
 70
     8
  9
$DIMFIT
 70
     3
  9
$DIMUPT
 70
     0
  9
$DIMUNIT
 70
     2
  9
$DIMDEC
 70
     4
  9
$DIMTDEC
 70
     4
  9
$DIMALTU
 70
     2
  9
$DIMALTTD
 70
     2
  9
$DIMTXSTY
  7
STANDARD
  9
$DIMAUNIT
 70
     0
  9
$LUNITS
 70
     2
  9
$LUPREC
 70
     4
  9
$SKETCHINC
 40
0.1
  9
$FILLETRAD
 40
1.5
  9
$AUNITS
 70
     0
  9
$AUPREC
 70
     0
  9
$MENU
  1
acad
  9
$ELEVATION
 40
0.0
  9
$PELEVATION
 40
0.0
  9
$THICKNESS
 40
0.0
  9
$LIMCHECK
 70
     0
  9
$BLIPMODE
 70
     0
  9
$CHAMFERA
 40
0.5
  9
$CHAMFERB
 40
0.5
  9
$CHAMFERC
 40
0.0
  9
$CHAMFERD
 40
0.0
  9
$SKPOLY
 70
     0
  9
$TDCREATE
 40
2450389.678865046
  9
$TDUPDATE
 40
2452761.634732523
  9
$TDINDWG
 40
0.0227900000
  9
$TDUSRTIMER
 40
0.0227900000
  9
$USRTIMER
 70
     1
  9
$ANGBASE
 50
0.0
  9
$ANGDIR
 70
     0
  9
$PDMODE
 70
     0
  9
$PDSIZE
 40
0.0
  9
$PLINEWID
 40
0.0
  9
$COORDS
 70
     2
  9
$SPLFRAME
 70
     0
  9
$SPLINETYPE
 70
     6
  9
$SPLINESEGS
 70
     8
  9
$ATTDIA
 70
     0
  9
$ATTREQ
 70
     1
  9
$HANDLING
 70
 12289
  9
$HANDSEED
  5
87D
  9
$SURFTAB1
 70
     6
  9
$SURFTAB2
 70
     6
  9
$SURFTYPE
 70
     6
  9
$SURFU
 70
     6
  9
$SURFV
 70
     6
  9
$UCSNAME
  2

  9
$UCSORG
 10
0.0
 20
0.0
 30
0.0
  9
$UCSXDIR
 10
1.0
 20
0.0
 30
0.0
  9
$UCSYDIR
 10
0.0
 20
1.0
 30
0.0
  9
$PUCSNAME
  2

  9
$PUCSORG
 10
0.0
 20
0.0
 30
0.0
  9
$PUCSXDIR
 10
1.0
 20
0.0
 30
0.0
  9
$PUCSYDIR
 10
0.0
 20
1.0
 30
0.0
  9
$USERI1
 70
     0
  9
$USERI2
 70
     0
  9
$USERI3
 70
     0
  9
$USERI4
 70
     0
  9
$USERI5
 70
     0
  9
$USERR1
 40
0.0
  9
$USERR2
 40
0.0
  9
$USERR3
 40
0.0
  9
$USERR4
 40
0.0
  9
$USERR5
 40
0.0
  9
$WORLDVIEW
 70
     1
  9
$SHADEDGE
 70
     3
  9
$SHADEDIF
 70
    70
  9
$TILEMODE
 70
     1
  9
$MAXACTVP
 70
    16
  9
$PINSBASE
 10
0.0
 20
0.0
 30
0.0
  9
$PLIMCHECK
 70
     0
  9
$PEXTMIN
 10
1.000000000000000E+20
 20
1.000000000000000E+20
 30
1.000000000000000E+20
  9
$PEXTMAX
 10
-1.000000000000000E+20
 20
-1.000000000000000E+20
 30
-1.000000000000000E+20
  9
$PLIMMIN
 10
0.0
 20
0.0
  9
$PLIMMAX
 10
12.0
 20
9.0
  9
$UNITMODE
 70
     0
  9
$VISRETAIN
 70
     0
  9
$PLINEGEN
 70
     0
  9
$PSLTSCALE
 70
     1
  9
$TREEDEPTH
 70
  3020
  9
$PICKSTYLE
 70
     1
  9
$CMLSTYLE
  2
STANDARD
  9
$CMLJUST
 70
     0
  9
$CMLSCALE
 40
1.0
  9
$PROXYGRAPHICS
 70
     1
  9
$MEASUREMENT
 70
     0
  0
ENDSEC
  0
SECTION
  2
CLASSES
  0
CLASS
  1
ACDBDICTIONARYWDFLT
  2
AcDbDictionaryWithDefault
  3
AutoCAD 2000
 90
        0
280
     0
281
     0
  0
CLASS
  1
ACDBPLACEHOLDER
  2
AcDbPlaceHolder
  3
AutoCAD 2000
 90
        0
280
     0
281
     0
  0
CLASS
  1
LAYOUT
  2
AcDbLayout
  3
AutoCAD 2000
 90
        0
280
     0
281
     0
  0
CLASS
  1
LONG_TRANSACTION
  2
AcDbLongTransaction
  3
AutoCAD 2000
 90
        0
280
     0
281
     0
  0
CLASS
  1
LWPOLYLINE
  2
AcDbPolyline
  3
AutoCAD 2000
 90
        0
280
     0
281
     1
  0
CLASS
  1
HATCH
  2
AcDbHatch
  3
AutoCAD 2000
 90
        0
280
     0
281
     1
  0
CLASS
  1
XRECORD
  2
AcDbXrecord
  3
AutoCAD 2000
 90
        0
280
     0
281
     0
  0
CLASS
  1
LONG_TRANSACTION
  2
AcDbLongTransaction
  3
AutoCAD 2000
 90
        0
280
     0
281
     0
  0
CLASS
  1
LWPOLYLINE
  2
AcDbPolyline
  3
AutoCAD 2000
 90
        0
280
     0
281
     1
  0
CLASS
  1
HATCH
  2
AcDbHatch
  3
AutoCAD 2000
 90
        0
280
     0
281
     1
  0
CLASS
  1
XRECORD
  2
AcDbXrecord
  3
AutoCAD 2000
 90
        0
280
     0
281
     0
  0
ENDSEC
  0
SECTION
  2
TABLES
  0
TABLE
  2
VPORT
  5
8
330
0
100
AcDbSymbolTable
 70
     2
  0
VPORT
  5
85A
330
8
100
AcDbSymbolTableRecord
100
AcDbViewportTableRecord
  2
*ACTIVE
 70
     0
 10
0.0
 20
0.0
 11
1.0
 21
1.0
 12
204.3122873482204
 22
144.5119635774893
 13
0.0
 23
0.0
 14
0.25
 24
0.25
 15
5.0
 25
5.0
 16
0.0
 26
0.0
 36
1.0
 17
0.0
 27
0.0
 37
0.0
 40
188.6254012873093
 41
1.481743227326266
 42
50.0
 43
0.0
 44
0.0
 50
0.0
 51
0.0
 71
     0
 72
  1000
 73
     1
 74
     1
 75
     1
 76
     0
 77
     0
 78
     0
  0
ENDTAB
  0
TABLE
  2
LTYPE
  5
5
330
0
100
AcDbSymbolTable
 70
     4
  0
LTYPE
  5
13
330
5
100
AcDbSymbolTableRecord
100
AcDbLinetypeTableRecord
  2
BYBLOCK
 70
     0
  3

 72
    65
 73
     0
 40
0.0
  0
LTYPE
  5
14
330
5
100
AcDbSymbolTableRecord
100
AcDbLinetypeTableRecord
  2
BYLAYER
 70
     0
  3

 72
    65
 73
     0
 40
0.0
  0
LTYPE
  5
15
330
5
100
AcDbSymbolTableRecord
100
AcDbLinetypeTableRecord
  2
CONTINUOUS
 70
     0
  3
Solid line
 72
    65
 73
     0
 40
0.0
  0
LTYPE
  5
25
330
5
100
AcDbSymbolTableRecord
100
AcDbLinetypeTableRecord
  2
CENTER
 70
     0
  3
____ _ ____ _ ____ _ ____ _ ____ _ ____ _ ____ 
 72
    65
 73
     4
 40
2.0
 49
1.25
 74
     0
 49
-0.25
 74
     0
 49
0.25
 74
     0
 49
-0.25
 74
     0
  0
LTYPE
  5
26
330
5
100
AcDbSymbolTableRecord
100
AcDbLinetypeTableRecord
  2
PHANTOM
 70
     0
  3
______  __  __  ______  __  __  ______  __  __ 
 72
    65
 73
     6
 40
2.5
 49
1.25
 74
     0
 49
-0.25
 74
     0
 49
0.25
 74
     0
 49
-0.25
 74
     0
 49
0.25
 74
     0
 49
-0.25
 74
     0
  0
LTYPE
  5
27
330
5
100
AcDbSymbolTableRecord
100
AcDbLinetypeTableRecord
  2
DASHED
 70
     0
  3
__ __ __ __ __ __ __ __ __ __ __ __ __ __ __ __
 72
    65
 73
     2
 40
0.75
 49
0.5
 74
     0
 49
-0.25
 74
     0
  0
ENDTAB
  0
TABLE
  2
LAYER
  5
2
330
0
100
AcDbSymbolTable
 70
     2
  0
LAYER
  5
10
330
2
100
AcDbSymbolTableRecord
100
AcDbLayerTableRecord
  2
0
 70
     0
 62
     7
  6
CONTINUOUS
  0
LAYER
  5
859
330
2
100
AcDbSymbolTableRecord
100
AcDbLayerTableRecord
  2
PEF-L5A
 70
     0
 62
     7
  6
CONTINUOUS
  0
ENDTAB
  0
TABLE
  2
STYLE
  5
3
330
0
100
AcDbSymbolTable
 70
     1
  0
STYLE
  5
11
330
3
100
AcDbSymbolTableRecord
100
AcDbTextStyleTableRecord
  2
STANDARD
 70
     0
 40
3.0
 41
1.0
 50
0.0
 71
     0
 42
3.0
  3
ROMANS
  4
HBRDS
  0
ENDTAB
  0
TABLE
  2
VIEW
  5
6
330
0
100
AcDbSymbolTable
 70
     0
  0
ENDTAB
  0
TABLE
  2
UCS
  5
7
330
0
100
AcDbSymbolTable
 70
     0
  0
ENDTAB
  0
TABLE
  2
APPID
  5
9
330
0
100
AcDbSymbolTable
 70
     2
  0
APPID
  5
12
330
9
100
AcDbSymbolTableRecord
100
AcDbRegAppTableRecord
  2
ACAD
 70
     0
  0
APPID
  5
6C0
330
9
100
AcDbSymbolTableRecord
100
AcDbRegAppTableRecord
  2
DCO15
 70
     0
  0
ENDTAB
  0
TABLE
  2
DIMSTYLE
  5
A
330
0
100
AcDbSymbolTable
 70
     1
  0
DIMSTYLE
105
55D
330
A
100
AcDbSymbolTableRecord
100
AcDbDimStyleTableRecord
  2
STANDARD
 70
     0
  3

  4

  5

  6

  7

 40
1.0
 41
0.18
 42
0.0625
 43
0.38
 44
0.18
 45
0.0
 46
0.0
 47
0.0
 48
0.0
140
0.18
141
0.09
142
0.0
143
25.4
144
1.0
145
0.0
146
1.0
147
0.09
 71
     0
 72
     0
 73
     1
 74
     1
 75
     0
 76
     0
 77
     0
 78
     0
170
     0
171
     2
172
     0
173
     0
174
     0
175
     0
176
     0
177
     0
178
     0
270
     2
271
     4
272
     4
273
     2
274
     2
340
11
275
     0
280
     0
281
     0
282
     0
283
     1
284
     0
285
     0
286
     0
287
     3
288
     0
  0
ENDTAB
  0
TABLE
  2
BLOCK_RECORD
  5
1
330
0
100
AcDbSymbolTable
 70
     0
  0
BLOCK_RECORD
  5
1E
102
{ACAD_XDICTIONARY
360
850
102
}
330
1
100
AcDbSymbolTableRecord
100
AcDbBlockTableRecord
  2
*MODEL_SPACE
  0
BLOCK_RECORD
  5
1A
102
{ACAD_XDICTIONARY
360
84E
102
}
330
1
100
AcDbSymbolTableRecord
100
AcDbBlockTableRecord
  2
*PAPER_SPACE
  0
ENDTAB
  0
ENDSEC
  0
SECTION
  2
BLOCKS
  0
BLOCK
  5
2C
330
1E
100
AcDbEntity
  8
0
100
AcDbBlockBegin
  2
*MODEL_SPACE
 70
     0
 10
0.0
 20
0.0
 30
0.0
  3
*MODEL_SPACE
  1

  0
ENDBLK
  5
2D
330
1E
100
AcDbEntity
  8
0
100
AcDbBlockEnd
  0
BLOCK
  5
2A
330
1A
100
AcDbEntity
 67
     1
  8
0
100
AcDbBlockBegin
  2
*PAPER_SPACE
 70
     0
 10
0.0
 20
0.0
 30
0.0
  3
*PAPER_SPACE
  1

  0
ENDBLK
  5
2B
330
1A
100
AcDbEntity
 67
     1
  8
0
100
AcDbBlockEnd
  0
ENDSEC
  0
SECTION
  2
ENTITIES
  0
LINE
  5
19F
330
1E
100
AcDbEntity
  8
PEF-L5A
100
AcDbLine
 10
180.25
 20
138.25
 30
0.0
 11
176.3677143234621
 21
152.7388873943359
 31
0.0
  0
LINE
  5
1A0
330
1E
100
AcDbEntity
  8
PEF-L5A
100
AcDbLine
 10
179.0908890084531
 20
137.9394171458769
 30
0.0
 11
175.2086033319153
 21
152.4283045402128
 31
0.0
  0
ARC
  5
1A1
330
1E
100
AcDbEntity
  8
PEF-L5A
100
AcDbCircle
 10
76.61559749012375
 20
148.7922508429523
 30
0.0
 40
0.6
100
AcDbArc
 50
284.9999999999998
 51
96.640001908304
  0
LINE
  5
1A6
330
1E
100
AcDbEntity
  8
PEF-L5A
100
AcDbLine
 10
80.25
 20
122.2499999999999
 30
0.0
 11
65.25
 21
122.2499999999999
 31
0.0
  0
LINE
  5
1A7
330
1E
100
AcDbEntity
  8
PEF-L5A
100
AcDbLine
 10
81.23273008949647
 20
133.8790993799042
 30
0.0
 11
77.35044441295869
 21
148.3679867742402
 31
0.0
  0
LINE
  5
1A8
330
1E
100
AcDbEntity
  8
PEF-L5A
100
AcDbLine
 10
80.07361909794957
 20
133.5685165257813
 30
0.0
 11
76.19133342141175
 21
148.0574039201172
 31
0.0
  0
LINE
  5
1AB
330
1E
100
AcDbEntity
  8
PEF-L5A
100
AcDbLine
 10
200.2499999999999
 20
114.25
 30
0.0
 11
65.25
 21
114.25
 31
0.0
  0
LINE
  5
1B1
330
1E
100
AcDbEntity
  8
PEF-L5A
  6
CENTER
100
AcDbLine
 10
72.75
 20
110.4999999999999
 30
0.0
 11
72.75
 21
126.75
 31
0.0
  0
LINE
  5
1B4
330
1E
100
AcDbEntity
  8
PEF-L5A
100
AcDbLine
 10
65.25
 20
114.25
 30
0.0
 11
65.25
 21
122.2499999999999
 31
0.0
  0
LINE
  5
1B5
330
1E
100
AcDbEntity
  8
PEF-L5A
  6
DASHED
100
AcDbLine
 10
69.75
 20
114.25
 30
0.0
 11
69.75
 21
122.2499999999999
 31
0.0
  0
LINE
  5
1B6
330
1E
100
AcDbEntity
  8
PEF-L5A
  6
DASHED
100
AcDbLine
 10
75.75
 20
114.25
 30
0.0
 11
75.75
 21
122.2499999999999
 31
0.0
  0
LINE
  5
1B8
330
1E
100
AcDbEntity
  8
PEF-L5A
100
AcDbLine
 10
76.19133342141179
 20
148.0574039201172
 30
0.0
 11
77.35044441295869
 21
148.3679867742402
 31
0.0
  0
LINE
  5
1BB
330
1E
100
AcDbEntity
  8
PEF-L5A
  6
CENTER
100
AcDbLine
 10
130.0
 20
134.25
 30
0.0
 11
110.4999999999999
 21
134.25
 31
0.0
  0
LINE
  5
1C2
330
1E
100
AcDbEntity
  8
PEF-L5A
100
AcDbLine
 10
80.25
 20
132.25
 30
0.0
 11
80.25
 21
122.2499999999999
 31
0.0
  0
LINE
  5
1C3
330
1E
100
AcDbEntity
  8
PEF-L5A
100
AcDbLine
 10
84.25700580844944
 20
117.9559047744873
 30
0.0
 11
80.38255183808866
 21
132.4155638434607
 31
0.0
  0
LINE
  5
1C4
330
1E
100
AcDbEntity
  8
PEF-L5A
  6
CENTER
100
AcDbLine
 10
90.25
 20
112.25
 30
0.0
 11
90.25
 21
126.2499999999999
 31
0.0
  0
LINE
  5
1C8
330
1E
100
AcDbEntity
  8
PEF-L5A
  6
CENTER
100
AcDbLine
 10
97.25000000000001
 20
119.25
 30
0.0
 11
83.25000000000001
 21
119.25
 31
0.0
  0
ARC
  5
1C9
330
1E
100
AcDbEntity
  8
PEF-L5A
100
AcDbCircle
 10
89.08663493989481
 20
119.2499999999999
 30
0.0
 40
5.0
100
AcDbArc
 50
195.0
 51
270.0
  0
LINE
  5
1CA
330
1E
100
AcDbEntity
  8
PEF-L5A
  6
CENTER
100
AcDbLine
 10
94.25
 20
119.25
 30
0.0
 11
86.25
 21
119.25
 31
0.0
  0
CIRCLE
  5
1CE
330
1E
100
AcDbEntity
  8
PEF-L5A
100
AcDbCircle
 10
90.25
 20
119.25
 30
0.0
 40
1.25
  0
ARC
  5
1CF
330
1E
100
AcDbEntity
  8
PEF-L5A
100
AcDbCircle
 10
90.25
 20
119.25
 30
0.0
 40
2.0
100
AcDbArc
 50
284.0362434679263
 51
180.0
  0
LINE
  5
1D0
330
1E
100
AcDbEntity
  8
PEF-L5A
  6
CENTER
100
AcDbLine
 10
90.25
 20
123.2499999999999
 30
0.0
 11
90.25
 21
115.25
 31
0.0
  0
CIRCLE
  5
1D1
330
1E
100
AcDbEntity
  8
PEF-L5A
100
AcDbCircle
 10
90.25
 20
119.25
 30
0.0
 40
2.5
  0
LINE
  5
1D4
330
1E
100
AcDbEntity
  8
PEF-L5A
100
AcDbLine
 10
80.42691453623975
 20
132.25
 30
0.0
 11
80.25
 21
132.25
 31
0.0
  0
LINE
  5
1D9
330
1E
100
AcDbEntity
  8
PEF-L5A
  6
DASHED
100
AcDbLine
 10
80.07361909794958
 20
133.5685165257813
 30
0.0
 11
81.2327300894965
 21
133.8790993799042
 31
0.0
  0
LINE
  5
1DA
330
1E
100
AcDbEntity
  8
PEF-L5A
100
AcDbLine
 10
80.38255183808869
 20
132.4155638434607
 30
0.0
 11
81.04637025062286
 21
132.59343345102
 31
0.0
  0
ARC
  5
1DB
330
1E
100
AcDbEntity
  8
PEF-L5A
  6
DASHED
100
AcDbCircle
 10
80.80846602078455
 20
133.1442524570694
 30
0.0
 40
0.6
100
AcDbArc
 50
293.3599980916956
 51
104.9999999999997
  0
LINE
  5
1ED
330
1E
100
AcDbEntity
  8
PEF-L5A
  6
CENTER
100
AcDbLine
 10
120.25
 20
124.5
 30
0.0
 11
120.25
 21
144.0
 31
0.0
  0
CIRCLE
  5
1F7
330
1E
100
AcDbEntity
  8
PEF-L5A
  6
PHANTOM
100
AcDbCircle
 10
120.25
 20
134.25
 30
0.0
 40
7.0
  0
CIRCLE
  5
1F8
330
1E
100
AcDbEntity
  8
PEF-L5A
  6
PHANTOM
100
AcDbCircle
 10
120.25
 20
134.25
 30
0.0
 40
4.5
  0
LINE
  5
1FD
330
1E
100
AcDbEntity
  8
PEF-L5A
100
AcDbLine
 10
200.2499999999999
 20
122.2499999999999
 30
0.0
 11
180.25
 21
122.2499999999999
 31
0.0
  0
ARC
  5
1FE
330
1E
100
AcDbEntity
  8
PEF-L5A
100
AcDbCircle
 10
175.2499999999999
 20
119.25
 30
0.0
 40
5.0
100
AcDbArc
 50
270.0
 51
0.0
  0
LINE
  5
1FF
330
1E
100
AcDbEntity
  8
PEF-L5A
  6
CENTER
100
AcDbLine
 10
177.2499999999999
 20
119.25
 30
0.0
 11
163.25
 21
119.25
 31
0.0
  0
LINE
  5
208
330
1E
100
AcDbEntity
  8
PEF-L5A
  6
CENTER
100
AcDbLine
 10
170.25
 20
112.25
 30
0.0
 11
170.25
 21
126.2499999999999
 31
0.0
  0
LINE
  5
20A
330
1E
100
AcDbEntity
  8
PEF-L5A
  6
CENTER
100
AcDbLine
 10
174.2499999999999
 20
119.25
 30
0.0
 11
166.25
 21
119.25
 31
0.0
  0
ARC
  5
20B
330
1E
100
AcDbEntity
  8
PEF-L5A
100
AcDbCircle
 10
170.25
 20
119.25
 30
0.0
 40
2.0
100
AcDbArc
 50
284.0362434679263
 51
180.0
  0
CIRCLE
  5
20C
330
1E
100
AcDbEntity
  8
PEF-L5A
100
AcDbCircle
 10
170.25
 20
119.25
 30
0.0
 40
2.5
  0
LINE
  5
211
330
1E
100
AcDbEntity
  8
PEF-L5A
  6
CENTER
100
AcDbLine
 10
170.25
 20
123.2499999999999
 30
0.0
 11
170.25
 21
115.25
 31
0.0
  0
CIRCLE
  5
212
330
1E
100
AcDbEntity
  8
PEF-L5A
100
AcDbCircle
 10
170.25
 20
119.25
 30
0.0
 40
1.25
  0
LINE
  5
21C
330
1E
100
AcDbEntity
  8
PEF-L5A
  6
CENTER
100
AcDbLine
 10
192.75
 20
110.4999999999999
 30
0.0
 11
192.75
 21
126.75
 31
0.0
  0
LINE
  5
21D
330
1E
100
AcDbEntity
  8
PEF-L5A
100
AcDbLine
 10
180.25
 20
119.25
 30
0.0
 11
180.25
 21
137.0076700889204
 31
0.0
  0
LINE
  5
223
330
1E
100
AcDbEntity
  8
PEF-L5A
  6
DASHED
100
AcDbLine
 10
189.7499999999999
 20
122.2499999999999
 30
0.0
 11
189.7499999999999
 21
114.25
 31
0.0
  0
LINE
  5
227
330
1E
100
AcDbEntity
  8
PEF-L5A
100
AcDbLine
 10
200.2499999999999
 20
122.2499999999999
 30
0.0
 11
200.2499999999999
 21
114.25
 31
0.0
  0
LINE
  5
228
330
1E
100
AcDbEntity
  8
PEF-L5A
  6
DASHED
100
AcDbLine
 10
195.7499999999999
 20
122.2499999999999
 30
0.0
 11
195.7499999999999
 21
114.25
 31
0.0
  0
LINE
  5
22B
330
1E
100
AcDbEntity
  8
PEF-L5A
100
AcDbLine
 10
180.25
 20
127.7378916193818
 30
0.0
 11
180.7459774330373
 21
125.8868786398789
 31
0.0
  0
LINE
  5
22C
330
1E
100
AcDbEntity
  8
PEF-L5A
100
AcDbLine
 10
184.4802712156423
 20
127.4051177334335
 30
0.0
 11
182.9273569450272
 21
133.2006726911679
 31
0.0
  0
LINE
  5
22D
330
1E
100
AcDbEntity
  8
PEF-L5A
100
AcDbLine
 10
182.3149845093313
 20
133.5542260817613
 30
0.0
 11
184.1267178250491
 21
126.7927452977378
 31
0.0
  0
LINE
  5
22E
330
1E
100
AcDbEntity
  8
PEF-L5A
100
AcDbLine
 10
180.7459774330373
 20
125.8868786398789
 30
0.0
 11
184.1267178250491
 21
126.7927452977378
 31
0.0
  0
LINE
  5
22F
330
1E
100
AcDbEntity
  8
PEF-L5A
100
AcDbLine
 10
180.7459774330373
 20
125.8868786398789
 30
0.0
 11
180.0215330633205
 21
125.6927643560521
 31
0.0
  0
LINE
  5
230
330
1E
100
AcDbEntity
  8
PEF-L5A
100
AcDbLine
 10
184.4802712156423
 20
127.4051177334335
 30
0.0
 11
184.1267178250491
 21
126.7927452977378
 31
0.0
  0
LINE
  5
231
330
1E
100
AcDbEntity
  8
PEF-L5A
100
AcDbLine
 10
182.3149845093313
 20
133.5542260817613
 30
0.0
 11
180.25
 21
133.0009151501031
 31
0.0
  0
LINE
  5
233
330
1E
100
AcDbEntity
  8
PEF-L5A
100
AcDbLine
 10
182.9273569450272
 20
133.2006726911679
 30
0.0
 11
182.3149845093313
 21
133.5542260817613
 31
0.0
  0
LINE
  5
234
330
1E
100
AcDbEntity
  8
PEF-L5A
100
AcDbLine
 10
179.0908890084531
 20
137.9394171458769
 30
0.0
 11
180.25
 21
138.25
 31
0.0
  0
LINE
  5
235
330
1E
100
AcDbEntity
  8
PEF-L5A
100
AcDbLine
 10
179.9797510315845
 20
136.9352570960781
 30
0.0
 11
180.25
 21
137.0076700889204
 31
0.0
  0
ARC
  5
236
330
1E
100
AcDbEntity
  8
PEF-L5A
100
AcDbCircle
 10
179.8257359312879
 20
137.5151530771649
 30
0.0
 40
0.6
100
AcDbArc
 50
104.9999999999996
 51
285.1261425921494
  0
LINE
  5
237
330
1E
100
AcDbEntity
  8
PEF-L5A
100
AcDbLine
 10
76.09485977611754
 20
178.2831433210103
 30
0.0
 11
79.18582242024254
 21
179.1113642653384
 31
0.0
  0
ARC
  5
239
330
1E
100
AcDbEntity
  8
PEF-L5A
100
AcDbCircle
 10
80.24999999999996
 20
174.2499999999999
 30
0.0
 40
5.0
100
AcDbArc
 50
90.0
 51
180.0
  0
LINE
  5
23F
330
1E
100
AcDbEntity
  8
PEF-L5A
100
AcDbLine
 10
73.9302830287063
 20
169.9407146723173
 30
0.0
 11
72.11854971298862
 21
176.7021954563408
 31
0.0
  0
LINE
  5
240
330
1E
100
AcDbEntity
  8
PEF-L5A
100
AcDbLine
 10
71.7649963223954
 20
176.0898230206449
 30
0.0
 11
73.31791059301052
 21
170.2942680629105
 31
0.0
  0
LINE
  5
242
330
1E
100
AcDbEntity
  8
PEF-L5A
100
AcDbLine
 10
75.24999999999997
 20
151.5705080756888
 30
0.0
 11
75.24999999999997
 21
174.2499999999999
 31
0.0
  0
LINE
  5
246
330
1E
100
AcDbEntity
  8
PEF-L5A
100
AcDbLine
 10
75.88240068127274
 20
149.2103566024378
 30
0.0
 11
76.54621909380691
 21
149.3882262099974
 31
0.0
  0
LINE
  5
247
330
1E
100
AcDbEntity
  8
PEF-L5A
100
AcDbLine
 10
75.88240068127269
 20
149.2103566024378
 30
0.0
 11
75.24999999999997
 21
151.5705080756888
 31
0.0
  0
LINE
  5
249
330
1E
100
AcDbEntity
  8
PEF-L5A
100
AcDbLine
 10
73.9302830287063
 20
169.9407146723173
 30
0.0
 11
75.24999999999997
 21
170.2943317690131
 31
0.0
  0
LINE
  5
24A
330
1E
100
AcDbEntity
  8
PEF-L5A
100
AcDbLine
 10
73.31791059301052
 20
170.2942680629105
 30
0.0
 11
73.9302830287063
 21
169.9407146723173
 31
0.0
  0
LINE
  5
24D
330
1E
100
AcDbEntity
  8
PEF-L5A
100
AcDbLine
 10
75.49929010500041
 20
177.6080621141996
 30
0.0
 11
72.11854971298862
 21
176.7021954563408
 31
0.0
  0
LINE
  5
24E
330
1E
100
AcDbEntity
  8
PEF-L5A
100
AcDbLine
 10
71.7649963223954
 20
176.0898230206449
 30
0.0
 11
72.11854971298862
 21
176.7021954563408
 31
0.0
  0
LINE
  5
251
330
1E
100
AcDbEntity
  8
PEF-L5A
100
AcDbLine
 10
75.49929010500041
 20
177.6080621141996
 30
0.0
 11
76.22373447471716
 21
177.8021763980265
 31
0.0
  0
LINE
  5
254
330
1E
100
AcDbEntity
  8
PEF-L5A
100
AcDbLine
 10
161.5541836690756
 20
182.2499999999999
 30
0.0
 11
79.14619970843318
 21
182.2499999999999
 31
0.0
  0
LINE
  5
255
330
1E
100
AcDbEntity
  8
PEF-L5A
100
AcDbLine
 10
165.4274481704291
 20
179.2499999999999
 30
0.0
 11
80.24999999999996
 21
179.2499999999999
 31
0.0
  0
LINE
  5
25C
330
1E
100
AcDbEntity
  8
PEF-L5A
  6
CENTER
100
AcDbLine
 10
100.2541836690757
 20
186.5
 30
0.0
 11
100.2541836690757
 21
179.2499999999999
 31
0.0
  0
LINE
  5
25D
330
1E
100
AcDbEntity
  8
PEF-L5A
100
AcDbLine
 10
79.14619970843318
 20
182.2499999999999
 30
0.0
 11
79.95004728572656
 21
179.2499999999999
 31
0.0
  0
LINE
  5
275
330
1E
100
AcDbEntity
  8
PEF-L5A
100
AcDbLine
 10
79.95856308127381
 20
179.3184195014204
 30
0.0
 11
79.18582242024254
 21
179.1113642653384
 31
0.0
  0
LINE
  5
27E
330
1E
100
AcDbEntity
  8
PEF-L5A
  6
DASHED
100
AcDbLine
 10
102.7541836690758
 20
182.2499999999999
 30
0.0
 11
102.7541836690758
 21
179.2499999999999
 31
0.0
  0
LINE
  5
27F
330
1E
100
AcDbEntity
  8
PEF-L5A
  6
DASHED
100
AcDbLine
 10
102.0041836690757
 20
179.2499999999999
 30
0.0
 11
102.0041836690757
 21
182.2499999999999
 31
0.0
  0
LINE
  5
280
330
1E
100
AcDbEntity
  8
PEF-L5A
  6
DASHED
100
AcDbLine
 10
97.7541836690758
 20
182.2499999999999
 30
0.0
 11
97.75418366907581
 21
179.2499999999999
 31
0.0
  0
LINE
  5
281
330
1E
100
AcDbEntity
  8
PEF-L5A
  6
DASHED
100
AcDbLine
 10
98.50418366907582
 20
179.2499999999999
 30
0.0
 11
98.50418366907582
 21
182.2499999999999
 31
0.0
  0
LINE
  5
282
330
1E
100
AcDbEntity
  8
PEF-L5A
  6
CENTER
100
AcDbLine
 10
140.2541836690757
 20
186.5
 30
0.0
 11
140.2541836690757
 21
179.2499999999999
 31
0.0
  0
LINE
  5
285
330
1E
100
AcDbEntity
  8
PEF-L5A
  6
DASHED
100
AcDbLine
 10
142.7541836690758
 20
182.2499999999999
 30
0.0
 11
142.7541836690758
 21
179.2499999999999
 31
0.0
  0
LINE
  5
286
330
1E
100
AcDbEntity
  8
PEF-L5A
  6
DASHED
100
AcDbLine
 10
142.0041836690758
 20
179.2499999999999
 30
0.0
 11
142.0041836690758
 21
182.2499999999999
 31
0.0
  0
LINE
  5
287
330
1E
100
AcDbEntity
  8
PEF-L5A
  6
DASHED
100
AcDbLine
 10
137.7541836690757
 20
182.2499999999999
 30
0.0
 11
137.7541836690757
 21
179.2499999999999
 31
0.0
  0
LINE
  5
288
330
1E
100
AcDbEntity
  8
PEF-L5A
  6
DASHED
100
AcDbLine
 10
138.5041836690757
 20
179.2499999999999
 30
0.0
 11
138.5041836690757
 21
182.2499999999999
 31
0.0
  0
LINE
  5
293
330
1E
100
AcDbEntity
  8
PEF-L5A
100
AcDbLine
 10
177.2296214784954
 20
157.5558735844766
 30
0.0
 11
175.6767072078803
 21
163.351428542211
 31
0.0
  0
LINE
  5
294
330
1E
100
AcDbEntity
  8
PEF-L5A
100
AcDbLine
 10
177.2296214784954
 20
157.5558735844766
 30
0.0
 11
176.8760680879021
 21
156.9435011487809
 31
0.0
  0
LINE
  5
295
330
1E
100
AcDbEntity
  8
PEF-L5A
  6
CENTER
100
AcDbLine
 10
174.4447474721548
 20
159.9154973846856
 30
0.0
 11
179.2617347702626
 21
161.2062052411645
 31
0.0
  0
LINE
  5
296
330
1E
100
AcDbEntity
  8
PEF-L5A
100
AcDbLine
 10
161.5541836690756
 20
182.2499999999999
 30
0.0
 11
162.358031246369
 21
179.2499999999999
 31
0.0
  0
LINE
  5
29D
330
1E
100
AcDbEntity
  8
PEF-L5A
100
AcDbLine
 10
163.1137026582285
 20
179.5207585412383
 30
0.0
 11
163.1862521906971
 21
179.2499999999999
 31
0.0
  0
LINE
  5
29E
330
1E
100
AcDbEntity
  8
PEF-L5A
100
AcDbLine
 10
176.0571318456923
 20
153.8979969813138
 30
0.0
 11
170.2570773018745
 21
175.5440952255125
 31
0.0
  0
LINE
  5
2A4
330
1E
100
AcDbEntity
  8
PEF-L5A
100
AcDbLine
 10
175.0643347721844
 20
163.7049819328044
 30
0.0
 11
176.8760680879021
 21
156.9435011487809
 31
0.0
  0
ARC
  5
2AA
330
1E
100
AcDbEntity
  8
PEF-L5A
100
AcDbCircle
 10
175.6328674006271
 20
153.1631514630479
 30
0.0
 40
0.6
100
AcDbArc
 50
104.8738574078504
 51
285.0000000000001
  0
LINE
  5
2AB
330
1E
100
AcDbEntity
  8
PEF-L5A
100
AcDbLine
 10
175.2086033319153
 20
152.4283045402128
 30
0.0
 11
176.3677143234621
 21
152.7388873943359
 31
0.0
  0
LINE
  5
2AC
330
1E
100
AcDbEntity
  8
PEF-L5A
100
AcDbLine
 10
175.4763003995069
 20
153.7423636643698
 30
0.0
 11
176.0571318456923
 21
153.8979969813138
 31
0.0
  0
LINE
  5
2B0
330
1E
100
AcDbEntity
  8
PEF-L5A
100
AcDbLine
 10
175.3506141300136
 20
156.5347569926738
 30
0.0
 11
176.8760680879021
 21
156.9435011487809
 31
0.0
  0
LINE
  5
2B5
330
1E
100
AcDbEntity
  8
PEF-L5A
100
AcDbLine
 10
175.0643347721844
 20
163.7049819328044
 30
0.0
 11
173.538880814296
 21
163.2962377766973
 31
0.0
  0
LINE
  5
2B7
330
1E
100
AcDbEntity
  8
PEF-L5A
100
AcDbLine
 10
175.6767072078803
 20
163.351428542211
 30
0.0
 11
175.0643347721844
 21
163.7049819328044
 31
0.0
  0
LINE
  5
2BF
330
1E
100
AcDbEntity
  8
PEF-L5A
100
AcDbLine
 10
170.4392595866333
 20
180.9659975141075
 30
0.0
 11
167.0585191946216
 21
180.0601308562487
 31
0.0
  0
LINE
  5
2C0
330
1E
100
AcDbEntity
  8
PEF-L5A
100
AcDbLine
 10
170.7255389444624
 20
173.7957725739769
 30
0.0
 11
172.250992902351
 21
174.204516730084
 31
0.0
  0
ARC
  5
2C1
330
1E
100
AcDbEntity
  8
PEF-L5A
100
AcDbCircle
 10
165.4274481704291
 20
174.2499999999999
 30
0.0
 40
5.0
100
AcDbArc
 50
14.99999999999983
 51
90.0
  0
LINE
  5
2C2
330
1E
100
AcDbEntity
  8
PEF-L5A
100
AcDbLine
 10
166.5322508015553
 20
179.1264137587222
 30
0.0
 11
166.2046653023535
 21
180.3489794855664
 31
0.0
  0
LINE
  5
2C3
330
1E
100
AcDbEntity
  8
PEF-L5A
100
AcDbLine
 10
167.0585191946216
 20
180.0601308562487
 30
0.0
 11
167.3822238369603
 21
178.8520486843944
 31
0.0
  0
LINE
  5
2C6
330
1E
100
AcDbEntity
  8
PEF-L5A
100
AcDbLine
 10
166.2046653023535
 20
180.3489794855664
 30
0.0
 11
163.1137026582285
 21
179.5207585412383
 31
0.0
  0
LINE
  5
2C7
330
1E
100
AcDbEntity
  8
PEF-L5A
100
AcDbLine
 10
162.3409619971972
 20
179.3137033051563
 30
0.0
 11
163.1137026582285
 21
179.5207585412383
 31
0.0
  0
LINE
  5
2C8
330
1E
100
AcDbEntity
  8
PEF-L5A
100
AcDbLine
 10
166.3340748249048
 20
179.8660165724217
 30
0.0
 11
167.0585191946216
 21
180.0601308562487
 31
0.0
  0
LINE
  5
2C9
330
1E
100
AcDbEntity
  8
PEF-L5A
100
AcDbLine
 10
172.6045462929443
 20
174.8168891657799
 30
0.0
 11
171.0516320223291
 21
180.6124441235143
 31
0.0
  0
LINE
  5
2CA
330
1E
100
AcDbEntity
  8
PEF-L5A
100
AcDbLine
 10
170.4392595866333
 20
180.9659975141075
 30
0.0
 11
172.250992902351
 21
174.204516730084
 31
0.0
  0
LINE
  5
2CB
330
1E
100
AcDbEntity
  8
PEF-L5A
100
AcDbLine
 10
172.6045462929443
 20
174.8168891657799
 30
0.0
 11
172.250992902351
 21
174.204516730084
 31
0.0
  0
LINE
  5
2CC
330
1E
100
AcDbEntity
  8
PEF-L5A
100
AcDbLine
 10
171.0516320223291
 20
180.6124441235143
 30
0.0
 11
170.4392595866333
 21
180.9659975141075
 31
0.0
  0
LINE
  5
2D7
330
1E
100
AcDbEntity
  8
PEF-L5A
100
AcDbLine
 10
303.0
 20
138.25
 30
0.0
 11
303.0
 21
152.7388873943359
 31
0.0
  0
LINE
  5
2D8
330
1E
100
AcDbEntity
  8
PEF-L5A
100
AcDbLine
 10
304.0
 20
138.25
 30
0.0
 11
304.0
 21
152.7388873943359
 31
0.0
  0
LINE
  5
2D9
330
1E
100
AcDbEntity
  8
PEF-L5A
100
AcDbLine
 10
314.25
 20
114.25
 30
0.0
 11
314.25
 21
179.2499999999999
 31
0.0
  0
LINE
  5
2DA
330
1E
100
AcDbEntity
  8
PEF-L5A
100
AcDbLine
 10
292.75
 20
114.25
 30
0.0
 11
292.75
 21
179.2499999999999
 31
0.0
  0
LINE
  5
2DB
330
1E
100
AcDbEntity
  8
PEF-L5A
  6
CENTER
100
AcDbLine
 10
303.5
 20
110.7499999999999
 30
0.0
 11
303.5
 21
185.7499999999999
 31
0.0
  0
TEXT
  5
2DF
330
1E
100
AcDbEntity
  8
PEF-L5A
100
AcDbText
 10
234.25
 20
114.25
 30
0.0
 40
3.0
  1
PEF-L5A
100
AcDbText
  0
LINE
  5
2FA
330
1E
100
AcDbEntity
  8
PEF-L5A
100
AcDbLine
 10
294.0
 20
122.2499999999999
 30
0.0
 11
313.0
 21
122.2499999999999
 31
0.0
  0
LINE
  5
2FB
330
1E
100
AcDbEntity
  8
PEF-L5A
100
AcDbLine
 10
295.5
 20
123.7862966948437
 30
0.0
 11
311.5
 21
123.7862966948437
 31
0.0
  0
LINE
  5
2FC
330
1E
100
AcDbEntity
  8
PEF-L5A
100
AcDbLine
 10
295.5
 20
124.3815804985795
 30
0.0
 11
311.5
 21
124.3815804985795
 31
0.0
  0
LINE
  5
2FD
330
1E
100
AcDbEntity
  8
PEF-L5A
100
AcDbLine
 10
295.5
 20
125.2098014429076
 30
0.0
 11
311.5
 21
125.2098014429076
 31
0.0
  0
LINE
  5
2FE
330
1E
100
AcDbEntity
  8
PEF-L5A
100
AcDbLine
 10
304.0
 20
138.25
 30
0.0
 11
314.25
 21
138.25
 31
0.0
  0
LWPOLYLINE
  5
2FF
330
1E
100
AcDbEntity
  8
PEF-L5A
100
AcDbPolyline
 90
       10
 70
     0
 43
0.0
 10
304.0265420175333
 20
129.9699170052122
 42
0.11192471907492
 10
303.75
 20
128.75
 42
0.11192471907493
 10
304.0265420175333
 20
127.5300829947877
 42
0.1030783360639695
 10
304.8483495705504
 20
126.4519029611437
 42
0.0926219775485461
 10
306.0414032635217
 20
125.7538757686139
 42
0.0863780754328297
 10
307.5
 20
125.5
 42
0.0863780754328266
 10
308.9585967364781
 20
125.7538757686139
 42
0.0926219775485472
 10
310.1516504294494
 20
126.4519029611437
 42
0.1030783360639531
 10
310.9734579824665
 20
127.5300829947875
 42
0.1119247190749236
 10
311.25
 20
128.75
 42
0.1119247190749175
  0
LWPOLYLINE
  5
30B
330
1E
100
AcDbEntity
  8
PEF-L5A
100
AcDbPolyline
 90
        9
 70
     0
 43
0.0
 10
304.0
 20
128.8028952123007
 42
0.1130168661468906
 10
304.2574063439754
 20
127.6786446920413
 42
0.1033690028891437
 10
305.0251262658471
 20
126.6815748687412
 42
0.0921264087088323
 10
306.1370973570995
 20
126.0376591300589
 42
0.0854968845748653
 10
307.5
 20
125.8028952123007
 42
0.0854968845748637
 10
308.8629026429003
 20
126.0376591300589
 42
0.092126408708839
 10
309.9748737341527
 20
126.6815748687412
 42
0.1033690028891378
 10
310.7425936560246
 20
127.6786446920413
 42
0.1130168661468798
 10
311.0
 20
128.8028952123007
 42
0.1130168661469052
  0
LWPOLYLINE
  5
316
330
1E
100
AcDbEntity
  8
PEF-L5A
100
AcDbPolyline
 90
        4
 70
     0
 43
0.0
 10
309.1778312163512
 20
130.1778952123008
 10
308.375
 20
131.5684396689235
 10
306.625
 20
131.5684396689235
 10
305.8221687836486
 20
130.1778952123008
  0
LWPOLYLINE
  5
31C
330
1E
100
AcDbEntity
  8
PEF-L5A
100
AcDbPolyline
 90
        6
 70
     1
 43
0.0
 10
309.25
 20
130.3028952123008
 10
308.375
 20
131.8184396689235
 10
306.625
 20
131.8184396689235
 10
305.75
 20
130.3028952123008
 10
306.625
 20
128.787350755678
 10
308.375
 20
128.787350755678
  0
LWPOLYLINE
  5
324
330
1E
100
AcDbEntity
  8
PEF-L5A
100
AcDbPolyline
 90
       16
 70
     1
 43
0.0
 10
310.4999999999999
 20
130.3028952123008
 42
0.1158364334852868
 10
310.2809269199738
 20
131.2358207762096
 42
0.1040652874261409
 10
309.6213203435596
 20
132.0706621652672
 42
0.0908400621127402
 10
308.6714981514989
 20
132.6063959764015
 42
0.0832849129649478
 10
307.5
 20
132.8028952123007
 42
0.0832849129649379
 10
306.3285018485012
 20
132.6063959764015
 42
0.0908400621127488
 10
305.3786796564403
 20
132.0706621652672
 42
0.1040652874261325
 10
304.7190730800261
 20
131.2358207762096
 42
0.1158364334852834
 10
304.4999999999999
 20
130.3028952123008
 42
0.1158364334852825
 10
304.719073080026
 20
129.3699696483921
 42
0.1040652874261553
 10
305.3786796564403
 20
128.5351282593345
 42
0.0908400621127482
 10
306.3285018485012
 20
127.9993944481999
 42
0.0832849129649418
 10
307.5
 20
127.8028952123007
 42
0.0832849129649438
 10
308.6714981514986
 20
127.9993944481999
 42
0.0908400621127549
 10
309.6213203435596
 20
128.5351282593345
 42
0.1040652874261466
 10
310.2809269199738
 20
129.3699696483921
 42
0.1158364334852791
  0
LWPOLYLINE
  5
336
330
1E
100
AcDbEntity
  8
PEF-L5A
100
AcDbPolyline
 90
       16
 70
     1
 43
0.0
 10
311.0
 20
130.3028952123008
 42
0.1130168661469052
 10
310.7425936560246
 20
131.4271457325604
 42
0.1033690028891374
 10
309.9748737341527
 20
132.4242155558605
 42
0.0921264087088338
 10
308.8629026429003
 20
133.0681312945426
 42
0.0854968845748586
 10
307.5
 20
133.3028952123008
 42
0.0854968845748619
 10
306.1370973570995
 20
133.0681312945426
 42
0.0921264087088331
 10
305.0251262658471
 20
132.4242155558605
 42
0.1033690028891242
 10
304.2574063439752
 20
131.4271457325604
 42
0.1130168661468742
 10
304.0
 20
130.3028952123008
 42
0.1130168661468906
 10
304.2574063439754
 20
129.1786446920412
 42
0.1033690028891437
 10
305.0251262658471
 20
128.1815748687411
 42
0.0921264087088323
 10
306.1370973570995
 20
127.537659130059
 42
0.0854968845748653
 10
307.5
 20
127.3028952123008
 42
0.0854968845748637
 10
308.8629026429003
 20
127.537659130059
 42
0.092126408708839
 10
309.9748737341527
 20
128.1815748687411
 42
0.1033690028891378
 10
310.7425936560246
 20
129.1786446920412
 42
0.1130168661468798
  0
LINE
  5
348
330
1E
100
AcDbEntity
  8
PEF-L5A
100
AcDbLine
 10
292.75
 20
114.25
 30
0.0
 11
314.25
 21
114.25
 31
0.0
  0
LINE
  5
34A
330
1E
100
AcDbEntity
  8
PEF-L5A
100
AcDbLine
 10
295.5
 20
123.7862966948437
 30
0.0
 11
295.5
 21
138.25
 31
0.0
  0
LINE
  5
34B
330
1E
100
AcDbEntity
  8
PEF-L5A
100
AcDbLine
 10
294.0
 20
114.25
 30
0.0
 11
294.0
 21
138.25
 31
0.0
  0
ARC
  5
34C
330
1E
100
AcDbEntity
  8
PEF-L5A
100
AcDbCircle
 10
293.9499999999999
 20
119.25
 30
0.0
 40
3.700000000000004
100
AcDbArc
 50
108.9246444160514
 51
251.0753555839484
  0
LINE
  5
34D
330
1E
100
AcDbEntity
  8
PEF-L5A
  6
CENTER
100
AcDbLine
 10
298.0
 20
119.25
 30
0.0
 11
287.25
 21
119.25
 31
0.0
  0
ARC
  5
351
330
1E
100
AcDbEntity
  8
PEF-L5A
100
AcDbCircle
 10
292.75
 20
128.75
 30
0.0
 40
1.5
100
AcDbArc
 50
180.0
 51
270.0
  0
ARC
  5
352
330
1E
100
AcDbEntity
  8
PEF-L5A
100
AcDbCircle
 10
292.75
 20
139.7499999999999
 30
0.0
 40
1.5
100
AcDbArc
 50
90.0
 51
180.0
  0
LINE
  5
353
330
1E
100
AcDbEntity
  8
PEF-L5A
100
AcDbLine
 10
291.25
 20
128.75
 30
0.0
 11
291.25
 21
139.7499999999999
 31
0.0
  0
LWPOLYLINE
  5
354
330
1E
100
AcDbEntity
  8
PEF-L5A
100
AcDbPolyline
 90
        9
 70
     0
 43
0.0
 10
296.0
 20
128.8028952123007
 42
0.1130168661468906
 10
296.2574063439752
 20
127.6786446920413
 42
0.1033690028891437
 10
297.0251262658471
 20
126.6815748687412
 42
0.0921264087088323
 10
298.1370973570994
 20
126.0376591300589
 42
0.0854968845748653
 10
299.5
 20
125.8028952123007
 42
0.0854968845748637
 10
300.8629026429003
 20
126.0376591300589
 42
0.092126408708839
 10
301.9748737341529
 20
126.6815748687412
 42
0.1033690028891378
 10
302.7425936560246
 20
127.6786446920413
 42
0.1130168661468798
 10
303.0
 20
128.8028952123007
 42
0.1130168661469052
  0
LWPOLYLINE
  5
35F
330
1E
100
AcDbEntity
  8
PEF-L5A
100
AcDbPolyline
 90
       10
 70
     0
 43
0.0
 10
296.0265420175333
 20
129.9699170052122
 42
0.11192471907492
 10
295.7499999999999
 20
128.75
 42
0.11192471907493
 10
296.0265420175333
 20
127.5300829947877
 42
0.1030783360639695
 10
296.8483495705504
 20
126.4519029611437
 42
0.0926219775485461
 10
298.0414032635217
 20
125.7538757686139
 42
0.0863780754328297
 10
299.5
 20
125.5
 42
0.0863780754328266
 10
300.9585967364781
 20
125.7538757686139
 42
0.0926219775485472
 10
302.1516504294495
 20
126.4519029611437
 42
0.1030783360639531
 10
302.9734579824665
 20
127.5300829947875
 42
0.1119247190749236
 10
303.25
 20
128.75
 42
0.1119247190749175
  0
LWPOLYLINE
  5
36B
330
1E
100
AcDbEntity
  8
PEF-L5A
100
AcDbPolyline
 90
       16
 70
     1
 43
0.0
 10
303.0
 20
130.3028952123008
 42
0.1130168661469052
 10
302.7425936560246
 20
131.4271457325604
 42
0.1033690028891374
 10
301.9748737341529
 20
132.4242155558605
 42
0.0921264087088338
 10
300.8629026429003
 20
133.0681312945426
 42
0.0854968845748586
 10
299.5
 20
133.3028952123008
 42
0.0854968845748619
 10
298.1370973570994
 20
133.0681312945426
 42
0.0921264087088331
 10
297.0251262658471
 20
132.4242155558605
 42
0.1033690028891242
 10
296.2574063439752
 20
131.4271457325604
 42
0.1130168661468742
 10
296.0
 20
130.3028952123008
 42
0.1130168661468906
 10
296.2574063439752
 20
129.1786446920412
 42
0.1033690028891437
 10
297.0251262658471
 20
128.1815748687411
 42
0.0921264087088323
 10
298.1370973570994
 20
127.537659130059
 42
0.0854968845748653
 10
299.5
 20
127.3028952123008
 42
0.0854968845748637
 10
300.8629026429003
 20
127.537659130059
 42
0.092126408708839
 10
301.9748737341529
 20
128.1815748687411
 42
0.1033690028891378
 10
302.7425936560246
 20
129.1786446920412
 42
0.1130168661468798
  0
LWPOLYLINE
  5
37D
330
1E
100
AcDbEntity
  8
PEF-L5A
100
AcDbPolyline
 90
       16
 70
     1
 43
0.0
 10
302.4999999999999
 20
130.3028952123008
 42
0.1158364334852868
 10
302.2809269199738
 20
131.2358207762096
 42
0.1040652874261409
 10
301.6213203435595
 20
132.0706621652672
 42
0.0908400621127402
 10
300.6714981514988
 20
132.6063959764015
 42
0.0832849129649478
 10
299.5
 20
132.8028952123007
 42
0.0832849129649379
 10
298.3285018485012
 20
132.6063959764015
 42
0.0908400621127488
 10
297.3786796564403
 20
132.0706621652672
 42
0.1040652874261325
 10
296.7190730800261
 20
131.2358207762096
 42
0.1158364334852834
 10
296.4999999999998
 20
130.3028952123008
 42
0.1158364334852825
 10
296.719073080026
 20
129.3699696483921
 42
0.1040652874261553
 10
297.3786796564403
 20
128.5351282593345
 42
0.0908400621127482
 10
298.3285018485012
 20
127.9993944481999
 42
0.0832849129649418
 10
299.5
 20
127.8028952123007
 42
0.0832849129649438
 10
300.6714981514988
 20
127.9993944481999
 42
0.0908400621127549
 10
301.6213203435595
 20
128.5351282593345
 42
0.1040652874261466
 10
302.2809269199738
 20
129.3699696483921
 42
0.1158364334852791
  0
LWPOLYLINE
  5
38F
330
1E
100
AcDbEntity
  8
PEF-L5A
100
AcDbPolyline
 90
        6
 70
     1
 43
0.0
 10
301.25
 20
130.3028952123008
 10
300.375
 20
131.8184396689235
 10
298.625
 20
131.8184396689235
 10
297.75
 20
130.3028952123008
 10
298.625
 20
128.787350755678
 10
300.375
 20
128.787350755678
  0
LWPOLYLINE
  5
397
330
1E
100
AcDbEntity
  8
PEF-L5A
100
AcDbPolyline
 90
        4
 70
     0
 43
0.0
 10
301.1778312163511
 20
130.1778952123008
 10
300.375
 20
131.5684396689235
 10
298.625
 20
131.5684396689235
 10
297.8221687836486
 20
130.1778952123008
  0
LINE
  5
39D
330
1E
100
AcDbEntity
  8
PEF-L5A
100
AcDbLine
 10
296.0
 20
128.8028952123007
 30
0.0
 11
296.0
 21
130.3028952123008
 31
0.0
  0
LINE
  5
39E
330
1E
100
AcDbEntity
  8
PEF-L5A
100
AcDbLine
 10
295.5
 20
132.9372080532201
 30
0.0
 11
297.8187060780967
 21
132.9372080532201
 31
0.0
  0
LINE
  5
39F
330
1E
100
AcDbEntity
  8
PEF-L5A
100
AcDbLine
 10
303.0
 20
128.8028952123007
 30
0.0
 11
303.0
 21
130.3028952123008
 31
0.0
  0
LWPOLYLINE
  5
3A0
330
1E
100
AcDbEntity
  8
PEF-L5A
100
AcDbPolyline
 90
        2
 70
     0
 43
0.0
 10
303.25
 20
128.75
 42
0.1119247190749288
 10
302.9734579824665
 20
129.9699170052122
 42
0.1030783360639576
  0
LINE
  5
3A4
330
1E
100
AcDbEntity
  8
PEF-L5A
100
AcDbLine
 10
304.0
 20
128.8028952123007
 30
0.0
 11
304.0
 21
130.3028952123008
 31
0.0
  0
LINE
  5
3A5
330
1E
100
AcDbEntity
  8
PEF-L5A
100
AcDbLine
 10
301.1812939219032
 20
132.9372080532201
 30
0.0
 11
305.8187060780966
 21
132.9372080532201
 31
0.0
  0
LINE
  5
3A6
330
1E
100
AcDbEntity
  8
PEF-L5A
100
AcDbLine
 10
292.75
 20
138.25
 30
0.0
 11
303.0
 21
138.25
 31
0.0
  0
LINE
  5
3A7
330
1E
100
AcDbEntity
  8
PEF-L5A
100
AcDbLine
 10
311.5
 20
123.7862966948437
 30
0.0
 11
311.5
 21
138.25
 31
0.0
  0
LINE
  5
3A8
330
1E
100
AcDbEntity
  8
PEF-L5A
100
AcDbLine
 10
313.0
 20
114.25
 30
0.0
 11
313.0
 21
138.25
 31
0.0
  0
LINE
  5
3AB
330
1E
100
AcDbEntity
  8
PEF-L5A
  6
CENTER
100
AcDbLine
 10
309.0
 20
119.25
 30
0.0
 11
319.75
 21
119.25
 31
0.0
  0
ARC
  5
3AC
330
1E
100
AcDbEntity
  8
PEF-L5A
100
AcDbCircle
 10
313.0499999999999
 20
119.25
 30
0.0
 40
3.700000000000004
100
AcDbArc
 50
288.9246444160514
 51
71.07535558394849
  0
LINE
  5
3AD
330
1E
100
AcDbEntity
  8
PEF-L5A
100
AcDbLine
 10
315.75
 20
128.75
 30
0.0
 11
315.75
 21
139.7499999999999
 31
0.0
  0
LWPOLYLINE
  5
3AE
330
1E
100
AcDbEntity
  8
PEF-L5A
100
AcDbPolyline
 90
        2
 70
     0
 43
0.0
 10
311.25
 20
128.75
 42
0.1119247190749288
 10
310.9734579824665
 20
129.9699170052122
 42
0.1030783360639576
  0
LINE
  5
3B2
330
1E
100
AcDbEntity
  8
PEF-L5A
100
AcDbLine
 10
311.0
 20
128.8028952123007
 30
0.0
 11
311.0
 21
130.3028952123008
 31
0.0
  0
ARC
  5
3B3
330
1E
100
AcDbEntity
  8
PEF-L5A
100
AcDbCircle
 10
314.25
 20
128.75
 30
0.0
 40
1.5
100
AcDbArc
 50
270.0
 51
0.0
  0
LINE
  5
3B4
330
1E
100
AcDbEntity
  8
PEF-L5A
100
AcDbLine
 10
309.1812939219032
 20
132.9372080532201
 30
0.0
 11
311.5
 21
132.9372080532201
 31
0.0
  0
ARC
  5
3B5
330
1E
100
AcDbEntity
  8
PEF-L5A
100
AcDbCircle
 10
314.25
 20
139.7499999999999
 30
0.0
 40
1.5
100
AcDbArc
 50
0.0
 51
90.0
  0
LINE
  5
3C2
330
1E
100
AcDbEntity
  8
PEF-L5A
100
AcDbLine
 10
295.0
 20
182.2499999999999
 30
0.0
 11
312.0
 21
182.2499999999999
 31
0.0
  0
LWPOLYLINE
  5
3C3
330
1E
100
AcDbEntity
  8
PEF-L5A
100
AcDbPolyline
 90
       10
 70
     0
 43
0.0
 10
304.0265420175333
 20
177.3816884375584
 42
0.11192471907492
 10
303.75
 20
176.1617714323461
 42
0.11192471907493
 10
304.0265420175333
 20
174.9418544271339
 42
0.1030783360639695
 10
304.8483495705504
 20
173.8636743934899
 42
0.0926219775485461
 10
306.0414032635217
 20
173.1656472009601
 42
0.0863780754328297
 10
307.5
 20
172.9117714323461
 42
0.0863780754328266
 10
308.9585967364781
 20
173.1656472009601
 42
0.0926219775485472
 10
310.1516504294494
 20
173.8636743934899
 42
0.1030783360639531
 10
310.9734579824665
 20
174.9418544271339
 42
0.1119247190749236
 10
311.25
 20
176.1617714323461
 42
0.1119247190749175
  0
LWPOLYLINE
  5
3CF
330
1E
100
AcDbEntity
  8
PEF-L5A
100
AcDbPolyline
 90
        9
 70
     0
 43
0.0
 10
304.0
 20
176.2146666446471
 42
0.1130168661468906
 10
304.2574063439754
 20
175.0904161243875
 42
0.1033690028891437
 10
305.0251262658471
 20
174.0933463010874
 42
0.0921264087088323
 10
306.1370973570995
 20
173.4494305624052
 42
0.0854968845748653
 10
307.5
 20
173.2146666446471
 42
0.0854968845748637
 10
308.8629026429003
 20
173.4494305624052
 42
0.092126408708839
 10
309.9748737341527
 20
174.0933463010874
 42
0.1033690028891378
 10
310.7425936560246
 20
175.0904161243875
 42
0.1130168661468798
 10
311.0
 20
176.2146666446471
 42
0.1130168661469052
  0
LWPOLYLINE
  5
3DA
330
1E
100
AcDbEntity
  8
PEF-L5A
100
AcDbPolyline
 90
        4
 70
     0
 43
0.0
 10
309.1778312163512
 20
177.589666644647
 10
308.375
 20
178.9802111012697
 10
306.625
 20
178.9802111012697
 10
305.8221687836486
 20
177.589666644647
  0
LWPOLYLINE
  5
3E0
330
1E
100
AcDbEntity
  8
PEF-L5A
100
AcDbPolyline
 90
        6
 70
     1
 43
0.0
 10
309.25
 20
177.7146666446471
 10
308.375
 20
179.2302111012697
 10
306.625
 20
179.2302111012697
 10
305.75
 20
177.7146666446471
 10
306.625
 20
176.1991221880243
 10
308.375
 20
176.1991221880243
  0
LWPOLYLINE
  5
3E8
330
1E
100
AcDbEntity
  8
PEF-L5A
100
AcDbPolyline
 90
       16
 70
     1
 43
0.0
 10
310.4999999999999
 20
177.7146666446471
 42
0.1158364334852868
 10
310.2809269199738
 20
178.6475922085559
 42
0.1040652874261409
 10
309.6213203435596
 20
179.4824335976134
 42
0.0908400621127402
 10
308.6714981514989
 20
180.0181674087478
 42
0.0832849129649478
 10
307.5
 20
180.2146666446471
 42
0.0832849129649379
 10
306.3285018485012
 20
180.0181674087479
 42
0.0908400621127488
 10
305.3786796564403
 20
179.4824335976134
 42
0.1040652874261325
 10
304.7190730800261
 20
178.6475922085559
 42
0.1158364334852834
 10
304.4999999999999
 20
177.7146666446471
 42
0.1158364334852825
 10
304.719073080026
 20
176.7817410807382
 42
0.1040652874261553
 10
305.3786796564403
 20
175.9468996916806
 42
0.0908400621127482
 10
306.3285018485012
 20
175.4111658805463
 42
0.0832849129649418
 10
307.5
 20
175.2146666446471
 42
0.0832849129649438
 10
308.6714981514986
 20
175.4111658805463
 42
0.0908400621127549
 10
309.6213203435596
 20
175.9468996916806
 42
0.1040652874261466
 10
310.2809269199738
 20
176.7817410807382
 42
0.1158364334852791
  0
LWPOLYLINE
  5
3FA
330
1E
100
AcDbEntity
  8
PEF-L5A
100
AcDbPolyline
 90
       16
 70
     1
 43
0.0
 10
311.0
 20
177.7146666446471
 42
0.1130168661469052
 10
310.7425936560246
 20
178.8389171649066
 42
0.1033690028891374
 10
309.9748737341527
 20
179.8359869882066
 42
0.0921264087088338
 10
308.8629026429003
 20
180.4799027268889
 42
0.0854968845748586
 10
307.5
 20
180.7146666446469
 42
0.0854968845748619
 10
306.1370973570995
 20
180.4799027268889
 42
0.0921264087088331
 10
305.0251262658471
 20
179.8359869882066
 42
0.1033690028891242
 10
304.2574063439752
 20
178.8389171649066
 42
0.1130168661468742
 10
304.0
 20
177.7146666446471
 42
0.1130168661468906
 10
304.2574063439754
 20
176.5904161243875
 42
0.1033690028891437
 10
305.0251262658471
 20
175.5933463010874
 42
0.0921264087088323
 10
306.1370973570995
 20
174.9494305624052
 42
0.0854968845748653
 10
307.5
 20
174.7146666446471
 42
0.0854968845748637
 10
308.8629026429003
 20
174.9494305624052
 42
0.092126408708839
 10
309.9748737341527
 20
175.5933463010874
 42
0.1033690028891378
 10
310.7425936560246
 20
176.5904161243875
 42
0.1130168661468798
  0
LINE
  5
40C
330
1E
100
AcDbEntity
  8
PEF-L5A
100
AcDbLine
 10
295.5
 20
172.6215728752538
 30
0.0
 11
311.5
 21
172.6215728752538
 31
0.0
  0
LINE
  5
40D
330
1E
100
AcDbEntity
  8
PEF-L5A
100
AcDbLine
 10
295.4999999999998
 20
171.7933519309257
 30
0.0
 11
311.5
 21
171.7933519309257
 31
0.0
  0
LINE
  5
40E
330
1E
100
AcDbEntity
  8
PEF-L5A
100
AcDbLine
 10
295.4999999999998
 20
171.1980681271899
 30
0.0
 11
311.5
 21
171.1980681271899
 31
0.0
  0
LINE
  5
40F
330
1E
100
AcDbEntity
  8
PEF-L5A
100
AcDbLine
 10
304.0
 20
152.7388873943359
 30
0.0
 11
314.25
 21
152.7388873943359
 31
0.0
  0
LWPOLYLINE
  5
410
330
1E
100
AcDbEntity
  8
PEF-L5A
100
AcDbPolyline
 90
       16
 70
     1
 43
0.0
 10
311.0
 20
160.4536510633439
 42
0.1130168661469052
 10
310.7425936560246
 20
161.5779015836035
 42
0.1033690028891374
 10
309.9748737341527
 20
162.5749714069035
 42
0.0921264087088338
 10
308.8629026429003
 20
163.2188871455857
 42
0.0854968845748586
 10
307.5
 20
163.453651063344
 42
0.0854968845748619
 10
306.1370973570995
 20
163.2188871455857
 42
0.0921264087088331
 10
305.0251262658471
 20
162.5749714069035
 42
0.1033690028891242
 10
304.2574063439752
 20
161.5779015836035
 42
0.1130168661468742
 10
304.0
 20
160.4536510633439
 42
0.1130168661468906
 10
304.2574063439754
 20
159.3294005430843
 42
0.1033690028891437
 10
305.0251262658471
 20
158.3323307197843
 42
0.0921264087088323
 10
306.1370973570995
 20
157.688414981102
 42
0.0854968845748653
 10
307.5
 20
157.4536510633438
 42
0.0854968845748637
 10
308.8629026429003
 20
157.688414981102
 42
0.092126408708839
 10
309.9748737341527
 20
158.3323307197843
 42
0.1033690028891378
 10
310.7425936560246
 20
159.3294005430843
 42
0.1130168661468798
  0
LWPOLYLINE
  5
422
330
1E
100
AcDbEntity
  8
PEF-L5A
100
AcDbPolyline
 90
       16
 70
     1
 43
0.0
 10
310.4999999999999
 20
160.4536510633439
 42
0.1158364334852868
 10
310.2809269199738
 20
161.3865766272527
 42
0.1040652874261409
 10
309.6213203435596
 20
162.2214180163103
 42
0.0908400621127402
 10
308.6714981514989
 20
162.7571518274447
 42
0.0832849129649478
 10
307.5
 20
162.9536510633438
 42
0.0832849129649379
 10
306.3285018485012
 20
162.7571518274447
 42
0.0908400621127488
 10
305.3786796564403
 20
162.2214180163103
 42
0.1040652874261325
 10
304.7190730800261
 20
161.3865766272527
 42
0.1158364334852834
 10
304.4999999999999
 20
160.4536510633439
 42
0.1158364334852825
 10
304.719073080026
 20
159.5207254994352
 42
0.1040652874261553
 10
305.3786796564403
 20
158.6858841103776
 42
0.0908400621127482
 10
306.3285018485012
 20
158.150150299243
 42
0.0832849129649418
 10
307.5
 20
157.9536510633438
 42
0.0832849129649438
 10
308.6714981514986
 20
158.150150299243
 42
0.0908400621127549
 10
309.6213203435596
 20
158.6858841103776
 42
0.1040652874261466
 10
310.2809269199738
 20
159.5207254994352
 42
0.1158364334852791
  0
LWPOLYLINE
  5
434
330
1E
100
AcDbEntity
  8
PEF-L5A
100
AcDbPolyline
 90
        6
 70
     1
 43
0.0
 10
309.25
 20
160.4536510633439
 10
308.375
 20
161.9691955199666
 10
306.625
 20
161.9691955199666
 10
305.75
 20
160.4536510633439
 10
306.625
 20
158.9381066067211
 10
308.375
 20
158.9381066067211
  0
LWPOLYLINE
  5
43C
330
1E
100
AcDbEntity
  8
PEF-L5A
100
AcDbPolyline
 90
        4
 70
     0
 43
0.0
 10
309.1778312163512
 20
160.328651063344
 10
308.375
 20
161.7191955199666
 10
306.625
 20
161.7191955199666
 10
305.8221687836486
 20
160.328651063344
  0
LWPOLYLINE
  5
442
330
1E
100
AcDbEntity
  8
PEF-L5A
100
AcDbPolyline
 90
        9
 70
     0
 43
0.0
 10
304.0
 20
158.9536510633438
 42
0.1130168661468906
 10
304.2574063439754
 20
157.8294005430844
 42
0.1033690028891437
 10
305.0251262658471
 20
156.8323307197843
 42
0.0921264087088323
 10
306.1370973570995
 20
156.188414981102
 42
0.0854968845748653
 10
307.5
 20
155.9536510633439
 42
0.0854968845748637
 10
308.8629026429003
 20
156.188414981102
 42
0.092126408708839
 10
309.9748737341527
 20
156.8323307197843
 42
0.1033690028891378
 10
310.7425936560246
 20
157.8294005430844
 42
0.1130168661468798
 10
311.0
 20
158.9536510633438
 42
0.1130168661469052
  0
LWPOLYLINE
  5
44D
330
1E
100
AcDbEntity
  8
PEF-L5A
100
AcDbPolyline
 90
       10
 70
     0
 43
0.0
 10
304.0265420175333
 20
160.1206728562553
 42
0.11192471907492
 10
303.75
 20
158.9007558510431
 42
0.11192471907493
 10
304.0265420175333
 20
157.6808388458308
 42
0.1030783360639695
 10
304.8483495705504
 20
156.6026588121868
 42
0.0926219775485461
 10
306.0414032635217
 20
155.9046316196571
 42
0.0863780754328297
 10
307.5
 20
155.6507558510431
 42
0.0863780754328266
 10
308.9585967364781
 20
155.9046316196571
 42
0.0926219775485472
 10
310.1516504294494
 20
156.6026588121868
 42
0.1030783360639531
 10
310.9734579824665
 20
157.6808388458308
 42
0.1119247190749236
 10
311.25
 20
158.9007558510431
 42
0.1119247190749175
  0
LINE
  5
459
330
1E
100
AcDbEntity
  8
PEF-L5A
100
AcDbLine
 10
295.4999999999998
 20
153.9370525458868
 30
0.0
 11
311.5
 21
153.9370525458869
 31
0.0
  0
LINE
  5
45A
330
1E
100
AcDbEntity
  8
PEF-L5A
100
AcDbLine
 10
295.4999999999998
 20
154.5323363496225
 30
0.0
 11
311.5
 21
154.5323363496225
 31
0.0
  0
LINE
  5
45B
330
1E
100
AcDbEntity
  8
PEF-L5A
100
AcDbLine
 10
295.5
 20
155.3605572939506
 30
0.0
 11
311.5
 21
155.3605572939506
 31
0.0
  0
LINE
  5
45C
330
1E
100
AcDbEntity
  8
PEF-L5A
100
AcDbLine
 10
295.5
 20
171.1980681271899
 30
0.0
 11
295.5
 21
180.3489794855663
 31
0.0
  0
LINE
  5
45D
330
1E
100
AcDbEntity
  8
PEF-L5A
100
AcDbLine
 10
294.0
 20
152.7388873943359
 30
0.0
 11
294.0
 21
179.2499999999999
 31
0.0
  0
LINE
  5
45E
330
1E
100
AcDbEntity
  8
PEF-L5A
100
AcDbLine
 10
295.0
 20
182.2499999999999
 30
0.0
 11
295.0
 21
152.7388873943359
 31
0.0
  0
LWPOLYLINE
  5
45F
330
1E
100
AcDbEntity
  8
PEF-L5A
100
AcDbPolyline
 90
        2
 70
     0
 43
0.0
 10
303.25
 20
158.9007558510431
 42
0.1119247190749288
 10
302.9734579824665
 20
160.1206728562554
 42
0.1030783360639576
  0
LINE
  5
463
330
1E
100
AcDbEntity
  8
PEF-L5A
100
AcDbLine
 10
304.0
 20
158.9536510633438
 30
0.0
 11
304.0
 21
160.4536510633439
 31
0.0
  0
LINE
  5
464
330
1E
100
AcDbEntity
  8
PEF-L5A
100
AcDbLine
 10
303.0
 20
158.9536510633438
 30
0.0
 11
303.0
 21
160.4536510633439
 31
0.0
  0
LINE
  5
465
330
1E
100
AcDbEntity
  8
PEF-L5A
100
AcDbLine
 10
296.0
 20
158.9536510633438
 30
0.0
 11
296.0
 21
160.4536510633439
 31
0.0
  0
LWPOLYLINE
  5
466
330
1E
100
AcDbEntity
  8
PEF-L5A
100
AcDbPolyline
 90
       10
 70
     0
 43
0.0
 10
296.0265420175333
 20
160.1206728562553
 42
0.11192471907492
 10
295.7499999999999
 20
158.9007558510431
 42
0.11192471907493
 10
296.0265420175333
 20
157.6808388458308
 42
0.1030783360639695
 10
296.8483495705504
 20
156.6026588121868
 42
0.0926219775485461
 10
298.0414032635217
 20
155.9046316196571
 42
0.0863780754328297
 10
299.5
 20
155.6507558510431
 42
0.0863780754328266
 10
300.9585967364781
 20
155.9046316196571
 42
0.0926219775485472
 10
302.1516504294495
 20
156.6026588121868
 42
0.1030783360639531
 10
302.9734579824665
 20
157.6808388458308
 42
0.1119247190749236
 10
303.25
 20
158.9007558510431
 42
0.1119247190749175
  0
LWPOLYLINE
  5
472
330
1E
100
AcDbEntity
  8
PEF-L5A
100
AcDbPolyline
 90
        6
 70
     1
 43
0.0
 10
301.25
 20
160.4536510633439
 10
300.375
 20
161.9691955199666
 10
298.625
 20
161.9691955199666
 10
297.75
 20
160.4536510633439
 10
298.625
 20
158.9381066067211
 10
300.375
 20
158.9381066067211
  0
LWPOLYLINE
  5
47A
330
1E
100
AcDbEntity
  8
PEF-L5A
100
AcDbPolyline
 90
       16
 70
     1
 43
0.0
 10
302.4999999999999
 20
160.4536510633439
 42
0.1158364334852868
 10
302.2809269199738
 20
161.3865766272527
 42
0.1040652874261409
 10
301.6213203435595
 20
162.2214180163103
 42
0.0908400621127402
 10
300.6714981514988
 20
162.7571518274447
 42
0.0832849129649478
 10
299.5
 20
162.9536510633438
 42
0.0832849129649379
 10
298.3285018485012
 20
162.7571518274447
 42
0.0908400621127488
 10
297.3786796564403
 20
162.2214180163103
 42
0.1040652874261325
 10
296.7190730800261
 20
161.3865766272527
 42
0.1158364334852834
 10
296.4999999999998
 20
160.4536510633439
 42
0.1158364334852825
 10
296.719073080026
 20
159.5207254994352
 42
0.1040652874261553
 10
297.3786796564403
 20
158.6858841103776
 42
0.0908400621127482
 10
298.3285018485012
 20
158.150150299243
 42
0.0832849129649418
 10
299.5
 20
157.9536510633438
 42
0.0832849129649438
 10
300.6714981514988
 20
158.150150299243
 42
0.0908400621127549
 10
301.6213203435595
 20
158.6858841103776
 42
0.1040652874261466
 10
302.2809269199738
 20
159.5207254994352
 42
0.1158364334852791
  0
LWPOLYLINE
  5
48C
330
1E
100
AcDbEntity
  8
PEF-L5A
100
AcDbPolyline
 90
       16
 70
     1
 43
0.0
 10
303.0
 20
160.4536510633439
 42
0.1130168661469052
 10
302.7425936560246
 20
161.5779015836035
 42
0.1033690028891374
 10
301.9748737341529
 20
162.5749714069035
 42
0.0921264087088338
 10
300.8629026429003
 20
163.2188871455857
 42
0.0854968845748586
 10
299.5
 20
163.453651063344
 42
0.0854968845748619
 10
298.1370973570994
 20
163.2188871455857
 42
0.0921264087088331
 10
297.0251262658471
 20
162.5749714069035
 42
0.1033690028891242
 10
296.2574063439752
 20
161.5779015836035
 42
0.1130168661468742
 10
296.0
 20
160.4536510633439
 42
0.1130168661468906
 10
296.2574063439752
 20
159.3294005430843
 42
0.1033690028891437
 10
297.0251262658471
 20
158.3323307197843
 42
0.0921264087088323
 10
298.1370973570994
 20
157.688414981102
 42
0.0854968845748653
 10
299.5
 20
157.4536510633438
 42
0.0854968845748637
 10
300.8629026429003
 20
157.688414981102
 42
0.092126408708839
 10
301.9748737341529
 20
158.3323307197843
 42
0.1033690028891378
 10
302.7425936560246
 20
159.3294005430843
 42
0.1130168661468798
  0
LINE
  5
49E
330
1E
100
AcDbEntity
  8
PEF-L5A
100
AcDbLine
 10
295.5
 20
153.9370525458869
 30
0.0
 11
295.5
 21
171.1507558510431
 31
0.0
  0
LWPOLYLINE
  5
49F
330
1E
100
AcDbEntity
  8
PEF-L5A
100
AcDbPolyline
 90
        9
 70
     0
 43
0.0
 10
296.0
 20
158.9536510633438
 42
0.1130168661468906
 10
296.2574063439752
 20
157.8294005430844
 42
0.1033690028891437
 10
297.0251262658471
 20
156.8323307197843
 42
0.0921264087088323
 10
298.1370973570994
 20
156.188414981102
 42
0.0854968845748653
 10
299.5
 20
155.9536510633439
 42
0.0854968845748637
 10
300.8629026429003
 20
156.188414981102
 42
0.092126408708839
 10
301.9748737341529
 20
156.8323307197843
 42
0.1033690028891378
 10
302.7425936560246
 20
157.8294005430844
 42
0.1130168661468798
 10
303.0
 20
158.9536510633438
 42
0.1130168661469052
  0
LINE
  5
4AA
330
1E
100
AcDbEntity
  8
PEF-L5A
100
AcDbLine
 10
292.75
 20
152.7388873943359
 30
0.0
 11
303.0
 21
152.7388873943359
 31
0.0
  0
LWPOLYLINE
  5
4AB
330
1E
100
AcDbEntity
  8
PEF-L5A
100
AcDbPolyline
 90
        4
 70
     0
 43
0.0
 10
301.1778312163511
 20
160.328651063344
 10
300.375
 20
161.7191955199666
 10
298.625
 20
161.7191955199666
 10
297.8221687836486
 20
160.328651063344
  0
LINE
  5
4B1
330
1E
100
AcDbEntity
  8
PEF-L5A
100
AcDbLine
 10
295.5
 20
163.0879639042633
 30
0.0
 11
297.8187060780967
 21
163.0879639042633
 31
0.0
  0
LINE
  5
4B2
330
1E
100
AcDbEntity
  8
PEF-L5A
100
AcDbLine
 10
301.1812939219032
 20
163.0879639042633
 30
0.0
 11
305.8187060780966
 21
163.0879639042633
 31
0.0
  0
LWPOLYLINE
  5
4B4
330
1E
100
AcDbEntity
  8
PEF-L5A
100
AcDbPolyline
 90
       10
 70
     0
 43
0.0
 10
296.0265420175333
 20
177.3816884375584
 42
0.11192471907492
 10
295.7499999999999
 20
176.1617714323461
 42
0.11192471907493
 10
296.0265420175333
 20
174.9418544271339
 42
0.1030783360639695
 10
296.8483495705504
 20
173.8636743934899
 42
0.0926219775485461
 10
298.0414032635217
 20
173.1656472009601
 42
0.0863780754328297
 10
299.5
 20
172.9117714323461
 42
0.0863780754328266
 10
300.9585967364781
 20
173.1656472009601
 42
0.0926219775485472
 10
302.1516504294495
 20
173.8636743934899
 42
0.1030783360639531
 10
302.9734579824665
 20
174.9418544271339
 42
0.1119247190749236
 10
303.25
 20
176.1617714323461
 42
0.1119247190749175
  0
LWPOLYLINE
  5
4C0
330
1E
100
AcDbEntity
  8
PEF-L5A
100
AcDbPolyline
 90
        9
 70
     0
 43
0.0
 10
296.0
 20
176.2146666446471
 42
0.1130168661468906
 10
296.2574063439752
 20
175.0904161243875
 42
0.1033690028891437
 10
297.0251262658471
 20
174.0933463010874
 42
0.0921264087088323
 10
298.1370973570994
 20
173.4494305624052
 42
0.0854968845748653
 10
299.5
 20
173.2146666446471
 42
0.0854968845748637
 10
300.8629026429003
 20
173.4494305624052
 42
0.092126408708839
 10
301.9748737341529
 20
174.0933463010874
 42
0.1033690028891378
 10
302.7425936560246
 20
175.0904161243875
 42
0.1130168661468798
 10
303.0
 20
176.2146666446471
 42
0.1130168661469052
  0
LWPOLYLINE
  5
4CB
330
1E
100
AcDbEntity
  8
PEF-L5A
100
AcDbPolyline
 90
       16
 70
     1
 43
0.0
 10
303.0
 20
177.7146666446471
 42
0.1130168661469052
 10
302.7425936560246
 20
178.8389171649066
 42
0.1033690028891374
 10
301.9748737341529
 20
179.8359869882066
 42
0.0921264087088338
 10
300.8629026429003
 20
180.4799027268889
 42
0.0854968845748586
 10
299.5
 20
180.7146666446469
 42
0.0854968845748619
 10
298.1370973570994
 20
180.4799027268889
 42
0.0921264087088331
 10
297.0251262658471
 20
179.8359869882066
 42
0.1033690028891242
 10
296.2574063439752
 20
178.8389171649066
 42
0.1130168661468742
 10
296.0
 20
177.7146666446471
 42
0.1130168661468906
 10
296.2574063439752
 20
176.5904161243875
 42
0.1033690028891437
 10
297.0251262658471
 20
175.5933463010874
 42
0.0921264087088323
 10
298.1370973570994
 20
174.9494305624052
 42
0.0854968845748653
 10
299.5
 20
174.7146666446471
 42
0.0854968845748637
 10
300.8629026429003
 20
174.9494305624052
 42
0.092126408708839
 10
301.9748737341529
 20
175.5933463010874
 42
0.1033690028891378
 10
302.7425936560246
 20
176.5904161243875
 42
0.1130168661468798
  0
LWPOLYLINE
  5
4DD
330
1E
100
AcDbEntity
  8
PEF-L5A
100
AcDbPolyline
 90
       16
 70
     1
 43
0.0
 10
302.4999999999999
 20
177.7146666446471
 42
0.1158364334852868
 10
302.2809269199738
 20
178.6475922085559
 42
0.1040652874261409
 10
301.6213203435595
 20
179.4824335976134
 42
0.0908400621127402
 10
300.6714981514988
 20
180.0181674087478
 42
0.0832849129649478
 10
299.5
 20
180.2146666446471
 42
0.0832849129649379
 10
298.3285018485012
 20
180.0181674087479
 42
0.0908400621127488
 10
297.3786796564403
 20
179.4824335976134
 42
0.1040652874261325
 10
296.7190730800261
 20
178.6475922085559
 42
0.1158364334852834
 10
296.4999999999998
 20
177.7146666446471
 42
0.1158364334852825
 10
296.719073080026
 20
176.7817410807382
 42
0.1040652874261553
 10
297.3786796564403
 20
175.9468996916806
 42
0.0908400621127482
 10
298.3285018485012
 20
175.4111658805463
 42
0.0832849129649418
 10
299.5
 20
175.2146666446471
 42
0.0832849129649438
 10
300.6714981514988
 20
175.4111658805463
 42
0.0908400621127549
 10
301.6213203435595
 20
175.9468996916806
 42
0.1040652874261466
 10
302.2809269199738
 20
176.7817410807382
 42
0.1158364334852791
  0
LWPOLYLINE
  5
4EF
330
1E
100
AcDbEntity
  8
PEF-L5A
100
AcDbPolyline
 90
        6
 70
     1
 43
0.0
 10
301.25
 20
177.7146666446471
 10
300.375
 20
179.2302111012697
 10
298.625
 20
179.2302111012697
 10
297.75
 20
177.7146666446471
 10
298.625
 20
176.1991221880243
 10
300.375
 20
176.1991221880243
  0
LWPOLYLINE
  5
4F7
330
1E
100
AcDbEntity
  8
PEF-L5A
100
AcDbPolyline
 90
        4
 70
     0
 43
0.0
 10
301.1778312163511
 20
177.589666644647
 10
300.375
 20
178.9802111012697
 10
298.625
 20
178.9802111012697
 10
297.8221687836486
 20
177.589666644647
  0
LINE
  5
4FD
330
1E
100
AcDbEntity
  8
PEF-L5A
100
AcDbLine
 10
296.0
 20
176.2146666446471
 30
0.0
 11
296.0
 21
177.7146666446471
 31
0.0
  0
LINE
  5
4FE
330
1E
100
AcDbEntity
  8
PEF-L5A
100
AcDbLine
 10
295.5
 20
180.3489794855663
 30
0.0
 11
297.8187060780967
 21
180.3489794855663
 31
0.0
  0
LINE
  5
4FF
330
1E
100
AcDbEntity
  8
PEF-L5A
100
AcDbLine
 10
292.75
 20
179.2499999999999
 30
0.0
 11
294.0
 21
179.2499999999999
 31
0.0
  0
LINE
  5
500
330
1E
100
AcDbEntity
  8
PEF-L5A
100
AcDbLine
 10
303.0
 20
176.2146666446471
 30
0.0
 11
303.0
 21
177.7146666446471
 31
0.0
  0
LINE
  5
501
330
1E
100
AcDbEntity
  8
PEF-L5A
100
AcDbLine
 10
304.0
 20
176.2146666446471
 30
0.0
 11
304.0
 21
177.7146666446471
 31
0.0
  0
LWPOLYLINE
  5
502
330
1E
100
AcDbEntity
  8
PEF-L5A
100
AcDbPolyline
 90
        2
 70
     0
 43
0.0
 10
303.25
 20
176.1617714323461
 42
0.1119247190749288
 10
302.9734579824665
 20
177.3816884375585
 42
0.1030783360639576
  0
LINE
  5
506
330
1E
100
AcDbEntity
  8
PEF-L5A
100
AcDbLine
 10
301.1812939219032
 20
180.3489794855663
 30
0.0
 11
305.8187060780966
 21
180.3489794855663
 31
0.0
  0
LINE
  5
508
330
1E
100
AcDbEntity
  8
PEF-L5A
100
AcDbLine
 10
311.5
 20
171.1980681271899
 30
0.0
 11
311.5
 21
180.3489794855664
 31
0.0
  0
LINE
  5
509
330
1E
100
AcDbEntity
  8
PEF-L5A
100
AcDbLine
 10
313.0
 20
152.7388873943359
 30
0.0
 11
313.0
 21
179.2499999999999
 31
0.0
  0
LINE
  5
50A
330
1E
100
AcDbEntity
  8
PEF-L5A
100
AcDbLine
 10
312.0
 20
182.2499999999999
 30
0.0
 11
312.0
 21
152.7388873943359
 31
0.0
  0
LWPOLYLINE
  5
50B
330
1E
100
AcDbEntity
  8
PEF-L5A
100
AcDbPolyline
 90
        2
 70
     0
 43
0.0
 10
311.25
 20
158.9007558510431
 42
0.1119247190749288
 10
310.9734579824665
 20
160.1206728562554
 42
0.1030783360639576
  0
LINE
  5
50F
330
1E
100
AcDbEntity
  8
PEF-L5A
100
AcDbLine
 10
311.0
 20
158.9536510633438
 30
0.0
 11
311.0
 21
160.4536510633439
 31
0.0
  0
LINE
  5
510
330
1E
100
AcDbEntity
  8
PEF-L5A
100
AcDbLine
 10
311.5
 20
153.9370525458869
 30
0.0
 11
311.5
 21
171.1507558510431
 31
0.0
  0
LINE
  5
511
330
1E
100
AcDbEntity
  8
PEF-L5A
100
AcDbLine
 10
309.1812939219032
 20
163.0879639042633
 30
0.0
 11
311.5
 21
163.0879639042633
 31
0.0
  0
LINE
  5
513
330
1E
100
AcDbEntity
  8
PEF-L5A
100
AcDbLine
 10
311.0
 20
176.2146666446471
 30
0.0
 11
311.0
 21
177.7146666446471
 31
0.0
  0
LWPOLYLINE
  5
514
330
1E
100
AcDbEntity
  8
PEF-L5A
100
AcDbPolyline
 90
        2
 70
     0
 43
0.0
 10
311.25
 20
176.1617714323461
 42
0.1119247190749288
 10
310.9734579824665
 20
177.3816884375585
 42
0.1030783360639576
  0
LINE
  5
518
330
1E
100
AcDbEntity
  8
PEF-L5A
100
AcDbLine
 10
309.1812939219032
 20
180.3489794855663
 30
0.0
 11
311.5
 21
180.3489794855664
 31
0.0
  0
LINE
  5
519
330
1E
100
AcDbEntity
  8
PEF-L5A
100
AcDbLine
 10
313.0
 20
179.2499999999999
 30
0.0
 11
314.25
 21
179.2499999999999
 31
0.0
  0
LINE
  5
522
330
1E
100
AcDbEntity
  8
PEF-L5A
  6
CENTER
100
AcDbLine
 10
310.4999999999999
 20
134.25
 30
0.0
 11
321.2499999999999
 21
134.25
 31
0.0
  0
LINE
  5
523
330
1E
100
AcDbEntity
  8
PEF-L5A
  6
CENTER
100
AcDbLine
 10
296.4999999999998
 20
134.25
 30
0.0
 11
285.7499999999999
 21
134.25
 31
0.0
  0
LINE
  5
524
330
1E
100
AcDbEntity
  8
PEF-L5A
100
AcDbLine
 10
315.75
 20
136.25
 30
0.0
 11
327.0
 21
135.25
 31
0.0
  0
LINE
  5
525
330
1E
100
AcDbEntity
  8
PEF-L5A
100
AcDbLine
 10
327.0
 20
135.25
 30
0.0
 11
334.25
 21
131.25
 31
0.0
  0
LINE
  5
526
330
1E
100
AcDbEntity
  8
PEF-L5A
100
AcDbLine
 10
334.25
 20
131.25
 30
0.0
 11
337.4677774752417
 21
125.7608501892933
 31
0.0
  0
LINE
  5
527
330
1E
100
AcDbEntity
  8
PEF-L5A
100
AcDbLine
 10
338.5
 20
124.0
 30
0.0
 11
339.0
 21
116.25
 31
0.0
  0
LINE
  5
528
330
1E
100
AcDbEntity
  8
PEF-L5A
100
AcDbLine
 10
315.75
 20
132.25
 30
0.0
 11
326.0
 21
131.25
 31
0.0
  0
LINE
  5
529
330
1E
100
AcDbEntity
  8
PEF-L5A
100
AcDbLine
 10
326.0
 20
131.25
 30
0.0
 11
331.7499999999999
 21
128.2499999999999
 31
0.0
  0
LINE
  5
52A
330
1E
100
AcDbEntity
  8
PEF-L5A
100
AcDbLine
 10
331.7499999999999
 20
128.2499999999999
 30
0.0
 11
333.6015008891768
 21
124.7153164842986
 31
0.0
  0
LINE
  5
52B
330
1E
100
AcDbEntity
  8
PEF-L5A
100
AcDbLine
 10
334.5
 20
123.0
 30
0.0
 11
335.0
 21
116.25
 31
0.0
  0
LINE
  5
52C
330
1E
100
AcDbEntity
  8
PEF-L5A
100
AcDbLine
 10
335.0
 20
116.25
 30
0.0
 11
339.0
 21
116.25
 31
0.0
  0
LINE
  5
52F
330
1E
100
AcDbEntity
  8
PEF-L5A
100
AcDbLine
 10
338.5528203688327
 20
102.522472950231
 30
0.0
 11
337.4393126498306
 21
107.3456047709179
 31
0.0
  0
LINE
  5
530
330
1E
100
AcDbEntity
  8
PEF-L5A
100
AcDbLine
 10
338.1137897592278
 20
108.4249937781341
 30
0.0
 11
341.1830554633013
 21
109.1335895993173
 31
0.0
  0
LINE
  5
531
330
1E
100
AcDbEntity
  8
PEF-L5A
100
AcDbLine
 10
342.2624444705176
 20
108.4591124899199
 30
0.0
 11
343.3759521895197
 21
103.635980669233
 31
0.0
  0
LINE
  5
532
330
1E
100
AcDbEntity
  8
PEF-L5A
100
AcDbLine
 10
343.3759521895197
 20
103.635980669233
 30
0.0
 11
342.0605526020596
 21
103.3322967458689
 31
0.0
  0
ARC
  5
533
330
1E
100
AcDbEntity
  8
PEF-L5A
100
AcDbCircle
 10
340.2557904579931
 20
106.1484925138056
 30
0.0
 40
1.125
100
AcDbArc
 50
13.0
 51
193.0
  0
LINE
  5
534
330
1E
100
AcDbEntity
  8
PEF-L5A
100
AcDbLine
 10
339.1596241351096
 20
105.8954225776687
 30
0.0
 11
339.8682199562928
 21
102.8261568735951
 31
0.0
  0
LINE
  5
535
330
1E
100
AcDbEntity
  8
PEF-L5A
100
AcDbLine
 10
341.3519567808764
 20
106.4015624499424
 30
0.0
 11
342.0605526020596
 21
103.3322967458689
 31
0.0
  0
LINE
  5
536
330
1E
100
AcDbEntity
  8
PEF-L5A
100
AcDbLine
 10
339.8682199562928
 20
102.8261568735951
 30
0.0
 11
338.5528203688327
 21
102.522472950231
 31
0.0
  0
ARC
  5
537
330
1E
100
AcDbEntity
  8
PEF-L5A
100
AcDbCircle
 10
341.3855114122108
 20
108.2566565410105
 30
0.0
 40
0.9
100
AcDbArc
 50
13.0
 51
102.9999999999998
  0
ARC
  5
538
330
1E
100
AcDbEntity
  8
PEF-L5A
100
AcDbCircle
 10
338.3162457081374
 20
107.5480607198274
 30
0.0
 40
0.9
100
AcDbArc
 50
102.9999999999998
 51
193.0
  0
LINE
  5
539
330
1E
100
AcDbEntity
  8
PEF-L5A
100
AcDbLine
 10
341.1830554633013
 20
109.1335895993173
 30
0.0
 11
340.4744596421181
 21
112.2028553033908
 31
0.0
  0
LINE
  5
53A
330
1E
100
AcDbEntity
  8
PEF-L5A
100
AcDbLine
 10
340.4744596421181
 20
112.2028553033908
 30
0.0
 11
337.4051939380446
 21
111.4942594822075
 31
0.0
  0
LINE
  5
53B
330
1E
100
AcDbEntity
  8
PEF-L5A
100
AcDbLine
 10
337.4051939380446
 20
111.4942594822075
 30
0.0
 11
338.1137897592278
 21
108.4249937781341
 31
0.0
  0
LINE
  5
53C
330
1E
100
AcDbEntity
  8
PEF-L5A
100
AcDbLine
 10
339.8167598483881
 20
112.0510133417087
 30
0.0
 11
338.847347394028
 21
116.25
 31
0.0
  0
LINE
  5
53D
330
1E
100
AcDbEntity
  8
PEF-L5A
100
AcDbLine
 10
338.0628937317748
 20
111.6461014438896
 30
0.0
 11
337.0
 21
116.25
 31
0.0
  0
LINE
  5
53E
330
1E
100
AcDbEntity
  8
PEF-L5A
100
AcDbLine
 10
335.9371062682252
 20
111.6461014438896
 30
0.0
 11
337.0
 21
116.25
 31
0.0
  0
LINE
  5
53F
330
1E
100
AcDbEntity
  8
PEF-L5A
100
AcDbLine
 10
334.1832401516118
 20
112.0510133417087
 30
0.0
 11
335.1526526059718
 21
116.25
 31
0.0
  0
LINE
  5
540
330
1E
100
AcDbEntity
  8
PEF-L5A
100
AcDbLine
 10
330.6240478104801
 20
103.635980669233
 30
0.0
 11
331.7375555294823
 21
108.4591124899201
 31
0.0
  0
LINE
  5
541
330
1E
100
AcDbEntity
  8
PEF-L5A
100
AcDbLine
 10
336.5606873501693
 20
107.3456047709179
 30
0.0
 11
335.4471796311671
 21
102.522472950231
 31
0.0
  0
LINE
  5
542
330
1E
100
AcDbEntity
  8
PEF-L5A
100
AcDbLine
 10
334.8403758648903
 20
105.8954225776687
 30
0.0
 11
334.131780043707
 21
102.8261568735951
 31
0.0
  0
LINE
  5
543
330
1E
100
AcDbEntity
  8
PEF-L5A
100
AcDbLine
 10
332.6480432191235
 20
106.4015624499424
 30
0.0
 11
331.9394473979403
 21
103.3322967458689
 31
0.0
  0
LINE
  5
544
330
1E
100
AcDbEntity
  8
PEF-L5A
100
AcDbLine
 10
335.4471796311671
 20
102.522472950231
 30
0.0
 11
334.131780043707
 21
102.8261568735951
 31
0.0
  0
LINE
  5
545
330
1E
100
AcDbEntity
  8
PEF-L5A
100
AcDbLine
 10
331.9394473979403
 20
103.3322967458689
 30
0.0
 11
330.6240478104801
 21
103.635980669233
 31
0.0
  0
LINE
  5
546
330
1E
100
AcDbEntity
  8
PEF-L5A
100
AcDbLine
 10
336.5948060619551
 20
111.4942594822075
 30
0.0
 11
333.5255403578817
 21
112.2028553033908
 31
0.0
  0
LINE
  5
547
330
1E
100
AcDbEntity
  8
PEF-L5A
100
AcDbLine
 10
332.8169445366985
 20
109.1335895993173
 30
0.0
 11
335.886210240772
 21
108.4249937781341
 31
0.0
  0
LINE
  5
548
330
1E
100
AcDbEntity
  8
PEF-L5A
100
AcDbLine
 10
333.5255403578817
 20
112.2028553033908
 30
0.0
 11
332.8169445366985
 21
109.1335895993173
 31
0.0
  0
ARC
  5
549
330
1E
100
AcDbEntity
  8
PEF-L5A
100
AcDbCircle
 10
332.614488587789
 20
108.2566565410105
 30
0.0
 40
0.9
100
AcDbArc
 50
77.00000000000004
 51
167.0
  0
ARC
  5
54A
330
1E
100
AcDbEntity
  8
PEF-L5A
100
AcDbCircle
 10
333.7442095420068
 20
106.1484925138056
 30
0.0
 40
1.125
100
AcDbArc
 50
347.0
 51
167.0
  0
LINE
  5
54B
330
1E
100
AcDbEntity
  8
PEF-L5A
100
AcDbLine
 10
335.886210240772
 20
108.4249937781341
 30
0.0
 11
336.5948060619551
 21
111.4942594822075
 31
0.0
  0
ARC
  5
54C
330
1E
100
AcDbEntity
  8
PEF-L5A
100
AcDbCircle
 10
335.6837542918626
 20
107.5480607198274
 30
0.0
 40
0.9
100
AcDbArc
 50
347.0
 51
77.00000000000004
  0
LWPOLYLINE
  5
54D
330
1E
100
AcDbEntity
  8
PEF-L5A
100
AcDbPolyline
 90
        3
 70
     0
 43
0.0
 10
337.4677774752417
 20
125.7608501892933
 42
-0.0662822484866379
 10
335.7499999999999
 20
125.0
 42
-0.0765739591385947
 10
333.6015008891768
 20
124.7153164842986
 42
-0.0951701246476584
  0
LWPOLYLINE
  5
552
330
1E
100
AcDbEntity
  8
PEF-L5A
100
AcDbPolyline
 90
        3
 70
     0
 43
0.0
 10
337.7494485190698
 20
125.2803525262925
 42
-0.0675945779953872
 10
336.0
 20
124.5
 42
-0.0761487540127438
 10
333.8635334134388
 20
124.2150725743436
 42
-0.0951701246476639
  0
LINE
  5
557
330
1E
100
AcDbEntity
  8
PEF-L5A
100
AcDbLine
 10
337.7494485190698
 20
125.2803525262925
 30
0.0
 11
338.5
 21
124.0
 31
0.0
  0
LINE
  5
558
330
1E
100
AcDbEntity
  8
PEF-L5A
100
AcDbLine
 10
333.8635334134388
 20
124.2150725743436
 30
0.0
 11
334.5
 21
123.0
 31
0.0
  0
ENDSEC
  0
SECTION
  2
OBJECTS
  0
DICTIONARY
  5
C
330
0
100
AcDbDictionary
  3
ACAD_GROUP
350
D
  3
ACAD_LAYOUT
350
19
  3
ACAD_MLINESTYLE
350
16
  3
ACAD_PLOTSETTINGS
350
18
  3
ACAD_PLOTSTYLENAME
350
E
  3
DWGPROPS
350
82B
  3
ACDBHEADERROUNDTRIPXREC
350
85B
  0
DICTIONARY
  5
850
330
1E
100
AcDbDictionary
280
     1
  3
ACAD_LAYOUTSELFREF
360
87C
  0
DICTIONARY
  5
84E
330
1A
100
AcDbDictionary
280
     1
  3
ACAD_LAYOUTSELFREF
360
87B
  0
DICTIONARY
  5
D
102
{ACAD_REACTORS
330
C
102
}
330
C
100
AcDbDictionary
  0
DICTIONARY
  5
19
102
{ACAD_REACTORS
330
C
102
}
330
C
100
AcDbDictionary
  0
DICTIONARY
  5
16
102
{ACAD_REACTORS
330
C
102
}
330
C
100
AcDbDictionary
  3
STANDARD
350
17
  0
DICTIONARY
  5
18
102
{ACAD_REACTORS
330
C
102
}
330
C
100
AcDbDictionary
  0
ACDBDICTIONARYWDFLT
  5
E
102
{ACAD_REACTORS
330
C
102
}
330
C
100
AcDbDictionary
281
     1
  3
Normal
350
F
100
AcDbDictionaryWithDefault
340
F
  0
XRECORD
  5
82B
102
{ACAD_REACTORS
330
C
102
}
330
C
100
AcDbXrecord
  1
DWGPROPS COOKIE
  2

  3

  4

  6

  7

  8
한신
  9

300
=
301
=
302
=
303
=
304
=
305
=
306
=
307
=
308
=
309
=
 40
0.0213350694444445
 41
2450389.678865045
 42
2451814.650127082
  1

 90
        0
  0
DICTIONARY
  5
85B
102
{ACAD_REACTORS
330
C
102
}
330
C
100
AcDbDictionary
  3
TSTACKALIGN
350
85C
  3
TSTACKSIZE
350
85D
  3
HYPERLINKBASE
350
85E
  3
STYLESHEET
350
85F
  3
LAYOUTDICT
350
860
  3
PLOTSETDICT
350
861
  3
PLOTSTYLNAMDICT
350
862
  3
LWETCUNION
350
863
  3
INSUNITS
350
864
  3
CEPSNTYPE
350
865
  3
FINGERPRINTGUID
350
866
  3
VERSIONGUID
350
867
  3
PSVPSCALE
350
868
  3
PUCSORTHOREF
350
869
  3
PUCSORTHOVIEW
350
86A
  3
PUCSBASE
350
86B
  3
PUCSORGTOP
350
86C
  3
PUCSORGBOTTOM
350
86D
  3
PUCSORGLEFT
350
86E
  3
PUCSORGRIGHT
350
86F
  3
PUCSORGFRONT
350
870
  3
PUCSORGBACK
350
871
  3
UCSORTHOREF
350
872
  3
UCSORTHOVIEW
350
873
  3
UCSBASE
350
874
  3
UCSORGTOP
350
875
  3
UCSORGBOTTOM
350
876
  3
UCSORGLEFT
350
877
  3
UCSORGRIGHT
350
878
  3
UCSORGFRONT
350
879
  3
UCSORGBACK
350
87A
  0
XRECORD
  5
87C
102
{ACAD_REACTORS
330
850
102
}
330
850
100
AcDbXrecord
340
1E
  0
XRECORD
  5
87B
102
{ACAD_REACTORS
330
84E
102
}
330
84E
100
AcDbXrecord
340
1A
  0
MLINESTYLE
  5
17
102
{ACAD_REACTORS
330
16
102
}
330
16
100
AcDbMlineStyle
  2
STANDARD
 70
     0
  3

 62
   256
 51
90.0
 52
90.0
 71
     2
 49
0.5
 62
   256
  6
BYLAYER
 49
-0.5
 62
   256
  6
BYLAYER
  0
ACDBPLACEHOLDER
  5
F
102
{ACAD_REACTORS
330
E
102
}
330
E
100
AcDbPlaceHolder
280
     0
  0
XRECORD
  5
85C
102
{ACAD_REACTORS
330
85B
102
}
330
85B
100
AcDbXrecord
 90
        1
  0
XRECORD
  5
85D
102
{ACAD_REACTORS
330
85B
102
}
330
85B
100
AcDbXrecord
 90
       70
  0
XRECORD
  5
85E
102
{ACAD_REACTORS
330
85B
102
}
330
85B
100
AcDbXrecord
  1

  0
XRECORD
  5
85F
102
{ACAD_REACTORS
330
85B
102
}
330
85B
100
AcDbXrecord
  1

  0
XRECORD
  5
860
102
{ACAD_REACTORS
330
85B
102
}
330
85B
100
AcDbXrecord
340
19
  0
XRECORD
  5
861
102
{ACAD_REACTORS
330
85B
102
}
330
85B
100
AcDbXrecord
340
18
  0
XRECORD
  5
862
102
{ACAD_REACTORS
330
85B
102
}
330
85B
100
AcDbXrecord
340
E
  0
XRECORD
  5
863
102
{ACAD_REACTORS
330
85B
102
}
330
85B
100
AcDbXrecord
 90
    14877
  0
XRECORD
  5
864
102
{ACAD_REACTORS
330
85B
102
}
330
85B
100
AcDbXrecord
 90
        0
  0
XRECORD
  5
865
102
{ACAD_REACTORS
330
85B
102
}
330
85B
100
AcDbXrecord
 90
        0
  0
XRECORD
  5
866
102
{ACAD_REACTORS
330
85B
102
}
330
85B
100
AcDbXrecord
  1
{55359ECB-645D-11D4-BC29-40594FC10001}
  0
XRECORD
  5
867
102
{ACAD_REACTORS
330
85B
102
}
330
85B
100
AcDbXrecord
  1
{39D53B34-C1F1-4AB2-BF7E-90C14F58655A}
  0
XRECORD
  5
868
102
{ACAD_REACTORS
330
85B
102
}
330
85B
100
AcDbXrecord
 40
0.0
  0
XRECORD
  5
869
102
{ACAD_REACTORS
330
85B
102
}
330
85B
100
AcDbXrecord
340
0
  0
XRECORD
  5
86A
102
{ACAD_REACTORS
330
85B
102
}
330
85B
100
AcDbXrecord
 70
     0
  0
XRECORD
  5
86B
102
{ACAD_REACTORS
330
85B
102
}
330
85B
100
AcDbXrecord
340
0
  0
XRECORD
  5
86C
102
{ACAD_REACTORS
330
85B
102
}
330
85B
100
AcDbXrecord
 10
0.0
 20
0.0
 30
0.0
  0
XRECORD
  5
86D
102
{ACAD_REACTORS
330
85B
102
}
330
85B
100
AcDbXrecord
 10
0.0
 20
0.0
 30
0.0
  0
XRECORD
  5
86E
102
{ACAD_REACTORS
330
85B
102
}
330
85B
100
AcDbXrecord
 10
0.0
 20
0.0
 30
0.0
  0
XRECORD
  5
86F
102
{ACAD_REACTORS
330
85B
102
}
330
85B
100
AcDbXrecord
 10
0.0
 20
0.0
 30
0.0
  0
XRECORD
  5
870
102
{ACAD_REACTORS
330
85B
102
}
330
85B
100
AcDbXrecord
 10
0.0
 20
0.0
 30
0.0
  0
XRECORD
  5
871
102
{ACAD_REACTORS
330
85B
102
}
330
85B
100
AcDbXrecord
 10
0.0
 20
0.0
 30
0.0
  0
XRECORD
  5
872
102
{ACAD_REACTORS
330
85B
102
}
330
85B
100
AcDbXrecord
340
0
  0
XRECORD
  5
873
102
{ACAD_REACTORS
330
85B
102
}
330
85B
100
AcDbXrecord
 70
     0
  0
XRECORD
  5
874
102
{ACAD_REACTORS
330
85B
102
}
330
85B
100
AcDbXrecord
340
0
  0
XRECORD
  5
875
102
{ACAD_REACTORS
330
85B
102
}
330
85B
100
AcDbXrecord
 10
0.0
 20
0.0
 30
0.0
  0
XRECORD
  5
876
102
{ACAD_REACTORS
330
85B
102
}
330
85B
100
AcDbXrecord
 10
0.0
 20
0.0
 30
0.0
  0
XRECORD
  5
877
102
{ACAD_REACTORS
330
85B
102
}
330
85B
100
AcDbXrecord
 10
0.0
 20
0.0
 30
0.0
  0
XRECORD
  5
878
102
{ACAD_REACTORS
330
85B
102
}
330
85B
100
AcDbXrecord
 10
0.0
 20
0.0
 30
0.0
  0
XRECORD
  5
879
102
{ACAD_REACTORS
330
85B
102
}
330
85B
100
AcDbXrecord
 10
0.0
 20
0.0
 30
0.0
  0
XRECORD
  5
87A
102
{ACAD_REACTORS
330
85B
102
}
330
85B
100
AcDbXrecord
 10
0.0
 20
0.0
 30
0.0
  0
ENDSEC
  0
EOF
