  0
SECTION
  2
HEADER
  9
$ACADVER
  1
AC1014
  9
$ACADMAINTVER
 70
     9
  9
$DWGCODEPAGE
  3
ANSI_949
  9
$INSBASE
 10
384.0
 20
277.0
 30
0.0
  9
$EXTMIN
 10
48.53302105391981
 20
90.49218829685377
 30
-0.0000000000112498
  9
$EXTMAX
 10
361.0528573545777
 20
219.26499999066
 30
0.0000000000002956
  9
$LIMMIN
 10
0.0
 20
0.0
  9
$LIMMAX
 10
420.0
 20
297.0
  9
$ORTHOMODE
 70
     0
  9
$REGENMODE
 70
     1
  9
$FILLMODE
 70
     1
  9
$QTEXTMODE
 70
     0
  9
$MIRRTEXT
 70
     1
  9
$DRAGMODE
 70
     2
  9
$LTSCALE
 40
4.0
  9
$OSMODE
 70
    37
  9
$ATTMODE
 70
     1
  9
$TEXTSIZE
 40
3.0
  9
$TRACEWID
 40
0.05
  9
$TEXTSTYLE
  7
STANDARD
  9
$CLAYER
  8
0
  9
$CELTYPE
  6
BYLAYER
  9
$CECOLOR
 62
   256
  9
$CELTSCALE
 40
1.0
  9
$DELOBJ
 70
     1
  9
$DISPSILH
 70
     0
  9
$DIMSCALE
 40
1.0
  9
$DIMASZ
 40
3.0
  9
$DIMEXO
 40
1.0
  9
$DIMDLI
 40
0.38
  9
$DIMRND
 40
0.0
  9
$DIMDLE
 40
0.0
  9
$DIMEXE
 40
1.0
  9
$DIMTP
 40
0.0
  9
$DIMTM
 40
0.0
  9
$DIMTXT
 40
3.0
  9
$DIMCEN
 40
0.09
  9
$DIMTSZ
 40
0.0
  9
$DIMTOL
 70
     0
  9
$DIMLIM
 70
     0
  9
$DIMTIH
 70
     0
  9
$DIMTOH
 70
     1
  9
$DIMSE1
 70
     0
  9
$DIMSE2
 70
     0
  9
$DIMTAD
 70
     1
  9
$DIMZIN
 70
     8
  9
$DIMBLK
  1

  9
$DIMASO
 70
     0
  9
$DIMSHO
 70
     1
  9
$DIMPOST
  1

  9
$DIMAPOST
  1

  9
$DIMALT
 70
     0
  9
$DIMALTD
 70
     2
  9
$DIMALTF
 40
25.4
  9
$DIMLFAC
 40
1.0
  9
$DIMTOFL
 70
     0
  9
$DIMTVP
 40
0.0
  9
$DIMTIX
 70
     1
  9
$DIMSOXD
 70
     0
  9
$DIMSAH
 70
     0
  9
$DIMBLK1
  1

  9
$DIMBLK2
  1

  9
$DIMSTYLE
  2
STANDARD
  9
$DIMCLRD
 70
     5
  9
$DIMCLRE
 70
     5
  9
$DIMCLRT
 70
     3
  9
$DIMTFAC
 40
1.0
  9
$DIMGAP
 40
0.09
  9
$DIMJUST
 70
     0
  9
$DIMSD1
 70
     0
  9
$DIMSD2
 70
     0
  9
$DIMTOLJ
 70
     1
  9
$DIMTZIN
 70
     8
  9
$DIMALTZ
 70
     8
  9
$DIMALTTZ
 70
     8
  9
$DIMFIT
 70
     3
  9
$DIMUPT
 70
     0
  9
$DIMUNIT
 70
     2
  9
$DIMDEC
 70
     4
  9
$DIMTDEC
 70
     4
  9
$DIMALTU
 70
     2
  9
$DIMALTTD
 70
     2
  9
$DIMTXSTY
  7
STANDARD
  9
$DIMAUNIT
 70
     0
  9
$LUNITS
 70
     2
  9
$LUPREC
 70
     4
  9
$SKETCHINC
 40
0.1
  9
$FILLETRAD
 40
1.5
  9
$AUNITS
 70
     0
  9
$AUPREC
 70
     0
  9
$MENU
  1
acad
  9
$ELEVATION
 40
0.0
  9
$PELEVATION
 40
0.0
  9
$THICKNESS
 40
0.0
  9
$LIMCHECK
 70
     0
  9
$BLIPMODE
 70
     0
  9
$CHAMFERA
 40
0.5
  9
$CHAMFERB
 40
0.5
  9
$CHAMFERC
 40
0.0
  9
$CHAMFERD
 40
0.0
  9
$SKPOLY
 70
     0
  9
$TDCREATE
 40
2450389.679906365
  9
$TDUPDATE
 40
2452761.641361215
  9
$TDINDWG
 40
0.0336892940
  9
$TDUSRTIMER
 40
0.0336892940
  9
$USRTIMER
 70
     1
  9
$ANGBASE
 50
0.0
  9
$ANGDIR
 70
     0
  9
$PDMODE
 70
     0
  9
$PDSIZE
 40
0.0
  9
$PLINEWID
 40
0.0
  9
$COORDS
 70
     2
  9
$SPLFRAME
 70
     0
  9
$SPLINETYPE
 70
     6
  9
$SPLINESEGS
 70
     8
  9
$ATTDIA
 70
     0
  9
$ATTREQ
 70
     1
  9
$HANDLING
 70
 12289
  9
$HANDSEED
  5
A2F
  9
$SURFTAB1
 70
     6
  9
$SURFTAB2
 70
     6
  9
$SURFTYPE
 70
     6
  9
$SURFU
 70
     6
  9
$SURFV
 70
     6
  9
$UCSNAME
  2

  9
$UCSORG
 10
0.0
 20
0.0
 30
0.0
  9
$UCSXDIR
 10
1.0
 20
0.0
 30
0.0
  9
$UCSYDIR
 10
0.0
 20
1.0
 30
0.0
  9
$PUCSNAME
  2

  9
$PUCSORG
 10
0.0
 20
0.0
 30
0.0
  9
$PUCSXDIR
 10
1.0
 20
0.0
 30
0.0
  9
$PUCSYDIR
 10
0.0
 20
1.0
 30
0.0
  9
$USERI1
 70
     0
  9
$USERI2
 70
     0
  9
$USERI3
 70
     0
  9
$USERI4
 70
     0
  9
$USERI5
 70
     0
  9
$USERR1
 40
0.0
  9
$USERR2
 40
0.0
  9
$USERR3
 40
0.0
  9
$USERR4
 40
0.0
  9
$USERR5
 40
0.0
  9
$WORLDVIEW
 70
     0
  9
$SHADEDGE
 70
     3
  9
$SHADEDIF
 70
    70
  9
$TILEMODE
 70
     1
  9
$MAXACTVP
 70
    16
  9
$PINSBASE
 10
0.0
 20
0.0
 30
0.0
  9
$PLIMCHECK
 70
     0
  9
$PEXTMIN
 10
1.000000000000000E+20
 20
1.000000000000000E+20
 30
1.000000000000000E+20
  9
$PEXTMAX
 10
-1.000000000000000E+20
 20
-1.000000000000000E+20
 30
-1.000000000000000E+20
  9
$PLIMMIN
 10
0.0
 20
0.0
  9
$PLIMMAX
 10
12.0
 20
9.0
  9
$UNITMODE
 70
     0
  9
$VISRETAIN
 70
     0
  9
$PLINEGEN
 70
     0
  9
$PSLTSCALE
 70
     1
  9
$TREEDEPTH
 70
  3020
  9
$PICKSTYLE
 70
     1
  9
$CMLSTYLE
  2
STANDARD
  9
$CMLJUST
 70
     0
  9
$CMLSCALE
 40
1.0
  9
$PROXYGRAPHICS
 70
     1
  9
$MEASUREMENT
 70
     0
  0
ENDSEC
  0
SECTION
  2
CLASSES
  0
CLASS
  1
ACDBDICTIONARYWDFLT
  2
AcDbDictionaryWithDefault
  3
AutoCAD 2000
 90
        0
280
     0
281
     0
  0
CLASS
  1
ACDBPLACEHOLDER
  2
AcDbPlaceHolder
  3
AutoCAD 2000
 90
        0
280
     0
281
     0
  0
CLASS
  1
LAYOUT
  2
AcDbLayout
  3
AutoCAD 2000
 90
        0
280
     0
281
     0
  0
CLASS
  1
LONG_TRANSACTION
  2
AcDbLongTransaction
  3
AutoCAD 2000
 90
        0
280
     0
281
     0
  0
CLASS
  1
LWPOLYLINE
  2
AcDbPolyline
  3
AutoCAD 2000
 90
        0
280
     0
281
     1
  0
CLASS
  1
HATCH
  2
AcDbHatch
  3
AutoCAD 2000
 90
        0
280
     0
281
     1
  0
CLASS
  1
XRECORD
  2
AcDbXrecord
  3
AutoCAD 2000
 90
        0
280
     0
281
     0
  0
CLASS
  1
LONG_TRANSACTION
  2
AcDbLongTransaction
  3
AutoCAD 2000
 90
        0
280
     0
281
     0
  0
CLASS
  1
LWPOLYLINE
  2
AcDbPolyline
  3
AutoCAD 2000
 90
        0
280
     0
281
     1
  0
CLASS
  1
HATCH
  2
AcDbHatch
  3
AutoCAD 2000
 90
        0
280
     0
281
     1
  0
CLASS
  1
XRECORD
  2
AcDbXrecord
  3
AutoCAD 2000
 90
        0
280
     0
281
     0
  0
ENDSEC
  0
SECTION
  2
TABLES
  0
TABLE
  2
VPORT
  5
8
330
0
100
AcDbSymbolTable
 70
     2
  0
VPORT
  5
A0C
330
8
100
AcDbSymbolTableRecord
100
AcDbViewportTableRecord
  2
*ACTIVE
 70
     0
 10
0.0
 20
0.0
 11
1.0
 21
1.0
 12
204.7929392042488
 22
154.8785941437568
 13
0.0
 23
0.0
 14
0.25
 24
0.25
 15
5.0
 25
5.0
 16
0.0
 26
0.0
 36
1.0
 17
0.0
 27
0.0
 37
0.0
 40
211.9183894839939
 41
1.481743227326266
 42
50.0
 43
0.0
 44
0.0
 50
0.0
 51
0.0
 71
     0
 72
   100
 73
     1
 74
     1
 75
     1
 76
     0
 77
     0
 78
     0
  0
ENDTAB
  0
TABLE
  2
LTYPE
  5
5
330
0
100
AcDbSymbolTable
 70
     4
  0
LTYPE
  5
13
330
5
100
AcDbSymbolTableRecord
100
AcDbLinetypeTableRecord
  2
BYBLOCK
 70
     0
  3

 72
    65
 73
     0
 40
0.0
  0
LTYPE
  5
14
330
5
100
AcDbSymbolTableRecord
100
AcDbLinetypeTableRecord
  2
BYLAYER
 70
     0
  3

 72
    65
 73
     0
 40
0.0
  0
LTYPE
  5
15
330
5
100
AcDbSymbolTableRecord
100
AcDbLinetypeTableRecord
  2
CONTINUOUS
 70
     0
  3
Solid line
 72
    65
 73
     0
 40
0.0
  0
LTYPE
  5
25
330
5
100
AcDbSymbolTableRecord
100
AcDbLinetypeTableRecord
  2
CENTER
 70
     0
  3
____ _ ____ _ ____ _ ____ _ ____ _ ____ _ ____ 
 72
    65
 73
     4
 40
2.0
 49
1.25
 74
     0
 49
-0.25
 74
     0
 49
0.25
 74
     0
 49
-0.25
 74
     0
  0
LTYPE
  5
26
330
5
100
AcDbSymbolTableRecord
100
AcDbLinetypeTableRecord
  2
DASHED
 70
     0
  3
__ __ __ __ __ __ __ __ __ __ __ __ __ __ __ __
 72
    65
 73
     2
 40
0.75
 49
0.5
 74
     0
 49
-0.25
 74
     0
  0
LTYPE
  5
27
330
5
100
AcDbSymbolTableRecord
100
AcDbLinetypeTableRecord
  2
PHANTOM
 70
     0
  3
______  __  __  ______  __  __  ______  __  __ 
 72
    65
 73
     6
 40
2.5
 49
1.25
 74
     0
 49
-0.25
 74
     0
 49
0.25
 74
     0
 49
-0.25
 74
     0
 49
0.25
 74
     0
 49
-0.25
 74
     0
  0
ENDTAB
  0
TABLE
  2
LAYER
  5
2
330
0
100
AcDbSymbolTable
 70
     2
  0
LAYER
  5
10
330
2
100
AcDbSymbolTableRecord
100
AcDbLayerTableRecord
  2
0
 70
     0
 62
     7
  6
CONTINUOUS
  0
LAYER
  5
A0B
330
2
100
AcDbSymbolTableRecord
100
AcDbLayerTableRecord
  2
PEF-L60A
 70
     0
 62
     7
  6
CONTINUOUS
  0
ENDTAB
  0
TABLE
  2
STYLE
  5
3
330
0
100
AcDbSymbolTable
 70
     1
  0
STYLE
  5
11
330
3
100
AcDbSymbolTableRecord
100
AcDbTextStyleTableRecord
  2
STANDARD
 70
     0
 40
3.0
 41
1.0
 50
0.0
 71
     0
 42
3.0
  3
ROMANS
  4
HBRDS
  0
ENDTAB
  0
TABLE
  2
VIEW
  5
6
330
0
100
AcDbSymbolTable
 70
     0
  0
ENDTAB
  0
TABLE
  2
UCS
  5
7
330
0
100
AcDbSymbolTable
 70
     0
  0
ENDTAB
  0
TABLE
  2
APPID
  5
9
330
0
100
AcDbSymbolTable
 70
     2
  0
APPID
  5
12
330
9
100
AcDbSymbolTableRecord
100
AcDbRegAppTableRecord
  2
ACAD
 70
     0
  0
APPID
  5
872
330
9
100
AcDbSymbolTableRecord
100
AcDbRegAppTableRecord
  2
DCO15
 70
     0
  0
ENDTAB
  0
TABLE
  2
DIMSTYLE
  5
A
330
0
100
AcDbSymbolTable
 70
     1
  0
DIMSTYLE
105
70F
330
A
100
AcDbSymbolTableRecord
100
AcDbDimStyleTableRecord
  2
STANDARD
 70
     0
  3

  4

  5

  6

  7

 40
1.0
 41
0.18
 42
0.0625
 43
0.38
 44
0.18
 45
0.0
 46
0.0
 47
0.0
 48
0.0
140
0.18
141
0.09
142
0.0
143
25.4
144
1.0
145
0.0
146
1.0
147
0.09
 71
     0
 72
     0
 73
     1
 74
     1
 75
     0
 76
     0
 77
     0
 78
     0
170
     0
171
     2
172
     0
173
     0
174
     0
175
     0
176
     0
177
     0
178
     0
270
     2
271
     4
272
     4
273
     2
274
     2
340
11
275
     0
280
     0
281
     0
282
     0
283
     1
284
     0
285
     0
286
     0
287
     3
288
     0
  0
ENDTAB
  0
TABLE
  2
BLOCK_RECORD
  5
1
330
0
100
AcDbSymbolTable
 70
     0
  0
BLOCK_RECORD
  5
1E
102
{ACAD_XDICTIONARY
360
9FF
102
}
330
1
100
AcDbSymbolTableRecord
100
AcDbBlockTableRecord
  2
*MODEL_SPACE
  0
BLOCK_RECORD
  5
1A
102
{ACAD_XDICTIONARY
360
9FD
102
}
330
1
100
AcDbSymbolTableRecord
100
AcDbBlockTableRecord
  2
*PAPER_SPACE
  0
ENDTAB
  0
ENDSEC
  0
SECTION
  2
BLOCKS
  0
BLOCK
  5
2D
330
1E
100
AcDbEntity
  8
0
100
AcDbBlockBegin
  2
*MODEL_SPACE
 70
     0
 10
0.0
 20
0.0
 30
0.0
  3
*MODEL_SPACE
  1

  0
ENDBLK
  5
2E
330
1E
100
AcDbEntity
  8
0
100
AcDbBlockEnd
  0
BLOCK
  5
2B
330
1A
100
AcDbEntity
 67
     1
  8
0
100
AcDbBlockBegin
  2
*PAPER_SPACE
 70
     0
 10
0.0
 20
0.0
 30
0.0
  3
*PAPER_SPACE
  1

  0
ENDBLK
  5
2C
330
1A
100
AcDbEntity
 67
     1
  8
0
100
AcDbBlockEnd
  0
ENDSEC
  0
SECTION
  2
ENTITIES
  0
LINE
  5
19F
330
1E
100
AcDbEntity
  8
PEF-L60A
100
AcDbLine
 10
209.2293129691205
 20
128.4468594298915
 30
0.0
 11
212.2111659198205
 21
129.24584451998
 31
0.0
  0
LINE
  5
1A0
330
1E
100
AcDbEntity
  8
PEF-L60A
100
AcDbLine
 10
209.2293129691205
 20
140.3742712326911
 30
0.0
 11
210.5288421266541
 21
135.5243623908588
 31
0.0
  0
LINE
  5
1A1
330
1E
100
AcDbEntity
  8
PEF-L60A
100
AcDbLine
 10
210.153305554685
 20
139.8236614364143
 30
0.0
 11
209.4288611849683
 21
139.6295471525874
 31
0.0
  0
ARC
  5
1A2
330
1E
100
AcDbEntity
  8
PEF-L60A
100
AcDbCircle
 10
204.2293129691206
 20
125.6844081308132
 30
0.0
 40
5.0
100
AcDbArc
 50
270.0
 51
0.0
  0
LINE
  5
1A3
330
1E
100
AcDbEntity
  8
PEF-L60A
  6
CENTER
100
AcDbLine
 10
219.0200655277819
 20
137.7995788439434
 30
0.0
 11
209.2293129691205
 21
135.1761546025571
 31
0.0
  0
LINE
  5
1A6
330
1E
100
AcDbEntity
  8
PEF-L60A
100
AcDbLine
 10
209.0659645038755
 20
111.7499999999999
 30
0.0
 11
214.25
 21
111.7499999999999
 31
0.0
  0
LINE
  5
1AB
330
1E
100
AcDbEntity
  8
PEF-L60A
100
AcDbLine
 10
74.25
 20
95.75000000000001
 30
0.0
 11
214.25
 21
95.75000000000001
 31
0.0
  0
LINE
  5
1AC
330
1E
100
AcDbEntity
  8
PEF-L60A
100
AcDbLine
 10
208.9489943681643
 20
124.0337696205631
 30
0.0
 11
212.2404205180041
 21
111.7499999999999
 31
0.0
  0
LINE
  5
1AD
330
1E
100
AcDbEntity
  8
PEF-L60A
100
AcDbLine
 10
214.9368528607975
 20
99.36855551442965
 30
0.0
 11
214.25
 21
101.9319252882501
 31
0.0
  0
LINE
  5
1AE
330
1E
100
AcDbEntity
  8
PEF-L60A
100
AcDbLine
 10
75.59841338913274
 20
140.4170351287584
 30
0.0
 11
67.83384203605712
 21
169.3948099174305
 31
0.0
  0
LINE
  5
1AF
330
1E
100
AcDbEntity
  8
PEF-L60A
100
AcDbLine
 10
74.05293206707032
 20
140.0029246565944
 30
0.0
 11
66.28836071399465
 21
168.9806994452665
 31
0.0
  0
LINE
  5
1B0
330
1E
100
AcDbEntity
  8
PEF-L60A
100
AcDbLine
 10
207.683831647058
 20
144.2702976586491
 30
0.0
 11
199.9192602939825
 21
173.248072447321
 31
0.0
  0
LINE
  5
1B1
330
1E
100
AcDbEntity
  8
PEF-L60A
100
AcDbLine
 10
209.2293129691205
 20
144.6844081308131
 30
0.0
 11
201.4647416160449
 21
173.6621829194851
 31
0.0
  0
ARC
  5
1BB
330
1E
100
AcDbEntity
  8
PEF-L60A
100
AcDbCircle
 10
83.06594790901547
 20
125.6844081308132
 30
0.0
 40
5.0
100
AcDbArc
 50
195.0
 51
270.0
  0
LINE
  5
1BC
330
1E
100
AcDbEntity
  8
PEF-L60A
  6
CENTER
100
AcDbLine
 10
76.27322795962957
 20
131.7166675777267
 30
0.0
 11
66.32383670816238
 21
129.0507362267149
 31
0.0
  0
LINE
  5
1BE
330
1E
100
AcDbEntity
  8
PEF-L60A
100
AcDbLine
 10
74.25
 20
111.7499999999999
 30
0.0
 11
209.0659645038755
 21
111.7499999999999
 31
0.0
  0
LINE
  5
1BF
330
1E
100
AcDbEntity
  8
PEF-L60A
100
AcDbLine
 10
74.25
 20
95.75000000000001
 30
0.0
 11
74.25
 21
111.7499999999999
 31
0.0
  0
LINE
  5
1C5
330
1E
100
AcDbEntity
  8
PEF-L60A
100
AcDbLine
 10
78.23631877757012
 20
124.3903129053006
 30
0.0
 11
74.46704253923432
 21
138.457443334532
 31
0.0
  0
LINE
  5
1C7
330
1E
100
AcDbEntity
  8
PEF-L60A
100
AcDbLine
 10
70.9750420714565
 20
134.1667328942943
 30
0.0
 11
72.91618490972542
 21
126.9222891971262
 31
0.0
  0
LINE
  5
1C8
330
1E
100
AcDbEntity
  8
PEF-L60A
100
AcDbLine
 10
71.32859546204977
 20
134.7791053299901
 30
0.0
 11
73.52855734542121
 21
126.568735806533
 31
0.0
  0
LINE
  5
1CA
330
1E
100
AcDbEntity
  8
PEF-L60A
100
AcDbLine
 10
73.52855734542121
 20
126.568735806533
 30
0.0
 11
77.37635283378634
 21
127.5997495002805
 31
0.0
  0
LINE
  5
1CB
330
1E
100
AcDbEntity
  8
PEF-L60A
100
AcDbLine
 10
73.52855734542121
 20
126.568735806533
 30
0.0
 11
72.91618490972542
 21
126.9222891971262
 31
0.0
  0
LINE
  5
1CD
330
1E
100
AcDbEntity
  8
PEF-L60A
100
AcDbLine
 10
75.17639095041492
 20
135.8101190237377
 30
0.0
 11
71.32859546204977
 21
134.7791053299901
 31
0.0
  0
LINE
  5
1D0
330
1E
100
AcDbEntity
  8
PEF-L60A
100
AcDbLine
 10
70.9750420714565
 20
134.1667328942943
 30
0.0
 11
71.32859546204977
 21
134.7791053299901
 31
0.0
  0
LINE
  5
1D2
330
1E
100
AcDbEntity
  8
PEF-L60A
100
AcDbLine
 10
75.59841338913274
 20
140.4170351287586
 30
0.0
 11
74.05293206707032
 21
140.0029246565944
 31
0.0
  0
LINE
  5
1D3
330
1E
100
AcDbEntity
  8
PEF-L60A
100
AcDbLine
 10
75.23978320026556
 20
138.664498570614
 30
0.0
 11
74.46704253923432
 21
138.457443334532
 31
0.0
  0
ARC
  5
1D4
330
1E
100
AcDbEntity
  8
PEF-L60A
100
AcDbCircle
 10
75.03272796418356
 20
139.4372392316453
 30
0.0
 40
0.8
100
AcDbArc
 50
285.0000000000008
 51
105.0000000000004
  0
LINE
  5
1D8
330
1E
100
AcDbEntity
  8
PEF-L60A
100
AcDbLine
 10
204.2293129691206
 20
120.6844081308132
 30
0.0
 11
83.06594790901547
 21
120.6844081308132
 31
0.0
  0
LINE
  5
1DA
330
1E
100
AcDbEntity
  8
PEF-L60A
100
AcDbLine
 10
91.63617356632848
 20
118.6844081308132
 30
0.0
 11
202.2840938530923
 21
118.6844081308132
 31
0.0
  0
LINE
  5
1DB
330
1E
100
AcDbEntity
  8
PEF-L60A
  6
CENTER
100
AcDbLine
 10
80.25
 20
114.5
 30
0.0
 11
80.25
 21
91.25
 31
0.0
  0
LINE
  5
1E3
330
1E
100
AcDbEntity
  8
PEF-L60A
  6
DASHED
100
AcDbLine
 10
109.25
 20
102.2499999999999
 30
0.0
 11
110.0
 21
100.2499999999999
 31
0.0
  0
LINE
  5
1E4
330
1E
100
AcDbEntity
  8
PEF-L60A
  6
DASHED
100
AcDbLine
 10
114.25
 20
102.2499999999999
 30
0.0
 11
113.5
 21
100.2499999999999
 31
0.0
  0
LINE
  5
1E5
330
1E
100
AcDbEntity
  8
PEF-L60A
  6
DASHED
100
AcDbLine
 10
110.0
 20
111.7499999999999
 30
0.0
 11
110.0
 21
99.50000000000001
 31
0.0
  0
LINE
  5
1E6
330
1E
100
AcDbEntity
  8
PEF-L60A
  6
DASHED
100
AcDbLine
 10
113.5
 20
111.7499999999999
 30
0.0
 11
113.5
 21
99.50000000000001
 31
0.0
  0
LINE
  5
1E7
330
1E
100
AcDbEntity
  8
PEF-L60A
  6
CENTER
100
AcDbLine
 10
111.7499999999999
 20
116.5
 30
0.0
 11
111.7499999999999
 21
93.75
 31
0.0
  0
LINE
  5
1E8
330
1E
100
AcDbEntity
  8
PEF-L60A
  6
DASHED
100
AcDbLine
 10
110.0
 20
99.50000000000001
 30
0.0
 11
111.7499999999999
 21
98.50000000000001
 31
0.0
  0
LINE
  5
1E9
330
1E
100
AcDbEntity
  8
PEF-L60A
  6
DASHED
100
AcDbLine
 10
110.0
 20
99.50000000000001
 30
0.0
 11
111.7499999999999
 21
99.50000000000001
 31
0.0
  0
LINE
  5
1F3
330
1E
100
AcDbEntity
  8
PEF-L60A
  6
DASHED
100
AcDbLine
 10
113.5
 20
99.50000000000001
 30
0.0
 11
111.7499999999999
 21
99.50000000000001
 31
0.0
  0
LINE
  5
1F4
330
1E
100
AcDbEntity
  8
PEF-L60A
  6
DASHED
100
AcDbLine
 10
113.5
 20
99.50000000000001
 30
0.0
 11
111.7499999999999
 21
98.50000000000001
 31
0.0
  0
LINE
  5
1F5
330
1E
100
AcDbEntity
  8
PEF-L60A
  6
DASHED
100
AcDbLine
 10
109.25
 20
102.2499999999999
 30
0.0
 11
111.7499999999999
 21
102.2499999999999
 31
0.0
  0
LINE
  5
1F6
330
1E
100
AcDbEntity
  8
PEF-L60A
100
AcDbLine
 10
85.19920095312876
 20
120.6844081308131
 30
0.0
 11
87.59316839663023
 21
111.7499999999999
 31
0.0
  0
LINE
  5
1F7
330
1E
100
AcDbEntity
  8
PEF-L60A
100
AcDbLine
 10
88.21433410487632
 20
111.7499999999999
 30
0.0
 11
85.82036666137486
 21
120.6844081308132
 31
0.0
  0
LINE
  5
1F8
330
1E
100
AcDbEntity
  8
PEF-L60A
  6
CENTER
100
AcDbLine
 10
102.2293129691206
 20
125.1844081308131
 30
0.0
 11
102.2293129691206
 21
136.4344081308132
 31
0.0
  0
LINE
  5
1F9
330
1E
100
AcDbEntity
  8
PEF-L60A
100
AcDbLine
 10
91.63617356632848
 20
118.6844081308132
 30
0.0
 11
91.10027518146626
 21
120.6844081308132
 31
0.0
  0
LINE
  5
20B
330
1E
100
AcDbEntity
  8
PEF-L60A
  6
DASHED
100
AcDbLine
 10
109.25
 20
111.7499999999999
 30
0.0
 11
109.25
 21
102.2499999999999
 31
0.0
  0
CIRCLE
  5
224
330
1E
100
AcDbEntity
  8
PEF-L60A
100
AcDbCircle
 10
102.2293129691206
 20
130.6844081308132
 30
0.0
 40
3.0
  0
CIRCLE
  5
225
330
1E
100
AcDbEntity
  8
PEF-L60A
100
AcDbCircle
 10
102.2293129691206
 20
130.6824438689062
 30
0.0
 40
1.75
  0
ARC
  5
226
330
1E
100
AcDbEntity
  8
PEF-L60A
100
AcDbCircle
 10
102.2293129691206
 20
130.6824438689062
 30
0.0
 40
2.5
100
AcDbArc
 50
275.7105931374995
 51
185.1944289077347
  0
LINE
  5
227
330
1E
100
AcDbEntity
  8
PEF-L60A
  6
CENTER
100
AcDbLine
 10
96.23127723102751
 20
130.6844081308132
 30
0.0
 11
108.2312772310275
 21
130.6844081308132
 31
0.0
  0
LINE
  5
22D
330
1E
100
AcDbEntity
  8
PEF-L60A
  6
DASHED
100
AcDbLine
 10
114.25
 20
111.7499999999999
 30
0.0
 11
114.25
 21
102.2499999999999
 31
0.0
  0
LINE
  5
22E
330
1E
100
AcDbEntity
  8
PEF-L60A
  6
DASHED
100
AcDbLine
 10
114.25
 20
102.2499999999999
 30
0.0
 11
111.7499999999999
 21
102.2499999999999
 31
0.0
  0
LINE
  5
22F
330
1E
100
AcDbEntity
  8
PEF-L60A
  6
CENTER
100
AcDbLine
 10
208.25
 20
114.5
 30
0.0
 11
208.25
 21
91.25
 31
0.0
  0
LINE
  5
230
330
1E
100
AcDbEntity
  8
PEF-L60A
  6
DASHED
100
AcDbLine
 10
167.25
 20
102.2499999999999
 30
0.0
 11
168.0
 21
100.2499999999999
 31
0.0
  0
LINE
  5
231
330
1E
100
AcDbEntity
  8
PEF-L60A
  6
DASHED
100
AcDbLine
 10
172.25
 20
102.2499999999999
 30
0.0
 11
171.5
 21
100.2499999999999
 31
0.0
  0
LINE
  5
232
330
1E
100
AcDbEntity
  8
PEF-L60A
  6
DASHED
100
AcDbLine
 10
168.0
 20
111.7499999999999
 30
0.0
 11
168.0
 21
99.50000000000001
 31
0.0
  0
LINE
  5
233
330
1E
100
AcDbEntity
  8
PEF-L60A
  6
DASHED
100
AcDbLine
 10
171.5
 20
111.7499999999999
 30
0.0
 11
171.5
 21
99.50000000000001
 31
0.0
  0
LINE
  5
237
330
1E
100
AcDbEntity
  8
PEF-L60A
  6
CENTER
100
AcDbLine
 10
169.7499999999999
 20
93.49999999999999
 30
0.0
 11
169.7499999999999
 21
116.25
 31
0.0
  0
LINE
  5
238
330
1E
100
AcDbEntity
  8
PEF-L60A
  6
DASHED
100
AcDbLine
 10
168.0
 20
99.50000000000001
 30
0.0
 11
169.7499999999999
 21
98.50000000000001
 31
0.0
  0
LINE
  5
239
330
1E
100
AcDbEntity
  8
PEF-L60A
  6
DASHED
100
AcDbLine
 10
168.0
 20
99.50000000000001
 30
0.0
 11
169.7499999999999
 21
99.50000000000001
 31
0.0
  0
LINE
  5
23A
330
1E
100
AcDbEntity
  8
PEF-L60A
  6
DASHED
100
AcDbLine
 10
171.5
 20
99.50000000000001
 30
0.0
 11
169.7499999999999
 21
99.50000000000001
 31
0.0
  0
LINE
  5
23B
330
1E
100
AcDbEntity
  8
PEF-L60A
  6
DASHED
100
AcDbLine
 10
171.5
 20
99.50000000000001
 30
0.0
 11
169.7499999999999
 21
98.50000000000001
 31
0.0
  0
CIRCLE
  5
242
330
1E
100
AcDbEntity
  8
PEF-L60A
100
AcDbCircle
 10
177.2293129691206
 20
130.6844081308132
 30
0.0
 40
3.0
  0
LINE
  5
243
330
1E
100
AcDbEntity
  8
PEF-L60A
  6
CENTER
100
AcDbLine
 10
171.4812772310275
 20
130.6844081308132
 30
0.0
 11
182.9812772310274
 21
130.6844081308132
 31
0.0
  0
CIRCLE
  5
244
330
1E
100
AcDbEntity
  8
PEF-L60A
100
AcDbCircle
 10
177.2293129691206
 20
130.6824438689062
 30
0.0
 40
1.75
  0
ARC
  5
245
330
1E
100
AcDbEntity
  8
PEF-L60A
100
AcDbCircle
 10
177.2293129691206
 20
130.6824438689062
 30
0.0
 40
2.5
100
AcDbArc
 50
275.7105931374995
 51
185.1944289077347
  0
LINE
  5
246
330
1E
100
AcDbEntity
  8
PEF-L60A
  6
DASHED
100
AcDbLine
 10
167.25
 20
102.2499999999999
 30
0.0
 11
169.7499999999999
 21
102.2499999999999
 31
0.0
  0
LINE
  5
247
330
1E
100
AcDbEntity
  8
PEF-L60A
  6
DASHED
100
AcDbLine
 10
167.25
 20
111.7499999999999
 30
0.0
 11
167.25
 21
102.2499999999999
 31
0.0
  0
LINE
  5
248
330
1E
100
AcDbEntity
  8
PEF-L60A
  6
DASHED
100
AcDbLine
 10
172.25
 20
111.7499999999999
 30
0.0
 11
172.25
 21
102.2499999999999
 31
0.0
  0
LINE
  5
249
330
1E
100
AcDbEntity
  8
PEF-L60A
  6
DASHED
100
AcDbLine
 10
172.25
 20
102.2499999999999
 30
0.0
 11
169.7499999999999
 21
102.2499999999999
 31
0.0
  0
LINE
  5
24B
330
1E
100
AcDbEntity
  8
PEF-L60A
  6
CENTER
100
AcDbLine
 10
177.2293129691206
 20
124.9344081308132
 30
0.0
 11
177.2293129691206
 21
136.4344081308132
 31
0.0
  0
LINE
  5
25E
330
1E
100
AcDbEntity
  8
PEF-L60A
100
AcDbLine
 10
209.2293129691205
 20
125.6844081308132
 30
0.0
 11
209.2293129691205
 21
143.0279662421571
 31
0.0
  0
ARC
  5
26C
330
1E
100
AcDbEntity
  8
PEF-L60A
100
AcDbCircle
 10
208.6636275441714
 20
143.7046122336999
 30
0.0
 40
0.8
100
AcDbArc
 50
105.0
 51
284.9999999999998
  0
LINE
  5
26D
330
1E
100
AcDbEntity
  8
PEF-L60A
100
AcDbLine
 10
209.2293129691205
 20
144.6844081308131
 30
0.0
 11
207.683831647058
 21
144.270297658649
 31
0.0
  0
LINE
  5
26E
330
1E
100
AcDbEntity
  8
PEF-L60A
100
AcDbLine
 10
209.2293129691205
 20
143.0279662421571
 30
0.0
 11
208.8706827802534
 21
142.9318715726686
 31
0.0
  0
LINE
  5
272
330
1E
100
AcDbEntity
  8
PEF-L60A
100
AcDbLine
 10
187.7080313287717
 20
210.6844081308131
 30
0.0
 11
64.22931296912068
 21
210.6844081308131
 31
0.0
  0
LINE
  5
276
330
1E
100
AcDbEntity
  8
PEF-L60A
  6
CENTER
100
AcDbLine
 10
48.53861432311664
 20
200.1629859209081
 30
0.0
 11
59.22931296912068
 21
203.0275499896293
 31
0.0
  0
LINE
  5
277
330
1E
100
AcDbEntity
  8
PEF-L60A
100
AcDbLine
 10
60.84507929511811
 20
214.5
 30
0.0
 11
184.25
 21
214.5
 31
0.0
  0
LINE
  5
278
330
1E
100
AcDbEntity
  8
PEF-L60A
100
AcDbLine
 10
65.87425024183065
 20
170.5261807673291
 30
0.0
 11
59.22931296912068
 21
195.3254242821907
 31
0.0
  0
LINE
  5
27A
330
1E
100
AcDbEntity
  8
PEF-L60A
100
AcDbLine
 10
61.08611588025451
 20
209.7367359126317
 30
0.0
 11
61.12226236012401
 21
209.601835413244
 31
0.0
  0
LINE
  5
280
330
1E
100
AcDbEntity
  8
PEF-L60A
100
AcDbLine
 10
67.83384203605717
 20
169.3948099174305
 30
0.0
 11
66.28836071399465
 21
168.9806994452665
 31
0.0
  0
LINE
  5
281
330
1E
100
AcDbEntity
  8
PEF-L60A
100
AcDbLine
 10
66.64699090286186
 20
170.7332360034111
 30
0.0
 11
65.87425024183065
 21
170.5261807673291
 31
0.0
  0
ARC
  5
282
330
1E
100
AcDbEntity
  8
PEF-L60A
100
AcDbCircle
 10
66.85404613894391
 20
169.9604953423798
 30
0.0
 40
0.8
100
AcDbArc
 50
285.0000000000005
 51
104.9999999999996
  0
LINE
  5
283
330
1E
100
AcDbEntity
  8
PEF-L60A
100
AcDbLine
 10
60.91677463731777
 20
172.6976188098151
 30
0.0
 11
65.26344085561857
 21
173.8623045127764
 31
0.0
  0
LINE
  5
284
330
1E
100
AcDbEntity
  8
PEF-L60A
100
AcDbLine
 10
63.06347897224714
 20
182.0726740362335
 30
0.0
 11
58.71681275394632
 21
180.9079883332721
 31
0.0
  0
LINE
  5
285
330
1E
100
AcDbEntity
  8
PEF-L60A
100
AcDbLine
 10
58.71681275394632
 20
180.9079883332721
 30
0.0
 11
60.91677463731777
 21
172.6976188098151
 31
0.0
  0
LINE
  5
286
330
1E
100
AcDbEntity
  8
PEF-L60A
100
AcDbLine
 10
58.36325936335304
 20
180.2956158975764
 30
0.0
 11
60.30440220162197
 21
173.0511722004083
 31
0.0
  0
LINE
  5
287
330
1E
100
AcDbEntity
  8
PEF-L60A
100
AcDbLine
 10
60.91677463731777
 20
172.6976188098151
 30
0.0
 11
60.30440220162197
 21
173.0511722004083
 31
0.0
  0
LINE
  5
28A
330
1E
100
AcDbEntity
  8
PEF-L60A
100
AcDbLine
 10
58.36325936335304
 20
180.2956158975764
 30
0.0
 11
58.71681275394632
 21
180.9079883332721
 31
0.0
  0
LINE
  5
28F
330
1E
100
AcDbEntity
  8
PEF-L60A
100
AcDbLine
 10
65.26344085561857
 20
173.8623045127764
 30
0.0
 11
63.06347897224714
 21
182.0726740362335
 31
0.0
  0
LINE
  5
291
330
1E
100
AcDbEntity
  8
PEF-L60A
100
AcDbLine
 10
63.78792334196393
 20
182.2667883200605
 30
0.0
 11
63.06347897224714
 21
182.0726740362335
 31
0.0
  0
ARC
  5
29D
330
1E
100
AcDbEntity
  8
PEF-L60A
100
AcDbCircle
 10
64.22931296912068
 20
205.6844081308131
 30
0.0
 40
5.0
100
AcDbArc
 50
90.0
 51
180.0
  0
LINE
  5
29F
330
1E
100
AcDbEntity
  8
PEF-L60A
100
AcDbLine
 10
56.61318407187349
 20
209.0432798070974
 30
0.0
 11
58.29236393256882
 21
202.7764952519361
 31
0.0
  0
LINE
  5
2A0
330
1E
100
AcDbEntity
  8
PEF-L60A
100
AcDbLine
 10
56.47108255363739
 20
206.6758324141201
 30
0.0
 11
52.12441633533657
 21
205.5111467111588
 31
0.0
  0
LINE
  5
2A1
330
1E
100
AcDbEntity
  8
PEF-L60A
100
AcDbLine
 10
58.67104443700881
 20
198.4654628906631
 30
0.0
 11
56.47108255363739
 21
206.6758324141201
 31
0.0
  0
LINE
  5
2A4
330
1E
100
AcDbEntity
  8
PEF-L60A
100
AcDbLine
 10
54.324378218708
 20
197.3007771877016
 30
0.0
 11
53.71200578301221
 21
197.6543305782949
 31
0.0
  0
LINE
  5
2A5
330
1E
100
AcDbEntity
  8
PEF-L60A
100
AcDbLine
 10
52.12441633533657
 20
205.5111467111588
 30
0.0
 11
54.324378218708
 21
197.3007771877016
 31
0.0
  0
LINE
  5
2A6
330
1E
100
AcDbEntity
  8
PEF-L60A
100
AcDbLine
 10
51.7708629447433
 20
204.8987742754629
 30
0.0
 11
53.71200578301221
 21
197.6543305782949
 31
0.0
  0
LINE
  5
2A7
330
1E
100
AcDbEntity
  8
PEF-L60A
100
AcDbLine
 10
51.7708629447433
 20
204.8987742754629
 30
0.0
 11
52.12441633533657
 21
205.5111467111588
 31
0.0
  0
LINE
  5
2A8
330
1E
100
AcDbEntity
  8
PEF-L60A
100
AcDbLine
 10
59.97154379326406
 20
196.5097106967748
 30
0.0
 11
58.29236393256882
 21
202.7764952519361
 31
0.0
  0
LINE
  5
2A9
330
1E
100
AcDbEntity
  8
PEF-L60A
  6
DASHED
100
AcDbLine
 10
59.22931296912068
 20
195.3254242821907
 30
0.0
 11
59.22931296912068
 21
205.6844081308131
 31
0.0
  0
LINE
  5
2AA
330
1E
100
AcDbEntity
  8
PEF-L60A
100
AcDbLine
 10
54.324378218708
 20
197.3007771877016
 30
0.0
 11
58.67104443700881
 21
198.4654628906631
 31
0.0
  0
LINE
  5
2AB
330
1E
100
AcDbEntity
  8
PEF-L60A
100
AcDbLine
 10
58.67104443700881
 20
198.4654628906631
 30
0.0
 11
59.3954888067256
 21
198.6595771744898
 31
0.0
  0
LINE
  5
2AC
330
1E
100
AcDbEntity
  8
PEF-L60A
100
AcDbLine
 10
60.9598502901743
 20
210.2079655100586
 30
0.0
 11
56.61318407187349
 21
209.0432798070974
 31
0.0
  0
LINE
  5
2AD
330
1E
100
AcDbEntity
  8
PEF-L60A
100
AcDbLine
 10
57.19552692335418
 20
206.8699466979469
 30
0.0
 11
56.47108255363739
 21
206.6758324141201
 31
0.0
  0
LINE
  5
2AE
330
1E
100
AcDbEntity
  8
PEF-L60A
100
AcDbLine
 10
60.9598502901743
 20
210.2079655100586
 30
0.0
 11
61.08611588025451
 21
209.7367359126317
 31
0.0
  0
LINE
  5
2AF
330
1E
100
AcDbEntity
  8
PEF-L60A
100
AcDbLine
 10
62.05204170654354
 20
209.9955549577344
 30
0.0
 11
61.08611588025451
 21
209.7367359126317
 31
0.0
  0
CIRCLE
  5
2BF
330
1E
100
AcDbEntity
  8
PEF-L60A
  6
PHANTOM
100
AcDbCircle
 10
132.2293129691205
 20
188.6844081308131
 30
0.0
 40
8.0
  0
LINE
  5
2C0
330
1E
100
AcDbEntity
  8
PEF-L60A
  6
CENTER
100
AcDbLine
 10
132.2293129691205
 20
178.6844081308131
 30
0.0
 11
132.2293129691205
 21
198.6844081308131
 31
0.0
  0
CIRCLE
  5
2D1
330
1E
100
AcDbEntity
  8
PEF-L60A
  6
PHANTOM
100
AcDbCircle
 10
132.2293129691205
 20
188.6844081308131
 30
0.0
 40
5.0
  0
LINE
  5
2D2
330
1E
100
AcDbEntity
  8
PEF-L60A
  6
CENTER
100
AcDbLine
 10
142.2293129691206
 20
188.6844081308131
 30
0.0
 11
122.2293129691206
 21
188.6844081308131
 31
0.0
  0
LINE
  5
2D5
330
1E
100
AcDbEntity
  8
PEF-L60A
  6
CENTER
100
AcDbLine
 10
88.25000000000001
 20
210.6844081308131
 30
0.0
 11
88.25000000000001
 21
218.75
 31
0.0
  0
LINE
  5
2D6
330
1E
100
AcDbEntity
  8
PEF-L60A
  6
DASHED
100
AcDbLine
 10
85.75000000000001
 20
214.5
 30
0.0
 11
85.75000000000001
 21
210.6844081308131
 31
0.0
  0
LINE
  5
2D7
330
1E
100
AcDbEntity
  8
PEF-L60A
  6
DASHED
100
AcDbLine
 10
86.5
 20
214.5
 30
0.0
 11
86.5
 21
210.6844081308131
 31
0.0
  0
LINE
  5
2D8
330
1E
100
AcDbEntity
  8
PEF-L60A
  6
DASHED
100
AcDbLine
 10
90.75000000000001
 20
214.5
 30
0.0
 11
90.75000000000001
 21
210.6844081308131
 31
0.0
  0
LINE
  5
2D9
330
1E
100
AcDbEntity
  8
PEF-L60A
  6
DASHED
100
AcDbLine
 10
90.0
 20
214.5
 30
0.0
 11
90.0
 21
210.6844081308131
 31
0.0
  0
LINE
  5
2DE
330
1E
100
AcDbEntity
  8
PEF-L60A
  6
CENTER
100
AcDbLine
 10
128.2499999999999
 20
210.6844081308131
 30
0.0
 11
128.2499999999999
 21
218.75
 31
0.0
  0
LINE
  5
2DF
330
1E
100
AcDbEntity
  8
PEF-L60A
  6
DASHED
100
AcDbLine
 10
126.5
 20
214.5
 30
0.0
 11
126.5
 21
210.6844081308131
 31
0.0
  0
LINE
  5
2E0
330
1E
100
AcDbEntity
  8
PEF-L60A
  6
DASHED
100
AcDbLine
 10
125.75
 20
214.5
 30
0.0
 11
125.75
 21
210.6844081308131
 31
0.0
  0
LINE
  5
2E1
330
1E
100
AcDbEntity
  8
PEF-L60A
  6
DASHED
100
AcDbLine
 10
130.0
 20
214.5
 30
0.0
 11
130.0
 21
210.6844081308131
 31
0.0
  0
LINE
  5
2E2
330
1E
100
AcDbEntity
  8
PEF-L60A
  6
DASHED
100
AcDbLine
 10
130.75
 20
214.5
 30
0.0
 11
130.75
 21
210.6844081308131
 31
0.0
  0
LINE
  5
2E8
330
1E
100
AcDbEntity
  8
PEF-L60A
100
AcDbLine
 10
201.0506311438809
 20
175.2076642415477
 30
0.0
 11
192.537660460217
 21
206.9785033563257
 31
0.0
  0
LINE
  5
2E9
330
1E
100
AcDbEntity
  8
PEF-L60A
100
AcDbLine
 10
186.2085288837696
 20
211.0543740028369
 30
0.0
 11
186.3076609404054
 21
210.6844081308131
 31
0.0
  0
LINE
  5
2EA
330
1E
100
AcDbEntity
  8
PEF-L60A
100
AcDbLine
 10
185.2723847599953
 20
210.684408130813
 30
0.0
 11
185.2426030574805
 21
210.7955549577344
 31
0.0
  0
LINE
  5
2EB
330
1E
100
AcDbEntity
  8
PEF-L60A
  6
CENTER
100
AcDbLine
 10
208.9506421565578
 20
184.6842059794779
 30
0.0
 11
199.2106961021593
 21
182.0743952998791
 31
0.0
  0
LINE
  5
2FA
330
1E
100
AcDbEntity
  8
PEF-L60A
100
AcDbLine
 10
198.2956332573464
 20
186.2291287163306
 30
0.0
 11
200.4955951407178
 21
178.0187591928735
 31
0.0
  0
LINE
  5
2FB
330
1E
100
AcDbEntity
  8
PEF-L60A
100
AcDbLine
 10
204.8422613590185
 20
179.1834448958349
 30
0.0
 11
202.6422994756472
 21
187.3938144192919
 31
0.0
  0
LINE
  5
2FC
330
1E
100
AcDbEntity
  8
PEF-L60A
100
AcDbLine
 10
205.1958147496118
 20
179.7958173315306
 30
0.0
 11
203.254671911343
 21
187.0402610286987
 31
0.0
  0
LINE
  5
2FD
330
1E
100
AcDbEntity
  8
PEF-L60A
100
AcDbLine
 10
200.4955951407178
 20
178.0187591928735
 30
0.0
 11
204.8422613590185
 21
179.1834448958349
 31
0.0
  0
ARC
  5
302
330
1E
100
AcDbEntity
  8
PEF-L60A
  6
DASHED
100
AcDbCircle
 10
200.4849457189318
 20
174.2278683444345
 30
0.0
 40
0.8
100
AcDbArc
 50
104.9999999999994
 51
285.0000000000005
  0
LINE
  5
303
330
1E
100
AcDbEntity
  8
PEF-L60A
  6
DASHED
100
AcDbLine
 10
201.0506311438809
 20
175.2076642415477
 30
0.0
 11
200.2778904828498
 21
175.0006090054657
 31
0.0
  0
LINE
  5
304
330
1E
100
AcDbEntity
  8
PEF-L60A
  6
DASHED
100
AcDbLine
 10
201.4647416160449
 20
173.6621829194851
 30
0.0
 11
199.9192602939825
 21
173.248072447321
 31
0.0
  0
LINE
  5
306
330
1E
100
AcDbEntity
  8
PEF-L60A
100
AcDbLine
 10
205.1958147496118
 20
179.7958173315306
 30
0.0
 11
204.8422613590185
 21
179.1834448958349
 31
0.0
  0
LINE
  5
307
330
1E
100
AcDbEntity
  8
PEF-L60A
100
AcDbLine
 10
202.6422994756472
 20
187.3938144192919
 30
0.0
 11
198.2956332573464
 21
186.2291287163306
 31
0.0
  0
LINE
  5
308
330
1E
100
AcDbEntity
  8
PEF-L60A
100
AcDbLine
 10
198.2956332573464
 20
186.2291287163306
 30
0.0
 11
197.5711888876295
 21
186.0350144325036
 31
0.0
  0
LINE
  5
309
330
1E
100
AcDbEntity
  8
PEF-L60A
100
AcDbLine
 10
202.6422994756472
 20
187.3938144192919
 30
0.0
 11
203.254671911343
 21
187.0402610286987
 31
0.0
  0
LINE
  5
30C
330
1E
100
AcDbEntity
  8
PEF-L60A
  6
CENTER
100
AcDbLine
 10
201.7482396112094
 20
209.0065698604071
 30
0.0
 11
192.6301642751021
 21
206.563388937571
 31
0.0
  0
LINE
  5
312
330
1E
100
AcDbEntity
  8
PEF-L60A
  6
CENTER
100
AcDbLine
 10
168.25
 20
210.6844081308131
 30
0.0
 11
168.25
 21
218.75
 31
0.0
  0
LINE
  5
313
330
1E
100
AcDbEntity
  8
PEF-L60A
  6
DASHED
100
AcDbLine
 10
166.5
 20
214.5
 30
0.0
 11
166.5
 21
210.6844081308131
 31
0.0
  0
LINE
  5
314
330
1E
100
AcDbEntity
  8
PEF-L60A
  6
DASHED
100
AcDbLine
 10
165.7499999999999
 20
214.5
 30
0.0
 11
165.7499999999999
 21
210.6844081308131
 31
0.0
  0
LINE
  5
315
330
1E
100
AcDbEntity
  8
PEF-L60A
  6
DASHED
100
AcDbLine
 10
170.75
 20
214.5
 30
0.0
 11
170.75
 21
210.6844081308131
 31
0.0
  0
LINE
  5
316
330
1E
100
AcDbEntity
  8
PEF-L60A
  6
DASHED
100
AcDbLine
 10
170.0
 20
214.5
 30
0.0
 11
170.0
 21
210.6844081308131
 31
0.0
  0
LINE
  5
320
330
1E
100
AcDbEntity
  8
PEF-L60A
100
AcDbLine
 10
191.7325728007165
 20
210.7228037936192
 30
0.0
 11
193.9325346840881
 21
202.5124342701622
 31
0.0
  0
LINE
  5
321
330
1E
100
AcDbEntity
  8
PEF-L60A
100
AcDbLine
 10
193.7476165872152
 20
202.4628856154392
 30
0.0
 11
193.9325346840881
 21
202.5124342701622
 31
0.0
  0
LINE
  5
322
330
1E
100
AcDbEntity
  8
PEF-L60A
100
AcDbLine
 10
196.0792390190174
 20
211.8874894965805
 30
0.0
 11
191.7325728007165
 21
210.7228037936192
 31
0.0
  0
LINE
  5
323
330
1E
100
AcDbEntity
  8
PEF-L60A
100
AcDbLine
 10
190.4257855795192
 20
212.7020226189427
 30
0.0
 11
191.4037738928756
 21
209.0521205442876
 31
0.0
  0
LINE
  5
325
330
1E
100
AcDbEntity
  8
PEF-L60A
100
AcDbLine
 10
185.2426030574805
 20
210.7955549577344
 30
0.0
 11
186.2085288837696
 21
211.0543740028369
 31
0.0
  0
LINE
  5
326
330
1E
100
AcDbEntity
  8
PEF-L60A
100
AcDbLine
 10
185.2426030574805
 20
210.7955549577344
 30
0.0
 11
184.25
 21
214.5
 31
0.0
  0
LINE
  5
327
330
1E
100
AcDbEntity
  8
PEF-L60A
100
AcDbLine
 10
186.0791193612184
 20
211.5373369159814
 30
0.0
 11
190.4257855795192
 21
212.7020226189427
 31
0.0
  0
ARC
  5
328
330
1E
100
AcDbEntity
  8
PEF-L60A
100
AcDbCircle
 10
187.7080313287717
 20
205.6844081308131
 30
0.0
 40
5.0
100
AcDbArc
 50
15.00000000000008
 51
90.0
  0
LINE
  5
329
330
1E
100
AcDbEntity
  8
PEF-L60A
100
AcDbLine
 10
186.0791193612184
 20
211.5373369159814
 30
0.0
 11
186.2085288837696
 21
211.0543740028369
 31
0.0
  0
LINE
  5
32A
330
1E
100
AcDbEntity
  8
PEF-L60A
100
AcDbLine
 10
191.7325728007165
 20
210.7228037936192
 30
0.0
 11
191.0081284309997
 21
210.5286895097924
 31
0.0
  0
LINE
  5
32B
330
1E
100
AcDbEntity
  8
PEF-L60A
100
AcDbLine
 10
198.6327542929821
 20
204.2894924088193
 30
0.0
 11
196.6916114547131
 21
211.5339361059873
 31
0.0
  0
LINE
  5
32C
330
1E
100
AcDbEntity
  8
PEF-L60A
100
AcDbLine
 10
198.2792009023889
 20
203.6771199731235
 30
0.0
 11
196.0792390190174
 21
211.8874894965805
 31
0.0
  0
LINE
  5
32D
330
1E
100
AcDbEntity
  8
PEF-L60A
100
AcDbLine
 10
193.9325346840881
 20
202.5124342701622
 30
0.0
 11
198.2792009023889
 21
203.6771199731235
 31
0.0
  0
LINE
  5
32E
330
1E
100
AcDbEntity
  8
PEF-L60A
100
AcDbLine
 10
198.6327542929821
 20
204.2894924088193
 30
0.0
 11
198.2792009023889
 21
203.6771199731235
 31
0.0
  0
LINE
  5
32F
330
1E
100
AcDbEntity
  8
PEF-L60A
100
AcDbLine
 10
196.0792390190174
 20
211.8874894965805
 30
0.0
 11
196.6916114547131
 21
211.5339361059873
 31
0.0
  0
LINE
  5
339
330
1E
100
AcDbEntity
  8
PEF-L60A
100
AcDbLine
 10
329.2499999999999
 20
120.75
 30
0.0
 11
329.2499999999999
 21
210.6844081308131
 31
0.0
  0
LINE
  5
33A
330
1E
100
AcDbEntity
  8
PEF-L60A
100
AcDbLine
 10
281.25
 20
120.75
 30
0.0
 11
281.25
 21
210.6844081308131
 31
0.0
  0
LINE
  5
33B
330
1E
100
AcDbEntity
  8
PEF-L60A
100
AcDbLine
 10
306.25
 20
144.6844081308131
 30
0.0
 11
306.25
 21
173.6621829194851
 31
0.0
  0
LINE
  5
33C
330
1E
100
AcDbEntity
  8
PEF-L60A
100
AcDbLine
 10
304.2499999999999
 20
144.6844081308131
 30
0.0
 11
304.2499999999999
 21
173.6621829194851
 31
0.0
  0
LINE
  5
33E
330
1E
100
AcDbEntity
  8
PEF-L60A
100
AcDbLine
 10
342.75
 20
113.25
 30
0.0
 11
331.7499999999999
 21
113.25
 31
0.0
  0
LINE
  5
33F
330
1E
100
AcDbEntity
  8
PEF-L60A
100
AcDbLine
 10
325.2499999999999
 20
111.7499999999999
 30
0.0
 11
342.75
 21
111.7499999999999
 31
0.0
  0
LINE
  5
340
330
1E
100
AcDbEntity
  8
PEF-L60A
100
AcDbLine
 10
267.75
 20
95.75000000000001
 30
0.0
 11
342.75
 21
95.75000000000001
 31
0.0
  0
LINE
  5
345
330
1E
100
AcDbEntity
  8
PEF-L60A
  6
CENTER
100
AcDbLine
 10
284.25
 20
130.6844081308132
 30
0.0
 11
270.75
 21
130.6844081308132
 31
0.0
  0
LINE
  5
346
330
1E
100
AcDbEntity
  8
PEF-L60A
100
AcDbLine
 10
279.7293129691206
 20
126.4344081308131
 30
0.0
 11
275.2293129691206
 21
126.4344081308131
 31
0.0
  0
LINE
  5
347
330
1E
100
AcDbEntity
  8
PEF-L60A
100
AcDbLine
 10
275.2293129691206
 20
134.9344081308132
 30
0.0
 11
279.7293129691206
 21
134.9344081308132
 31
0.0
  0
LINE
  5
348
330
1E
100
AcDbEntity
  8
PEF-L60A
100
AcDbLine
 10
267.75
 20
113.25
 30
0.0
 11
278.75
 21
113.25
 31
0.0
  0
LINE
  5
349
330
1E
100
AcDbEntity
  8
PEF-L60A
100
AcDbLine
 10
278.5
 20
117.7499999999999
 30
0.0
 11
270.0
 21
117.7499999999999
 31
0.0
  0
LINE
  5
34A
330
1E
100
AcDbEntity
  8
PEF-L60A
100
AcDbLine
 10
270.5
 20
118.25
 30
0.0
 11
278.0
 21
118.25
 31
0.0
  0
LINE
  5
34B
330
1E
100
AcDbEntity
  8
PEF-L60A
100
AcDbLine
 10
267.75
 20
111.7499999999999
 30
0.0
 11
285.25
 21
111.7499999999999
 31
0.0
  0
LINE
  5
34F
330
1E
100
AcDbEntity
  8
PEF-L60A
100
AcDbLine
 10
219.992484097423
 20
100.2055697313078
 30
0.0
 11
218.3101603042565
 21
106.4840876021867
 31
0.0
  0
LINE
  5
350
330
1E
100
AcDbEntity
  8
PEF-L60A
  6
DASHED
100
AcDbLine
 10
270.75
 20
95.75000000000001
 30
0.0
 11
270.75
 21
111.7499999999999
 31
0.0
  0
LINE
  5
351
330
1E
100
AcDbEntity
  8
PEF-L60A
  6
CENTER
100
AcDbLine
 10
274.25
 20
90.75000000000001
 30
0.0
 11
274.25
 21
123.0
 31
0.0
  0
LINE
  5
352
330
1E
100
AcDbEntity
  8
PEF-L60A
100
AcDbLine
 10
267.75
 20
95.75000000000001
 30
0.0
 11
267.75
 21
111.7499999999999
 31
0.0
  0
LINE
  5
354
330
1E
100
AcDbEntity
  8
PEF-L60A
100
AcDbLine
 10
214.25
 20
111.7499999999999
 30
0.0
 11
214.25
 21
95.75000000000001
 31
0.0
  0
LINE
  5
35E
330
1E
100
AcDbEntity
  8
PEF-L60A
100
AcDbLine
 10
215.6458178791222
 20
99.04088402834659
 30
0.0
 11
219.992484097423
 21
100.2055697313078
 31
0.0
  0
LINE
  5
35F
330
1E
100
AcDbEntity
  8
PEF-L60A
100
AcDbLine
 10
214.9368528607975
 20
99.3685555144296
 30
0.0
 11
214.25
 21
99.18451384505992
 31
0.0
  0
LINE
  5
360
330
1E
100
AcDbEntity
  8
PEF-L60A
100
AcDbLine
 10
215.6458178791222
 20
99.04088402834659
 30
0.0
 11
215.5164083565709
 21
99.52384694149117
 31
0.0
  0
LINE
  5
361
330
1E
100
AcDbEntity
  8
PEF-L60A
100
AcDbLine
 10
215.5164083565709
 20
99.52384694149117
 30
0.0
 11
214.9368528607975
 21
99.36855551442965
 31
0.0
  0
LINE
  5
368
330
1E
100
AcDbEntity
  8
PEF-L60A
100
AcDbLine
 10
217.9346237322878
 20
110.7833866477422
 30
0.0
 11
220.1345856156591
 21
102.5730171242851
 31
0.0
  0
LINE
  5
369
330
1E
100
AcDbEntity
  8
PEF-L60A
100
AcDbLine
 10
222.2812899505886
 20
111.9480723507036
 30
0.0
 11
217.9346237322878
 21
110.7833866477422
 31
0.0
  0
LINE
  5
36A
330
1E
100
AcDbEntity
  8
PEF-L60A
100
AcDbLine
 10
216.6278365110903
 20
112.7626054730658
 30
0.0
 11
218.3101603042565
 21
106.4840876021867
 31
0.0
  0
LINE
  5
36B
330
1E
100
AcDbEntity
  8
PEF-L60A
100
AcDbLine
 10
212.8487414375863
 20
111.7499999999999
 30
0.0
 11
216.6278365110903
 21
112.7626054730658
 31
0.0
  0
LINE
  5
36D
330
1E
100
AcDbEntity
  8
PEF-L60A
100
AcDbLine
 10
217.9346237322878
 20
110.7833866477422
 30
0.0
 11
217.210179362571
 21
110.5892723639154
 31
0.0
  0
LINE
  5
36E
330
1E
100
AcDbEntity
  8
PEF-L60A
100
AcDbLine
 10
224.4812518339599
 20
103.7377028272465
 30
0.0
 11
222.2812899505886
 21
111.9480723507036
 31
0.0
  0
LINE
  5
36F
330
1E
100
AcDbEntity
  8
PEF-L60A
100
AcDbLine
 10
224.8348052245531
 20
104.3500752629423
 30
0.0
 11
222.8936623862842
 21
111.5945189601103
 31
0.0
  0
LINE
  5
370
330
1E
100
AcDbEntity
  8
PEF-L60A
100
AcDbLine
 10
220.1345856156591
 20
102.5730171242851
 30
0.0
 11
224.4812518339599
 21
103.7377028272465
 31
0.0
  0
LINE
  5
371
330
1E
100
AcDbEntity
  8
PEF-L60A
100
AcDbLine
 10
219.4101412459424
 20
102.3789028404582
 30
0.0
 11
220.1345856156591
 21
102.5730171242851
 31
0.0
  0
LINE
  5
372
330
1E
100
AcDbEntity
  8
PEF-L60A
100
AcDbLine
 10
224.8348052245531
 20
104.3500752629423
 30
0.0
 11
224.4812518339599
 21
103.7377028272465
 31
0.0
  0
LINE
  5
373
330
1E
100
AcDbEntity
  8
PEF-L60A
100
AcDbLine
 10
222.2812899505886
 20
111.9480723507036
 30
0.0
 11
222.8936623862842
 21
111.5945189601103
 31
0.0
  0
LINE
  5
377
330
1E
100
AcDbEntity
  8
PEF-L60A
100
AcDbLine
 10
217.0534870469507
 20
133.3903500516144
 30
0.0
 11
215.1123442086817
 21
140.6347937487824
 31
0.0
  0
LINE
  5
378
330
1E
100
AcDbEntity
  8
PEF-L60A
100
AcDbLine
 10
216.6999336563574
 20
132.7779776159185
 30
0.0
 11
214.4999717729859
 21
140.9883471393756
 31
0.0
  0
LINE
  5
379
330
1E
100
AcDbEntity
  8
PEF-L60A
100
AcDbLine
 10
210.153305554685
 20
139.8236614364143
 30
0.0
 11
212.3532674380566
 21
131.6132919129572
 31
0.0
  0
LINE
  5
37A
330
1E
100
AcDbEntity
  8
PEF-L60A
100
AcDbLine
 10
212.2111659198205
 20
129.24584451998
 30
0.0
 11
210.5288421266541
 21
135.5243623908588
 31
0.0
  0
LINE
  5
37B
330
1E
100
AcDbEntity
  8
PEF-L60A
100
AcDbLine
 10
212.3532674380566
 20
131.6132919129572
 30
0.0
 11
216.6999336563574
 21
132.7779776159185
 31
0.0
  0
LINE
  5
37C
330
1E
100
AcDbEntity
  8
PEF-L60A
100
AcDbLine
 10
211.6288230683398
 20
131.4191776291304
 30
0.0
 11
212.3532674380566
 21
131.6132919129572
 31
0.0
  0
LINE
  5
37D
330
1E
100
AcDbEntity
  8
PEF-L60A
100
AcDbLine
 10
217.0534870469507
 20
133.3903500516144
 30
0.0
 11
216.6999336563574
 21
132.7779776159185
 31
0.0
  0
LINE
  5
37E
330
1E
100
AcDbEntity
  8
PEF-L60A
100
AcDbLine
 10
214.4999717729859
 20
140.9883471393756
 30
0.0
 11
210.153305554685
 21
139.8236614364143
 31
0.0
  0
LINE
  5
37F
330
1E
100
AcDbEntity
  8
PEF-L60A
100
AcDbLine
 10
214.4999717729859
 20
140.9883471393756
 30
0.0
 11
215.1123442086817
 21
140.6347937487824
 31
0.0
  0
LINE
  5
380
330
1E
100
AcDbEntity
  8
PEF-L60A
100
AcDbLine
 10
270.0
 20
113.25
 30
0.0
 11
270.0
 21
117.7499999999999
 31
0.0
  0
LINE
  5
381
330
1E
100
AcDbEntity
  8
PEF-L60A
100
AcDbLine
 10
267.75
 20
111.7499999999999
 30
0.0
 11
267.75
 21
113.25
 31
0.0
  0
LINE
  5
382
330
1E
100
AcDbEntity
  8
PEF-L60A
100
AcDbLine
 10
270.0
 20
117.7499999999999
 30
0.0
 11
270.5
 21
118.25
 31
0.0
  0
LINE
  5
383
330
1E
100
AcDbEntity
  8
PEF-L60A
100
AcDbLine
 10
275.2293129691206
 20
134.9344081308132
 30
0.0
 11
275.2293129691206
 21
126.4344081308131
 31
0.0
  0
LINE
  5
384
330
1E
100
AcDbEntity
  8
PEF-L60A
100
AcDbLine
 10
274.7293129691206
 20
126.9344081308132
 30
0.0
 11
274.7293129691206
 21
134.4344081308132
 31
0.0
  0
LINE
  5
385
330
1E
100
AcDbEntity
  8
PEF-L60A
100
AcDbLine
 10
275.2293129691206
 20
126.4344081308131
 30
0.0
 11
274.7293129691206
 21
126.9344081308132
 31
0.0
  0
LINE
  5
386
330
1E
100
AcDbEntity
  8
PEF-L60A
100
AcDbLine
 10
274.7293129691206
 20
134.4344081308132
 30
0.0
 11
275.2293129691206
 21
134.9344081308132
 31
0.0
  0
LINE
  5
387
330
1E
100
AcDbEntity
  8
PEF-L60A
100
AcDbLine
 10
285.25
 20
99.04088402834659
 30
0.0
 11
285.25
 21
112.7626054730658
 31
0.0
  0
LINE
  5
388
330
1E
100
AcDbEntity
  8
PEF-L60A
100
AcDbLine
 10
325.2499999999999
 20
99.04088402834659
 30
0.0
 11
325.2499999999999
 21
112.7626054730658
 31
0.0
  0
LWPOLYLINE
  5
389
330
1E
100
AcDbEntity
  8
PEF-L60A
100
AcDbPolyline
 90
       11
 70
     0
 43
0.0
 10
313.0096795179404
 20
108.2422974903743
 42
0.019802441782954
 10
312.8539203871753
 20
107.9346929621122
 42
0.1076945388625955
 10
312.5
 20
106.310582854123
 42
0.1076945388626087
 10
312.8539203871754
 20
104.6864727461335
 42
0.1018390787589622
 10
313.8912427893638
 20
103.2700236950208
 42
0.0945222421427268
 10
315.4109980081826
 20
102.3440344280282
 42
0.0899278378053826
 10
317.2499999999998
 20
102.010582854123
 42
0.089927837805375
 10
319.0890019918173
 20
102.3440344280282
 42
0.0945222421427199
 10
320.6087572106361
 20
103.2700236950208
 42
0.1018390787589648
 10
321.6460796128245
 20
104.6864727461336
 42
0.107694538862586
 10
322.0
 20
106.310582854123
 42
0.1076945388625709
  0
LWPOLYLINE
  5
396
330
1E
100
AcDbEntity
  8
PEF-L60A
100
AcDbPolyline
 90
       11
 70
     0
 43
0.0
 10
289.0096795179406
 20
108.2422974903743
 42
0.019802441782954
 10
288.8539203871753
 20
107.9346929621122
 42
0.1076945388625955
 10
288.5
 20
106.310582854123
 42
0.1076945388626087
 10
288.8539203871754
 20
104.6864727461335
 42
0.1018390787589622
 10
289.8912427893638
 20
103.2700236950208
 42
0.0945222421427268
 10
291.4109980081826
 20
102.3440344280282
 42
0.0899278378053826
 10
293.25
 20
102.010582854123
 42
0.089927837805375
 10
295.0890019918173
 20
102.3440344280282
 42
0.0945222421427199
 10
296.608757210636
 20
103.2700236950208
 42
0.1018390787589648
 10
297.6460796128245
 20
104.6864727461336
 42
0.107694538862586
 10
298.0
 20
106.310582854123
 42
0.1076945388625709
  0
LINE
  5
3A3
330
1E
100
AcDbEntity
  8
PEF-L60A
100
AcDbLine
 10
284.75
 20
95.75000000000001
 30
0.0
 11
284.75
 21
111.7499999999999
 31
0.0
  0
LINE
  5
3A4
330
1E
100
AcDbEntity
  8
PEF-L60A
100
AcDbLine
 10
325.75
 20
95.75000000000001
 30
0.0
 11
325.75
 21
111.7499999999999
 31
0.0
  0
LINE
  5
3A5
330
1E
100
AcDbEntity
  8
PEF-L60A
  6
DASHED
100
AcDbLine
 10
339.7499999999999
 20
95.75000000000001
 30
0.0
 11
339.7499999999999
 21
111.7499999999999
 31
0.0
  0
LINE
  5
3A6
330
1E
100
AcDbEntity
  8
PEF-L60A
  6
DASHED
100
AcDbLine
 10
332.75
 20
95.75000000000001
 30
0.0
 11
332.75
 21
111.7499999999999
 31
0.0
  0
LINE
  5
3A7
330
1E
100
AcDbEntity
  8
PEF-L60A
  6
DASHED
100
AcDbLine
 10
277.7499999999999
 20
95.75000000000001
 30
0.0
 11
277.7499999999999
 21
111.7499999999999
 31
0.0
  0
LINE
  5
3A8
330
1E
100
AcDbEntity
  8
PEF-L60A
  6
CENTER
100
AcDbLine
 10
336.25
 20
90.5
 30
0.0
 11
336.25
 21
123.0
 31
0.0
  0
LINE
  5
3AB
330
1E
100
AcDbEntity
  8
PEF-L60A
100
AcDbLine
 10
285.25
 20
100.2055697313078
 30
0.0
 11
325.2499999999999
 21
100.2055697313078
 31
0.0
  0
LINE
  5
3AC
330
1E
100
AcDbEntity
  8
PEF-L60A
100
AcDbLine
 10
285.25
 20
99.04088402834659
 30
0.0
 11
325.2499999999999
 21
99.04088402834659
 31
0.0
  0
LINE
  5
3B6
330
1E
100
AcDbEntity
  8
PEF-L60A
100
AcDbLine
 10
282.75
 20
118.5
 30
0.0
 11
327.7499999999998
 21
118.5
 31
0.0
  0
LINE
  5
3B7
330
1E
100
AcDbEntity
  8
PEF-L60A
100
AcDbLine
 10
306.25
 20
144.6844081308131
 30
0.0
 11
329.2499999999999
 21
144.6844081308131
 31
0.0
  0
LINE
  5
3B8
330
1E
100
AcDbEntity
  8
PEF-L60A
100
AcDbLine
 10
285.25
 20
129.24584451998
 30
0.0
 11
325.2499999999999
 21
129.24584451998
 31
0.0
  0
LINE
  5
3B9
330
1E
100
AcDbEntity
  8
PEF-L60A
100
AcDbLine
 10
285.25
 20
128.0811588170185
 30
0.0
 11
325.2499999999999
 21
128.0811588170185
 31
0.0
  0
LINE
  5
3BA
330
1E
100
AcDbEntity
  8
PEF-L60A
100
AcDbLine
 10
285.25
 20
141.8028802617379
 30
0.0
 11
325.2499999999999
 21
141.8028802617379
 31
0.0
  0
LINE
  5
3BB
330
1E
100
AcDbEntity
  8
PEF-L60A
100
AcDbLine
 10
285.25
 20
112.7626054730658
 30
0.0
 11
325.2499999999999
 21
112.7626054730658
 31
0.0
  0
LINE
  5
3BC
330
1E
100
AcDbEntity
  8
PEF-L60A
100
AcDbLine
 10
279.7499999999999
 20
114.25
 30
0.0
 11
279.7499999999999
 21
139.25
 31
0.0
  0
LINE
  5
3BD
330
1E
100
AcDbEntity
  8
PEF-L60A
100
AcDbLine
 10
282.75
 20
120.75
 30
0.0
 11
282.75
 21
144.6844081308131
 31
0.0
  0
LINE
  5
3BE
330
1E
100
AcDbEntity
  8
PEF-L60A
100
AcDbLine
 10
285.25
 20
128.0811588170185
 30
0.0
 11
285.25
 21
112.7626054730658
 31
0.0
  0
LWPOLYLINE
  5
3BF
330
1E
100
AcDbEntity
  8
PEF-L60A
100
AcDbPolyline
 90
        2
 70
     0
 43
0.0
 10
292.0443276643668
 20
109.560582854123
 10
290.9829928960312
 20
107.7222971115262
  0
LWPOLYLINE
  5
3C3
330
1E
100
AcDbEntity
  8
PEF-L60A
100
AcDbPolyline
 90
       16
 70
     1
 43
0.0
 10
297.5
 20
107.9722971115262
 42
0.104020825828459
 10
297.1805628126812
 20
109.4911312888002
 42
0.1006123652532321
 10
296.2552038200428
 20
110.8007242362724
 42
0.096139623382753
 10
294.8882448531178
 20
111.6642542142899
 42
0.0931994967107656
 10
293.25
 20
111.9722971115262
 42
0.0931994967107656
 10
291.6117551468821
 20
111.6642542142899
 42
0.096139623382753
 10
290.2447961799571
 20
110.8007242362724
 42
0.1006123652532278
 10
289.3194371873186
 20
109.4911312888002
 42
0.1040208258284447
 10
289.0
 20
107.9722971115262
 42
0.1040208258284304
 10
289.3194371873186
 20
106.4534629342525
 42
0.1006123652532235
 10
290.2447961799571
 20
105.1438699867802
 42
0.0961396233827435
 10
291.6117551468821
 20
104.2803400087627
 42
0.0931994967107624
 10
293.25
 20
103.9722971115263
 42
0.0931994967107656
 10
294.8882448531178
 20
104.2803400087627
 42
0.0961396233827529
 10
296.2552038200428
 20
105.1438699867802
 42
0.1006123652532236
 10
297.1805628126813
 20
106.4534629342525
 42
0.1040208258284304
  0
LWPOLYLINE
  5
3D5
330
1E
100
AcDbEntity
  8
PEF-L60A
100
AcDbPolyline
 90
       16
 70
     1
 43
0.0
 10
297.0
 20
107.9722971115262
 42
0.1072180072854418
 10
296.720269491983
 20
109.2617951012433
 42
0.1016879673880965
 10
295.9016504294495
 20
110.384743398407
 42
0.094734003259449
 10
294.7010476490031
 20
111.1196729850401
 42
0.0903419477868422
 10
293.25
 20
111.3840113689297
 42
0.0903419477868361
 10
291.7989523509967
 20
111.1196729850401
 42
0.094734003259451
 10
290.5983495705504
 20
110.384743398407
 42
0.1016879673880965
 10
289.7797305080168
 20
109.2617951012433
 42
0.1072180072854418
 10
289.4999999999999
 20
107.9722971115262
 42
0.1072180072854348
 10
289.7797305080168
 20
106.6827991218092
 42
0.1016879673880782
 10
290.5983495705504
 20
105.5598508246455
 42
0.0947340032594423
 10
291.7989523509967
 20
104.8249212380126
 42
0.0903419477868266
 10
293.25
 20
104.5605828541229
 42
0.0903419477868266
 10
294.7010476490031
 20
104.8249212380126
 42
0.0947340032594423
 10
295.9016504294495
 20
105.5598508246455
 42
0.1016879673881086
 10
296.720269491983
 20
106.6827991218094
 42
0.1072180072854464
  0
LWPOLYLINE
  5
3E7
330
1E
100
AcDbEntity
  8
PEF-L60A
100
AcDbPolyline
 90
        6
 70
     1
 43
0.0
 10
292.0443276643668
 20
110.0605828541229
 10
290.8386553287338
 20
107.9722971115262
 10
292.0443276643668
 20
105.8840113689297
 10
294.4556723356329
 20
105.8840113689297
 10
295.6613446712659
 20
107.9722971115262
 10
294.4556723356329
 20
110.0605828541229
  0
LWPOLYLINE
  5
3EF
330
1E
100
AcDbEntity
  8
PEF-L60A
100
AcDbPolyline
 90
        9
 70
     0
 43
0.0
 10
289.0
 20
106.4722971115263
 42
0.1040208258284304
 10
289.3194371873186
 20
104.9534629342525
 42
0.1006123652532235
 10
290.2447961799571
 20
103.6438699867802
 42
0.0961396233827435
 10
291.6117551468821
 20
102.7803400087627
 42
0.0931994967107624
 10
293.25
 20
102.4722971115263
 42
0.0931994967107656
 10
294.8882448531178
 20
102.7803400087627
 42
0.0961396233827529
 10
296.2552038200428
 20
103.6438699867802
 42
0.1006123652532236
 10
297.1805628126813
 20
104.9534629342525
 42
0.1040208258284304
 10
297.5
 20
106.4722971115263
 42
0.104020825828459
  0
ARC
  5
3FA
330
1E
100
AcDbEntity
  8
PEF-L60A
100
AcDbCircle
 10
279.2499999999999
 20
113.7499999999999
 30
0.0
 40
2.0
100
AcDbArc
 50
270.0
 51
0.0
  0
ARC
  5
3FB
330
1E
100
AcDbEntity
  8
PEF-L60A
100
AcDbCircle
 10
278.75
 20
114.25
 30
0.0
 40
1.0
100
AcDbArc
 50
270.0
 51
0.0
  0
LINE
  5
3FC
330
1E
100
AcDbEntity
  8
PEF-L60A
100
AcDbLine
 10
278.5
 20
117.7499999999999
 30
0.0
 11
278.5
 21
113.25
 31
0.0
  0
LINE
  5
3FD
330
1E
100
AcDbEntity
  8
PEF-L60A
100
AcDbLine
 10
289.0
 20
106.4722971115263
 30
0.0
 11
289.0
 21
107.9722971115262
 31
0.0
  0
LINE
  5
3FE
330
1E
100
AcDbEntity
  8
PEF-L60A
100
AcDbLine
 10
281.25
 20
120.75
 30
0.0
 11
281.25
 21
113.7499999999999
 31
0.0
  0
LINE
  5
3FF
330
1E
100
AcDbEntity
  8
PEF-L60A
100
AcDbLine
 10
282.75
 20
120.75
 30
0.0
 11
282.75
 21
118.5
 31
0.0
  0
LINE
  5
400
330
1E
100
AcDbEntity
  8
PEF-L60A
100
AcDbLine
 10
278.0
 20
118.25
 30
0.0
 11
278.5
 21
117.7499999999999
 31
0.0
  0
LINE
  5
401
330
1E
100
AcDbEntity
  8
PEF-L60A
100
AcDbLine
 10
281.2499999999999
 20
120.75
 30
0.0
 11
282.75
 21
120.75
 31
0.0
  0
LINE
  5
402
330
1E
100
AcDbEntity
  8
PEF-L60A
100
AcDbLine
 10
297.5
 20
106.4722971115263
 30
0.0
 11
297.5
 21
107.9722971115262
 31
0.0
  0
LWPOLYLINE
  5
403
330
1E
100
AcDbEntity
  8
PEF-L60A
100
AcDbPolyline
 90
        3
 70
     0
 43
0.0
 10
298.0
 20
106.310582854123
 42
0.1076945388625709
 10
297.6460796128246
 20
107.9346929621121
 42
0.0198024417829663
 10
297.4903204820593
 20
108.2422974903744
 42
0.0945222421427184
  0
LWPOLYLINE
  5
408
330
1E
100
AcDbEntity
  8
PEF-L60A
100
AcDbPolyline
 90
        3
 70
     0
 43
0.0
 10
295.5170071039686
 20
107.7222971115262
 10
294.4556723356329
 20
109.560582854123
 10
292.0443276643668
 20
109.560582854123
  0
LINE
  5
40D
330
1E
100
AcDbEntity
  8
PEF-L60A
100
AcDbLine
 10
281.25
 20
144.6844081308131
 30
0.0
 11
304.2499999999999
 21
144.6844081308131
 31
0.0
  0
LWPOLYLINE
  5
40E
330
1E
100
AcDbEntity
  8
PEF-L60A
100
AcDbPolyline
 90
        9
 70
     0
 43
0.0
 10
289.0
 20
135.5125719001984
 42
0.1040208258284304
 10
289.3194371873186
 20
133.9937377229245
 42
0.1006123652532235
 10
290.2447961799571
 20
132.6841447754521
 42
0.0961396233827435
 10
291.6117551468821
 20
131.8206147974348
 42
0.0931994967107624
 10
293.25
 20
131.5125719001984
 42
0.0931994967107656
 10
294.8882448531178
 20
131.8206147974348
 42
0.0961396233827529
 10
296.2552038200428
 20
132.6841447754521
 42
0.1006123652532236
 10
297.1805628126813
 20
133.9937377229245
 42
0.1040208258284304
 10
297.5
 20
135.5125719001984
 42
0.104020825828459
  0
LWPOLYLINE
  5
419
330
1E
100
AcDbEntity
  8
PEF-L60A
100
AcDbPolyline
 90
       11
 70
     0
 43
0.0
 10
289.0096795179406
 20
137.2825722790464
 42
0.019802441782954
 10
288.8539203871753
 20
136.9749677507843
 42
0.1076945388625955
 10
288.5
 20
135.3508576427949
 42
0.1076945388626087
 10
288.8539203871754
 20
133.7267475348056
 42
0.1018390787589622
 10
289.8912427893638
 20
132.3102984836929
 42
0.0945222421427268
 10
291.4109980081826
 20
131.3843092167003
 42
0.0899278378053826
 10
293.25
 20
131.050857642795
 42
0.089927837805375
 10
295.0890019918173
 20
131.3843092167003
 42
0.0945222421427199
 10
296.608757210636
 20
132.3102984836929
 42
0.1018390787589648
 10
297.6460796128245
 20
133.7267475348057
 42
0.107694538862586
 10
298.0
 20
135.3508576427949
 42
0.1076945388625709
  0
LWPOLYLINE
  5
426
330
1E
100
AcDbEntity
  8
PEF-L60A
100
AcDbPolyline
 90
        6
 70
     1
 43
0.0
 10
292.0443276643668
 20
139.1008576427949
 10
290.8386553287338
 20
137.0125719001983
 10
292.0443276643668
 20
134.9242861576017
 10
294.4556723356329
 20
134.9242861576017
 10
295.6613446712659
 20
137.0125719001983
 10
294.4556723356329
 20
139.1008576427949
  0
LWPOLYLINE
  5
42E
330
1E
100
AcDbEntity
  8
PEF-L60A
100
AcDbPolyline
 90
       16
 70
     1
 43
0.0
 10
297.0
 20
137.0125719001983
 42
0.1072180072854418
 10
296.720269491983
 20
138.3020698899154
 42
0.1016879673880965
 10
295.9016504294495
 20
139.425018187079
 42
0.094734003259449
 10
294.7010476490031
 20
140.1599477737121
 42
0.0903419477868422
 10
293.25
 20
140.4242861576016
 42
0.0903419477868361
 10
291.7989523509967
 20
140.1599477737121
 42
0.094734003259451
 10
290.5983495705504
 20
139.425018187079
 42
0.1016879673880965
 10
289.7797305080168
 20
138.3020698899154
 42
0.1072180072854418
 10
289.4999999999999
 20
137.0125719001983
 42
0.1072180072854348
 10
289.7797305080168
 20
135.7230739104813
 42
0.1016879673880782
 10
290.5983495705504
 20
134.6001256133175
 42
0.0947340032594423
 10
291.7989523509967
 20
133.8651960266846
 42
0.0903419477868266
 10
293.25
 20
133.6008576427949
 42
0.0903419477868266
 10
294.7010476490031
 20
133.8651960266846
 42
0.0947340032594423
 10
295.9016504294495
 20
134.6001256133175
 42
0.1016879673881086
 10
296.720269491983
 20
135.7230739104815
 42
0.1072180072854464
  0
LWPOLYLINE
  5
440
330
1E
100
AcDbEntity
  8
PEF-L60A
100
AcDbPolyline
 90
       16
 70
     1
 43
0.0
 10
297.5
 20
137.0125719001983
 42
0.104020825828459
 10
297.1805628126812
 20
138.5314060774722
 42
0.1006123652532321
 10
296.2552038200428
 20
139.8409990249445
 42
0.096139623382753
 10
294.8882448531178
 20
140.7045290029618
 42
0.0931994967107656
 10
293.25
 20
141.0125719001984
 42
0.0931994967107656
 10
291.6117551468821
 20
140.7045290029618
 42
0.096139623382753
 10
290.2447961799571
 20
139.8409990249445
 42
0.1006123652532278
 10
289.3194371873186
 20
138.5314060774722
 42
0.1040208258284447
 10
289.0
 20
137.0125719001983
 42
0.1040208258284304
 10
289.3194371873186
 20
135.4937377229246
 42
0.1006123652532235
 10
290.2447961799571
 20
134.1841447754521
 42
0.0961396233827435
 10
291.6117551468821
 20
133.3206147974349
 42
0.0931994967107624
 10
293.25
 20
133.0125719001983
 42
0.0931994967107656
 10
294.8882448531178
 20
133.3206147974349
 42
0.0961396233827529
 10
296.2552038200428
 20
134.1841447754521
 42
0.1006123652532236
 10
297.1805628126813
 20
135.4937377229246
 42
0.1040208258284304
  0
LWPOLYLINE
  5
452
330
1E
100
AcDbEntity
  8
PEF-L60A
100
AcDbPolyline
 90
        2
 70
     0
 43
0.0
 10
292.0443276643668
 20
138.6008576427949
 10
290.9829928960312
 20
136.7625719001984
  0
LINE
  5
456
330
1E
100
AcDbEntity
  8
PEF-L60A
100
AcDbLine
 10
289.0
 20
135.5125719001984
 30
0.0
 11
289.0
 21
137.0125719001983
 31
0.0
  0
LINE
  5
457
330
1E
100
AcDbEntity
  8
PEF-L60A
100
AcDbLine
 10
285.25
 20
128.0811588170185
 30
0.0
 11
285.25
 21
141.8028802617379
 31
0.0
  0
LINE
  5
458
330
1E
100
AcDbEntity
  8
PEF-L60A
100
AcDbLine
 10
279.7499999999999
 20
139.25
 30
0.0
 11
281.25
 21
139.25
 31
0.0
  0
LWPOLYLINE
  5
459
330
1E
100
AcDbEntity
  8
PEF-L60A
100
AcDbPolyline
 90
        3
 70
     0
 43
0.0
 10
295.5170071039686
 20
136.7625719001984
 10
294.4556723356329
 20
138.6008576427949
 10
292.0443276643668
 20
138.6008576427949
  0
LWPOLYLINE
  5
45E
330
1E
100
AcDbEntity
  8
PEF-L60A
100
AcDbPolyline
 90
        3
 70
     0
 43
0.0
 10
298.0
 20
135.3508576427949
 42
0.1076945388625709
 10
297.6460796128246
 20
136.9749677507842
 42
0.0198024417829663
 10
297.4903204820593
 20
137.2825722790464
 42
0.0945222421427184
  0
LINE
  5
463
330
1E
100
AcDbEntity
  8
PEF-L60A
100
AcDbLine
 10
297.5
 20
135.5125719001984
 30
0.0
 11
297.5
 21
137.0125719001983
 31
0.0
  0
LINE
  5
464
330
1E
100
AcDbEntity
  8
PEF-L60A
100
AcDbLine
 10
330.75
 20
114.25
 30
0.0
 11
330.75
 21
139.25
 31
0.0
  0
LINE
  5
465
330
1E
100
AcDbEntity
  8
PEF-L60A
100
AcDbLine
 10
327.7499999999998
 20
120.75
 30
0.0
 11
327.7499999999998
 21
144.6844081308131
 31
0.0
  0
LINE
  5
466
330
1E
100
AcDbEntity
  8
PEF-L60A
100
AcDbLine
 10
325.2499999999999
 20
112.7626054730658
 30
0.0
 11
325.2499999999999
 21
128.0811588170185
 31
0.0
  0
LWPOLYLINE
  5
467
330
1E
100
AcDbEntity
  8
PEF-L60A
100
AcDbPolyline
 90
        9
 70
     0
 43
0.0
 10
313.0
 20
106.4722971115263
 42
0.1040208258284304
 10
313.3194371873186
 20
104.9534629342525
 42
0.1006123652532235
 10
314.2447961799571
 20
103.6438699867802
 42
0.0961396233827435
 10
315.611755146882
 20
102.7803400087627
 42
0.0931994967107624
 10
317.2499999999998
 20
102.4722971115263
 42
0.0931994967107656
 10
318.8882448531178
 20
102.7803400087627
 42
0.0961396233827529
 10
320.2552038200428
 20
103.6438699867802
 42
0.1006123652532236
 10
321.1805628126813
 20
104.9534629342525
 42
0.1040208258284304
 10
321.4999999999998
 20
106.4722971115263
 42
0.104020825828459
  0
LWPOLYLINE
  5
472
330
1E
100
AcDbEntity
  8
PEF-L60A
100
AcDbPolyline
 90
        3
 70
     0
 43
0.0
 10
319.5170071039687
 20
107.7222971115262
 10
318.455672335633
 20
109.560582854123
 10
316.0443276643668
 20
109.560582854123
  0
LWPOLYLINE
  5
477
330
1E
100
AcDbEntity
  8
PEF-L60A
100
AcDbPolyline
 90
        6
 70
     1
 43
0.0
 10
316.0443276643668
 20
110.0605828541229
 10
314.8386553287338
 20
107.9722971115262
 10
316.0443276643668
 20
105.8840113689297
 10
318.455672335633
 20
105.8840113689297
 10
319.6613446712659
 20
107.9722971115262
 10
318.455672335633
 20
110.0605828541229
  0
LWPOLYLINE
  5
47F
330
1E
100
AcDbEntity
  8
PEF-L60A
100
AcDbPolyline
 90
       16
 70
     1
 43
0.0
 10
321.0
 20
107.9722971115262
 42
0.1072180072854418
 10
320.720269491983
 20
109.2617951012433
 42
0.1016879673880965
 10
319.9016504294494
 20
110.384743398407
 42
0.094734003259449
 10
318.7010476490031
 20
111.1196729850401
 42
0.0903419477868422
 10
317.2499999999998
 20
111.3840113689297
 42
0.0903419477868361
 10
315.7989523509967
 20
111.1196729850401
 42
0.094734003259451
 10
314.5983495705503
 20
110.384743398407
 42
0.1016879673880965
 10
313.7797305080169
 20
109.2617951012433
 42
0.1072180072854418
 10
313.5
 20
107.9722971115262
 42
0.1072180072854348
 10
313.7797305080169
 20
106.6827991218092
 42
0.1016879673880782
 10
314.5983495705503
 20
105.5598508246455
 42
0.0947340032594423
 10
315.7989523509967
 20
104.8249212380126
 42
0.0903419477868266
 10
317.2499999999998
 20
104.5605828541229
 42
0.0903419477868266
 10
318.7010476490031
 20
104.8249212380126
 42
0.0947340032594423
 10
319.9016504294494
 20
105.5598508246455
 42
0.1016879673881086
 10
320.720269491983
 20
106.6827991218094
 42
0.1072180072854464
  0
LWPOLYLINE
  5
491
330
1E
100
AcDbEntity
  8
PEF-L60A
100
AcDbPolyline
 90
       16
 70
     1
 43
0.0
 10
321.4999999999998
 20
107.9722971115262
 42
0.104020825828459
 10
321.1805628126812
 20
109.4911312888002
 42
0.1006123652532321
 10
320.2552038200428
 20
110.8007242362724
 42
0.096139623382753
 10
318.8882448531178
 20
111.6642542142899
 42
0.0931994967107656
 10
317.2499999999998
 20
111.9722971115262
 42
0.0931994967107656
 10
315.6117551468821
 20
111.6642542142899
 42
0.096139623382753
 10
314.2447961799571
 20
110.8007242362724
 42
0.1006123652532278
 10
313.3194371873186
 20
109.4911312888002
 42
0.1040208258284447
 10
313.0
 20
107.9722971115262
 42
0.1040208258284304
 10
313.3194371873186
 20
106.4534629342525
 42
0.1006123652532235
 10
314.2447961799571
 20
105.1438699867802
 42
0.0961396233827435
 10
315.611755146882
 20
104.2803400087627
 42
0.0931994967107624
 10
317.2499999999998
 20
103.9722971115263
 42
0.0931994967107656
 10
318.8882448531178
 20
104.2803400087627
 42
0.0961396233827529
 10
320.2552038200428
 20
105.1438699867802
 42
0.1006123652532236
 10
321.1805628126813
 20
106.4534629342525
 42
0.1040208258284304
  0
LWPOLYLINE
  5
4A3
330
1E
100
AcDbEntity
  8
PEF-L60A
100
AcDbPolyline
 90
        2
 70
     0
 43
0.0
 10
316.0443276643668
 20
109.560582854123
 10
314.9829928960313
 20
107.7222971115262
  0
LINE
  5
4A7
330
1E
100
AcDbEntity
  8
PEF-L60A
100
AcDbLine
 10
313.0
 20
106.4722971115263
 30
0.0
 11
313.0
 21
107.9722971115262
 31
0.0
  0
LINE
  5
4A8
330
1E
100
AcDbEntity
  8
PEF-L60A
100
AcDbLine
 10
321.4999999999998
 20
106.4722971115263
 30
0.0
 11
321.4999999999998
 21
107.9722971115262
 31
0.0
  0
LWPOLYLINE
  5
4A9
330
1E
100
AcDbEntity
  8
PEF-L60A
100
AcDbPolyline
 90
        3
 70
     0
 43
0.0
 10
322.0
 20
106.310582854123
 42
0.1076945388625709
 10
321.6460796128246
 20
107.9346929621121
 42
0.0198024417829663
 10
321.4903204820593
 20
108.2422974903744
 42
0.0945222421427184
  0
LINE
  5
4AE
330
1E
100
AcDbEntity
  8
PEF-L60A
100
AcDbLine
 10
340.5
 20
113.25
 30
0.0
 11
340.5
 21
117.7499999999999
 31
0.0
  0
ARC
  5
4AF
330
1E
100
AcDbEntity
  8
PEF-L60A
100
AcDbCircle
 10
331.7499999999999
 20
114.25
 30
0.0
 40
1.0
100
AcDbArc
 50
180.0
 51
270.0
  0
ARC
  5
4B0
330
1E
100
AcDbEntity
  8
PEF-L60A
100
AcDbCircle
 10
331.25
 20
113.7499999999999
 30
0.0
 40
2.0
100
AcDbArc
 50
180.0
 51
270.0
  0
LINE
  5
4B1
330
1E
100
AcDbEntity
  8
PEF-L60A
100
AcDbLine
 10
332.0
 20
117.7499999999999
 30
0.0
 11
332.0
 21
113.25
 31
0.0
  0
LINE
  5
4B2
330
1E
100
AcDbEntity
  8
PEF-L60A
100
AcDbLine
 10
332.0
 20
117.7499999999999
 30
0.0
 11
340.5
 21
117.7499999999999
 31
0.0
  0
LINE
  5
4B3
330
1E
100
AcDbEntity
  8
PEF-L60A
100
AcDbLine
 10
340.0
 20
118.25
 30
0.0
 11
332.5
 21
118.25
 31
0.0
  0
LINE
  5
4B4
330
1E
100
AcDbEntity
  8
PEF-L60A
100
AcDbLine
 10
329.2499999999999
 20
120.75
 30
0.0
 11
329.2499999999999
 21
113.7499999999999
 31
0.0
  0
LINE
  5
4B5
330
1E
100
AcDbEntity
  8
PEF-L60A
100
AcDbLine
 10
327.7499999999998
 20
120.75
 30
0.0
 11
327.7499999999998
 21
118.5
 31
0.0
  0
LINE
  5
4B6
330
1E
100
AcDbEntity
  8
PEF-L60A
100
AcDbLine
 10
332.5
 20
118.25
 30
0.0
 11
332.0
 21
117.7499999999999
 31
0.0
  0
LINE
  5
4B7
330
1E
100
AcDbEntity
  8
PEF-L60A
100
AcDbLine
 10
327.7499999999998
 20
120.75
 30
0.0
 11
329.2499999999999
 21
120.75
 31
0.0
  0
LINE
  5
4B8
330
1E
100
AcDbEntity
  8
PEF-L60A
100
AcDbLine
 10
340.5
 20
117.7499999999999
 30
0.0
 11
340.0
 21
118.25
 31
0.0
  0
LWPOLYLINE
  5
4B9
330
1E
100
AcDbEntity
  8
PEF-L60A
100
AcDbPolyline
 90
        3
 70
     0
 43
0.0
 10
322.0
 20
135.3508576427949
 42
0.1076945388625709
 10
321.6460796128246
 20
136.9749677507842
 42
0.0198024417829663
 10
321.4903204820593
 20
137.2825722790464
 42
0.0945222421427184
  0
LINE
  5
4BE
330
1E
100
AcDbEntity
  8
PEF-L60A
100
AcDbLine
 10
321.4999999999998
 20
135.5125719001984
 30
0.0
 11
321.4999999999998
 21
137.0125719001983
 31
0.0
  0
LINE
  5
4BF
330
1E
100
AcDbEntity
  8
PEF-L60A
100
AcDbLine
 10
313.0
 20
135.5125719001984
 30
0.0
 11
313.0
 21
137.0125719001983
 31
0.0
  0
LWPOLYLINE
  5
4C0
330
1E
100
AcDbEntity
  8
PEF-L60A
100
AcDbPolyline
 90
        2
 70
     0
 43
0.0
 10
316.0443276643668
 20
138.6008576427949
 10
314.9829928960313
 20
136.7625719001984
  0
LWPOLYLINE
  5
4C4
330
1E
100
AcDbEntity
  8
PEF-L60A
100
AcDbPolyline
 90
       11
 70
     0
 43
0.0
 10
313.0096795179404
 20
137.2825722790464
 42
0.019802441782954
 10
312.8539203871753
 20
136.9749677507843
 42
0.1076945388625955
 10
312.5
 20
135.3508576427949
 42
0.1076945388626087
 10
312.8539203871754
 20
133.7267475348056
 42
0.1018390787589622
 10
313.8912427893638
 20
132.3102984836929
 42
0.0945222421427268
 10
315.4109980081826
 20
131.3843092167003
 42
0.0899278378053826
 10
317.2499999999998
 20
131.050857642795
 42
0.089927837805375
 10
319.0890019918173
 20
131.3843092167003
 42
0.0945222421427199
 10
320.6087572106361
 20
132.3102984836929
 42
0.1018390787589648
 10
321.6460796128245
 20
133.7267475348057
 42
0.107694538862586
 10
322.0
 20
135.3508576427949
 42
0.1076945388625709
  0
LWPOLYLINE
  5
4D1
330
1E
100
AcDbEntity
  8
PEF-L60A
100
AcDbPolyline
 90
       16
 70
     1
 43
0.0
 10
321.4999999999998
 20
137.0125719001983
 42
0.104020825828459
 10
321.1805628126812
 20
138.5314060774722
 42
0.1006123652532321
 10
320.2552038200428
 20
139.8409990249445
 42
0.096139623382753
 10
318.8882448531178
 20
140.7045290029618
 42
0.0931994967107656
 10
317.2499999999998
 20
141.0125719001984
 42
0.0931994967107656
 10
315.6117551468821
 20
140.7045290029618
 42
0.096139623382753
 10
314.2447961799571
 20
139.8409990249445
 42
0.1006123652532278
 10
313.3194371873186
 20
138.5314060774722
 42
0.1040208258284447
 10
313.0
 20
137.0125719001983
 42
0.1040208258284304
 10
313.3194371873186
 20
135.4937377229246
 42
0.1006123652532235
 10
314.2447961799571
 20
134.1841447754521
 42
0.0961396233827435
 10
315.611755146882
 20
133.3206147974349
 42
0.0931994967107624
 10
317.2499999999998
 20
133.0125719001983
 42
0.0931994967107656
 10
318.8882448531178
 20
133.3206147974349
 42
0.0961396233827529
 10
320.2552038200428
 20
134.1841447754521
 42
0.1006123652532236
 10
321.1805628126813
 20
135.4937377229246
 42
0.1040208258284304
  0
LWPOLYLINE
  5
4E3
330
1E
100
AcDbEntity
  8
PEF-L60A
100
AcDbPolyline
 90
       16
 70
     1
 43
0.0
 10
321.0
 20
137.0125719001983
 42
0.1072180072854418
 10
320.720269491983
 20
138.3020698899154
 42
0.1016879673880965
 10
319.9016504294494
 20
139.425018187079
 42
0.094734003259449
 10
318.7010476490031
 20
140.1599477737121
 42
0.0903419477868422
 10
317.2499999999998
 20
140.4242861576016
 42
0.0903419477868361
 10
315.7989523509967
 20
140.1599477737121
 42
0.094734003259451
 10
314.5983495705503
 20
139.425018187079
 42
0.1016879673880965
 10
313.7797305080169
 20
138.3020698899154
 42
0.1072180072854418
 10
313.5
 20
137.0125719001983
 42
0.1072180072854348
 10
313.7797305080169
 20
135.7230739104813
 42
0.1016879673880782
 10
314.5983495705503
 20
134.6001256133175
 42
0.0947340032594423
 10
315.7989523509967
 20
133.8651960266846
 42
0.0903419477868266
 10
317.2499999999998
 20
133.6008576427949
 42
0.0903419477868266
 10
318.7010476490031
 20
133.8651960266846
 42
0.0947340032594423
 10
319.9016504294494
 20
134.6001256133175
 42
0.1016879673881086
 10
320.720269491983
 20
135.7230739104815
 42
0.1072180072854464
  0
LWPOLYLINE
  5
4F5
330
1E
100
AcDbEntity
  8
PEF-L60A
100
AcDbPolyline
 90
        6
 70
     1
 43
0.0
 10
316.0443276643668
 20
139.1008576427949
 10
314.8386553287338
 20
137.0125719001983
 10
316.0443276643668
 20
134.9242861576017
 10
318.455672335633
 20
134.9242861576017
 10
319.6613446712659
 20
137.0125719001983
 10
318.455672335633
 20
139.1008576427949
  0
LWPOLYLINE
  5
4FD
330
1E
100
AcDbEntity
  8
PEF-L60A
100
AcDbPolyline
 90
        3
 70
     0
 43
0.0
 10
319.5170071039687
 20
136.7625719001984
 10
318.455672335633
 20
138.6008576427949
 10
316.0443276643668
 20
138.6008576427949
  0
LWPOLYLINE
  5
502
330
1E
100
AcDbEntity
  8
PEF-L60A
100
AcDbPolyline
 90
        9
 70
     0
 43
0.0
 10
313.0
 20
135.5125719001984
 42
0.1040208258284304
 10
313.3194371873186
 20
133.9937377229245
 42
0.1006123652532235
 10
314.2447961799571
 20
132.6841447754521
 42
0.0961396233827435
 10
315.611755146882
 20
131.8206147974348
 42
0.0931994967107624
 10
317.2499999999998
 20
131.5125719001984
 42
0.0931994967107656
 10
318.8882448531178
 20
131.8206147974348
 42
0.0961396233827529
 10
320.2552038200428
 20
132.6841447754521
 42
0.1006123652532236
 10
321.1805628126813
 20
133.9937377229245
 42
0.1040208258284304
 10
321.4999999999998
 20
135.5125719001984
 42
0.104020825828459
  0
LINE
  5
50D
330
1E
100
AcDbEntity
  8
PEF-L60A
100
AcDbLine
 10
325.2499999999999
 20
128.0811588170185
 30
0.0
 11
325.2499999999999
 21
141.8028802617379
 31
0.0
  0
LINE
  5
50E
330
1E
100
AcDbEntity
  8
PEF-L60A
  6
CENTER
100
AcDbLine
 10
326.75
 20
130.6844081308132
 30
0.0
 11
339.7499999999999
 21
130.6844081308132
 31
0.0
  0
LINE
  5
50F
330
1E
100
AcDbEntity
  8
PEF-L60A
100
AcDbLine
 10
330.7706870308793
 20
126.4344081308131
 30
0.0
 11
335.2706870308793
 21
126.4344081308131
 31
0.0
  0
LINE
  5
510
330
1E
100
AcDbEntity
  8
PEF-L60A
100
AcDbLine
 10
335.2706870308793
 20
134.9344081308132
 30
0.0
 11
330.7706870308793
 21
134.9344081308132
 31
0.0
  0
LINE
  5
511
330
1E
100
AcDbEntity
  8
PEF-L60A
100
AcDbLine
 10
335.7706870308793
 20
126.9344081308132
 30
0.0
 11
335.7706870308793
 21
134.4344081308132
 31
0.0
  0
LINE
  5
512
330
1E
100
AcDbEntity
  8
PEF-L60A
100
AcDbLine
 10
335.2706870308793
 20
134.9344081308132
 30
0.0
 11
335.2706870308793
 21
126.4344081308131
 31
0.0
  0
LINE
  5
513
330
1E
100
AcDbEntity
  8
PEF-L60A
100
AcDbLine
 10
335.2706870308793
 20
126.4344081308131
 30
0.0
 11
335.7706870308793
 21
126.9344081308132
 31
0.0
  0
LINE
  5
514
330
1E
100
AcDbEntity
  8
PEF-L60A
100
AcDbLine
 10
335.7706870308793
 20
134.4344081308132
 30
0.0
 11
335.2706870308793
 21
134.9344081308132
 31
0.0
  0
LINE
  5
515
330
1E
100
AcDbEntity
  8
PEF-L60A
100
AcDbLine
 10
330.75
 20
139.25
 30
0.0
 11
329.2499999999999
 21
139.25
 31
0.0
  0
TEXT
  5
516
330
1E
100
AcDbEntity
  8
PEF-L60A
100
AcDbText
 10
222.75
 20
207.5
 30
0.0
 40
3.0
  1
PEF-L60A
100
AcDbText
  0
LINE
  5
518
330
1E
100
AcDbEntity
  8
PEF-L60A
100
AcDbLine
 10
342.75
 20
95.75000000000001
 30
0.0
 11
342.75
 21
111.7499999999999
 31
0.0
  0
LINE
  5
51A
330
1E
100
AcDbEntity
  8
PEF-L60A
100
AcDbLine
 10
342.75
 20
111.7499999999999
 30
0.0
 11
342.75
 21
113.25
 31
0.0
  0
ARC
  5
527
330
1E
100
AcDbEntity
  8
PEF-L60A
100
AcDbCircle
 10
329.2499999999999
 20
194.6844081308131
 30
0.0
 40
2.0
100
AcDbArc
 50
0.0
 51
90.0
  0
ARC
  5
528
330
1E
100
AcDbEntity
  8
PEF-L60A
100
AcDbCircle
 10
281.25
 20
194.6844081308131
 30
0.0
 40
2.0
100
AcDbArc
 50
90.0
 51
180.0
  0
LINE
  5
529
330
1E
100
AcDbEntity
  8
PEF-L60A
100
AcDbLine
 10
325.2499999999999
 20
200.1449868771849
 30
0.0
 11
325.2499999999999
 21
188.2083475416542
 31
0.0
  0
LINE
  5
52A
330
1E
100
AcDbEntity
  8
PEF-L60A
100
AcDbLine
 10
285.25
 20
200.1449868771849
 30
0.0
 11
285.25
 21
188.2083475416541
 31
0.0
  0
LINE
  5
52B
330
1E
100
AcDbEntity
  8
PEF-L60A
100
AcDbLine
 10
327.7499999999998
 20
173.6621829194851
 30
0.0
 11
327.7499999999998
 21
210.6844081308131
 31
0.0
  0
LINE
  5
52C
330
1E
100
AcDbEntity
  8
PEF-L60A
100
AcDbLine
 10
282.75
 20
173.6621829194851
 30
0.0
 11
282.75
 21
210.6844081308131
 31
0.0
  0
LINE
  5
52D
330
1E
100
AcDbEntity
  8
PEF-L60A
100
AcDbLine
 10
285.25
 20
174.4866260969348
 30
0.0
 11
325.2499999999999
 21
174.4866260969348
 31
0.0
  0
LINE
  5
52E
330
1E
100
AcDbEntity
  8
PEF-L60A
100
AcDbLine
 10
285.25
 20
188.2083475416541
 30
0.0
 11
325.2499999999999
 21
188.2083475416542
 31
0.0
  0
LINE
  5
52F
330
1E
100
AcDbEntity
  8
PEF-L60A
100
AcDbLine
 10
285.25
 20
175.6513117998963
 30
0.0
 11
325.2499999999999
 21
175.6513117998963
 31
0.0
  0
LINE
  5
530
330
1E
100
AcDbEntity
  8
PEF-L60A
100
AcDbLine
 10
306.25
 20
173.6621829194851
 30
0.0
 11
329.2499999999999
 21
173.6621829194851
 31
0.0
  0
LWPOLYLINE
  5
531
330
1E
100
AcDbEntity
  8
PEF-L60A
100
AcDbPolyline
 90
        2
 70
     0
 43
0.0
 10
292.0443276643668
 20
185.0063249227114
 10
290.9829928960312
 20
183.1680391801146
  0
LWPOLYLINE
  5
535
330
1E
100
AcDbEntity
  8
PEF-L60A
100
AcDbPolyline
 90
       16
 70
     1
 43
0.0
 10
297.5
 20
183.4180391801146
 42
0.104020825828459
 10
297.1805628126812
 20
184.9368733573886
 42
0.1006123652532321
 10
296.2552038200428
 20
186.2464663048609
 42
0.096139623382753
 10
294.8882448531178
 20
187.1099962828782
 42
0.0931994967107656
 10
293.25
 20
187.4180391801146
 42
0.0931994967107656
 10
291.6117551468821
 20
187.1099962828782
 42
0.096139623382753
 10
290.2447961799571
 20
186.2464663048609
 42
0.1006123652532278
 10
289.3194371873186
 20
184.9368733573884
 42
0.1040208258284447
 10
289.0
 20
183.4180391801146
 42
0.1040208258284304
 10
289.3194371873186
 20
181.8992050028409
 42
0.1006123652532235
 10
290.2447961799571
 20
180.5896120553684
 42
0.0961396233827435
 10
291.6117551468821
 20
179.7260820773511
 42
0.0931994967107624
 10
293.25
 20
179.4180391801146
 42
0.0931994967107656
 10
294.8882448531178
 20
179.7260820773511
 42
0.0961396233827529
 10
296.2552038200428
 20
180.5896120553684
 42
0.1006123652532236
 10
297.1805628126813
 20
181.8992050028409
 42
0.1040208258284304
  0
LWPOLYLINE
  5
547
330
1E
100
AcDbEntity
  8
PEF-L60A
100
AcDbPolyline
 90
       16
 70
     1
 43
0.0
 10
297.0
 20
183.4180391801146
 42
0.1072180072854418
 10
296.720269491983
 20
184.7075371698315
 42
0.1016879673880965
 10
295.9016504294495
 20
185.8304854669953
 42
0.094734003259449
 10
294.7010476490031
 20
186.5654150536283
 42
0.0903419477868422
 10
293.25
 20
186.829753437518
 42
0.0903419477868361
 10
291.7989523509967
 20
186.5654150536283
 42
0.094734003259451
 10
290.5983495705504
 20
185.8304854669953
 42
0.1016879673880965
 10
289.7797305080168
 20
184.7075371698315
 42
0.1072180072854418
 10
289.4999999999999
 20
183.4180391801146
 42
0.1072180072854348
 10
289.7797305080168
 20
182.1285411903976
 42
0.1016879673880782
 10
290.5983495705504
 20
181.0055928932339
 42
0.0947340032594423
 10
291.7989523509967
 20
180.2706633066009
 42
0.0903419477868266
 10
293.25
 20
180.0063249227114
 42
0.0903419477868266
 10
294.7010476490031
 20
180.2706633066009
 42
0.0947340032594423
 10
295.9016504294495
 20
181.0055928932339
 42
0.1016879673881086
 10
296.720269491983
 20
182.1285411903977
 42
0.1072180072854464
  0
LWPOLYLINE
  5
559
330
1E
100
AcDbEntity
  8
PEF-L60A
100
AcDbPolyline
 90
        6
 70
     1
 43
0.0
 10
292.0443276643668
 20
185.5063249227112
 10
290.8386553287338
 20
183.4180391801146
 10
292.0443276643668
 20
181.329753437518
 10
294.4556723356329
 20
181.329753437518
 10
295.6613446712659
 20
183.4180391801146
 10
294.4556723356329
 20
185.5063249227112
  0
LWPOLYLINE
  5
561
330
1E
100
AcDbEntity
  8
PEF-L60A
100
AcDbPolyline
 90
        9
 70
     0
 43
0.0
 10
289.0
 20
181.9180391801146
 42
0.1040208258284304
 10
289.3194371873186
 20
180.399205002841
 42
0.1006123652532235
 10
290.2447961799571
 20
179.0896120553684
 42
0.0961396233827435
 10
291.6117551468821
 20
178.2260820773511
 42
0.0931994967107624
 10
293.25
 20
177.9180391801146
 42
0.0931994967107656
 10
294.8882448531178
 20
178.2260820773511
 42
0.0961396233827529
 10
296.2552038200428
 20
179.0896120553684
 42
0.1006123652532236
 10
297.1805628126813
 20
180.399205002841
 42
0.1040208258284304
 10
297.5
 20
181.9180391801146
 42
0.104020825828459
  0
LWPOLYLINE
  5
56C
330
1E
100
AcDbEntity
  8
PEF-L60A
100
AcDbPolyline
 90
       11
 70
     0
 43
0.0
 10
289.0096795179406
 20
183.6880395589626
 42
0.019802441782954
 10
288.8539203871753
 20
183.3804350307006
 42
0.1076945388625955
 10
288.5
 20
181.7563249227114
 42
0.1076945388626087
 10
288.8539203871754
 20
180.1322148147219
 42
0.1018390787589622
 10
289.8912427893638
 20
178.7157657636091
 42
0.0945222421427268
 10
291.4109980081826
 20
177.7897764966166
 42
0.0899278378053826
 10
293.25
 20
177.4563249227113
 42
0.089927837805375
 10
295.0890019918173
 20
177.7897764966166
 42
0.0945222421427199
 10
296.608757210636
 20
178.7157657636091
 42
0.1018390787589648
 10
297.6460796128245
 20
180.1322148147221
 42
0.107694538862586
 10
298.0
 20
181.7563249227114
 42
0.1076945388625709
  0
LINE
  5
579
330
1E
100
AcDbEntity
  8
PEF-L60A
100
AcDbLine
 10
281.25
 20
173.6621829194851
 30
0.0
 11
304.2499999999999
 21
173.6621829194851
 31
0.0
  0
LINE
  5
57A
330
1E
100
AcDbEntity
  8
PEF-L60A
100
AcDbLine
 10
279.2499999999999
 20
182.6844081308131
 30
0.0
 11
279.2499999999999
 21
194.6844081308131
 31
0.0
  0
LINE
  5
57B
330
1E
100
AcDbEntity
  8
PEF-L60A
100
AcDbLine
 10
284.5
 20
173.6513117998963
 30
0.0
 11
284.5
 21
188.2083475416542
 31
0.0
  0
LINE
  5
57C
330
1E
100
AcDbEntity
  8
PEF-L60A
100
AcDbLine
 10
289.0
 20
181.9180391801146
 30
0.0
 11
289.0
 21
183.4180391801146
 31
0.0
  0
LINE
  5
57D
330
1E
100
AcDbEntity
  8
PEF-L60A
100
AcDbLine
 10
285.25
 20
175.6513117998963
 30
0.0
 11
285.25
 21
188.2083475416541
 31
0.0
  0
ARC
  5
57E
330
1E
100
AcDbEntity
  8
PEF-L60A
100
AcDbCircle
 10
281.25
 20
182.6844081308131
 30
0.0
 40
2.0
100
AcDbArc
 50
180.0
 51
270.0
  0
LINE
  5
57F
330
1E
100
AcDbEntity
  8
PEF-L60A
100
AcDbLine
 10
285.25
 20
175.6513117998963
 30
0.0
 11
285.25
 21
173.6621829194851
 31
0.0
  0
ARC
  5
580
330
1E
100
AcDbEntity
  8
PEF-L60A
100
AcDbCircle
 10
285.5
 20
188.2083475416542
 30
0.0
 40
1.0
100
AcDbArc
 50
104.4775121859329
 51
180.0
  0
LINE
  5
581
330
1E
100
AcDbEntity
  8
PEF-L60A
100
AcDbLine
 10
297.5
 20
181.9180391801146
 30
0.0
 11
297.5
 21
183.4180391801146
 31
0.0
  0
LWPOLYLINE
  5
582
330
1E
100
AcDbEntity
  8
PEF-L60A
100
AcDbPolyline
 90
        3
 70
     0
 43
0.0
 10
298.0
 20
181.7563249227114
 42
0.1076945388625709
 10
297.6460796128246
 20
183.3804350307006
 42
0.0198024417829663
 10
297.4903204820593
 20
183.6880395589626
 42
0.0945222421427184
  0
LWPOLYLINE
  5
587
330
1E
100
AcDbEntity
  8
PEF-L60A
100
AcDbPolyline
 90
        3
 70
     0
 43
0.0
 10
295.5170071039686
 20
183.1680391801146
 10
294.4556723356329
 20
185.0063249227114
 10
292.0443276643668
 20
185.0063249227114
  0
LINE
  5
58C
330
1E
100
AcDbEntity
  8
PEF-L60A
100
AcDbLine
 10
321.4999999999998
 20
181.9180391801146
 30
0.0
 11
321.4999999999998
 21
183.4180391801146
 31
0.0
  0
LWPOLYLINE
  5
58D
330
1E
100
AcDbEntity
  8
PEF-L60A
100
AcDbPolyline
 90
        3
 70
     0
 43
0.0
 10
322.0
 20
181.7563249227114
 42
0.1076945388625709
 10
321.6460796128246
 20
183.3804350307006
 42
0.0198024417829663
 10
321.4903204820593
 20
183.6880395589626
 42
0.0945222421427184
  0
LWPOLYLINE
  5
592
330
1E
100
AcDbEntity
  8
PEF-L60A
100
AcDbPolyline
 90
        2
 70
     0
 43
0.0
 10
316.0443276643668
 20
185.0063249227114
 10
314.9829928960313
 20
183.1680391801146
  0
LINE
  5
596
330
1E
100
AcDbEntity
  8
PEF-L60A
100
AcDbLine
 10
313.0
 20
181.9180391801146
 30
0.0
 11
313.0
 21
183.4180391801146
 31
0.0
  0
LWPOLYLINE
  5
597
330
1E
100
AcDbEntity
  8
PEF-L60A
100
AcDbPolyline
 90
        3
 70
     0
 43
0.0
 10
319.5170071039687
 20
183.1680391801146
 10
318.455672335633
 20
185.0063249227114
 10
316.0443276643668
 20
185.0063249227114
  0
LWPOLYLINE
  5
59C
330
1E
100
AcDbEntity
  8
PEF-L60A
100
AcDbPolyline
 90
        6
 70
     1
 43
0.0
 10
316.0443276643668
 20
185.5063249227112
 10
314.8386553287338
 20
183.4180391801146
 10
316.0443276643668
 20
181.329753437518
 10
318.455672335633
 20
181.329753437518
 10
319.6613446712659
 20
183.4180391801146
 10
318.455672335633
 20
185.5063249227112
  0
LWPOLYLINE
  5
5A4
330
1E
100
AcDbEntity
  8
PEF-L60A
100
AcDbPolyline
 90
       16
 70
     1
 43
0.0
 10
321.0
 20
183.4180391801146
 42
0.1072180072854418
 10
320.720269491983
 20
184.7075371698315
 42
0.1016879673880965
 10
319.9016504294494
 20
185.8304854669953
 42
0.094734003259449
 10
318.7010476490031
 20
186.5654150536283
 42
0.0903419477868422
 10
317.2499999999998
 20
186.829753437518
 42
0.0903419477868361
 10
315.7989523509967
 20
186.5654150536283
 42
0.094734003259451
 10
314.5983495705503
 20
185.8304854669953
 42
0.1016879673880965
 10
313.7797305080169
 20
184.7075371698315
 42
0.1072180072854418
 10
313.5
 20
183.4180391801146
 42
0.1072180072854348
 10
313.7797305080169
 20
182.1285411903976
 42
0.1016879673880782
 10
314.5983495705503
 20
181.0055928932339
 42
0.0947340032594423
 10
315.7989523509967
 20
180.2706633066009
 42
0.0903419477868266
 10
317.2499999999998
 20
180.0063249227114
 42
0.0903419477868266
 10
318.7010476490031
 20
180.2706633066009
 42
0.0947340032594423
 10
319.9016504294494
 20
181.0055928932339
 42
0.1016879673881086
 10
320.720269491983
 20
182.1285411903977
 42
0.1072180072854464
  0
LWPOLYLINE
  5
5B6
330
1E
100
AcDbEntity
  8
PEF-L60A
100
AcDbPolyline
 90
       16
 70
     1
 43
0.0
 10
321.4999999999998
 20
183.4180391801146
 42
0.104020825828459
 10
321.1805628126812
 20
184.9368733573886
 42
0.1006123652532321
 10
320.2552038200428
 20
186.2464663048609
 42
0.096139623382753
 10
318.8882448531178
 20
187.1099962828782
 42
0.0931994967107656
 10
317.2499999999998
 20
187.4180391801146
 42
0.0931994967107656
 10
315.6117551468821
 20
187.1099962828782
 42
0.096139623382753
 10
314.2447961799571
 20
186.2464663048609
 42
0.1006123652532278
 10
313.3194371873186
 20
184.9368733573884
 42
0.1040208258284447
 10
313.0
 20
183.4180391801146
 42
0.1040208258284304
 10
313.3194371873186
 20
181.8992050028409
 42
0.1006123652532235
 10
314.2447961799571
 20
180.5896120553684
 42
0.0961396233827435
 10
315.611755146882
 20
179.7260820773511
 42
0.0931994967107624
 10
317.2499999999998
 20
179.4180391801146
 42
0.0931994967107656
 10
318.8882448531178
 20
179.7260820773511
 42
0.0961396233827529
 10
320.2552038200428
 20
180.5896120553684
 42
0.1006123652532236
 10
321.1805628126813
 20
181.8992050028409
 42
0.1040208258284304
  0
LWPOLYLINE
  5
5C8
330
1E
100
AcDbEntity
  8
PEF-L60A
100
AcDbPolyline
 90
       11
 70
     0
 43
0.0
 10
313.0096795179404
 20
183.6880395589626
 42
0.019802441782954
 10
312.8539203871753
 20
183.3804350307006
 42
0.1076945388625955
 10
312.5
 20
181.7563249227114
 42
0.1076945388626087
 10
312.8539203871754
 20
180.1322148147219
 42
0.1018390787589622
 10
313.8912427893638
 20
178.7157657636091
 42
0.0945222421427268
 10
315.4109980081826
 20
177.7897764966166
 42
0.0899278378053826
 10
317.2499999999998
 20
177.4563249227113
 42
0.089927837805375
 10
319.0890019918173
 20
177.7897764966166
 42
0.0945222421427199
 10
320.6087572106361
 20
178.7157657636091
 42
0.1018390787589648
 10
321.6460796128245
 20
180.1322148147221
 42
0.107694538862586
 10
322.0
 20
181.7563249227114
 42
0.1076945388625709
  0
LWPOLYLINE
  5
5D5
330
1E
100
AcDbEntity
  8
PEF-L60A
100
AcDbPolyline
 90
        9
 70
     0
 43
0.0
 10
313.0
 20
181.9180391801146
 42
0.1040208258284304
 10
313.3194371873186
 20
180.399205002841
 42
0.1006123652532235
 10
314.2447961799571
 20
179.0896120553684
 42
0.0961396233827435
 10
315.611755146882
 20
178.2260820773511
 42
0.0931994967107624
 10
317.2499999999998
 20
177.9180391801146
 42
0.0931994967107656
 10
318.8882448531178
 20
178.2260820773511
 42
0.0961396233827529
 10
320.2552038200428
 20
179.0896120553684
 42
0.1006123652532236
 10
321.1805628126813
 20
180.399205002841
 42
0.1040208258284304
 10
321.4999999999998
 20
181.9180391801146
 42
0.104020825828459
  0
LINE
  5
5E0
330
1E
100
AcDbEntity
  8
PEF-L60A
100
AcDbLine
 10
331.25
 20
182.6844081308131
 30
0.0
 11
331.25
 21
194.6844081308131
 31
0.0
  0
LINE
  5
5E1
330
1E
100
AcDbEntity
  8
PEF-L60A
100
AcDbLine
 10
325.9999999999998
 20
173.6513117998963
 30
0.0
 11
325.9999999999998
 21
188.2083475416542
 31
0.0
  0
LINE
  5
5E2
330
1E
100
AcDbEntity
  8
PEF-L60A
100
AcDbLine
 10
325.2499999999999
 20
175.6513117998963
 30
0.0
 11
325.2499999999999
 21
188.2083475416541
 31
0.0
  0
LINE
  5
5E3
330
1E
100
AcDbEntity
  8
PEF-L60A
100
AcDbLine
 10
325.2499999999999
 20
175.6513117998963
 30
0.0
 11
325.2499999999999
 21
173.6621829194851
 31
0.0
  0
ARC
  5
5E4
330
1E
100
AcDbEntity
  8
PEF-L60A
100
AcDbCircle
 10
329.2499999999999
 20
182.6844081308131
 30
0.0
 40
2.0
100
AcDbArc
 50
270.0
 51
0.0
  0
ARC
  5
5E5
330
1E
100
AcDbEntity
  8
PEF-L60A
100
AcDbCircle
 10
324.9999999999999
 20
188.2083475416542
 30
0.0
 40
1.0
100
AcDbArc
 50
0.0
 51
75.52248781406698
  0
LINE
  5
5E7
330
1E
100
AcDbEntity
  8
PEF-L60A
100
AcDbLine
 10
285.25
 20
198.9803011742236
 30
0.0
 11
325.2499999999999
 21
198.9803011742235
 31
0.0
  0
LINE
  5
5E8
330
1E
100
AcDbEntity
  8
PEF-L60A
100
AcDbLine
 10
285.25
 20
200.1449868771849
 30
0.0
 11
325.2499999999999
 21
200.1449868771849
 31
0.0
  0
LINE
  5
5E9
330
1E
100
AcDbEntity
  8
PEF-L60A
100
AcDbLine
 10
285.25
 20
212.7020226189427
 30
0.0
 11
325.2499999999999
 21
212.7020226189427
 31
0.0
  0
LINE
  5
5EA
330
1E
100
AcDbEntity
  8
PEF-L60A
100
AcDbLine
 10
283.75
 20
214.5
 30
0.0
 11
326.75
 21
214.5
 31
0.0
  0
LWPOLYLINE
  5
5EC
330
1E
100
AcDbEntity
  8
PEF-L60A
100
AcDbPolyline
 90
       11
 70
     0
 43
0.0
 10
289.0096795179406
 20
208.1817146362512
 42
0.019802441782954
 10
288.8539203871753
 20
207.8741101079893
 42
0.1076945388625955
 10
288.5
 20
206.25
 42
0.1076945388626087
 10
288.8539203871754
 20
204.6258898920104
 42
0.1018390787589622
 10
289.8912427893638
 20
203.2094408408978
 42
0.0945222421427268
 10
291.4109980081826
 20
202.2834515739052
 42
0.0899278378053826
 10
293.25
 20
201.9499999999999
 42
0.089927837805375
 10
295.0890019918173
 20
202.2834515739052
 42
0.0945222421427199
 10
296.608757210636
 20
203.2094408408978
 42
0.1018390787589648
 10
297.6460796128245
 20
204.6258898920107
 42
0.107694538862586
 10
298.0
 20
206.25
 42
0.1076945388625709
  0
LWPOLYLINE
  5
5F9
330
1E
100
AcDbEntity
  8
PEF-L60A
100
AcDbPolyline
 90
        9
 70
     0
 43
0.0
 10
289.0
 20
206.4117142574033
 42
0.1040208258284304
 10
289.3194371873186
 20
204.8928800801295
 42
0.1006123652532235
 10
290.2447961799571
 20
203.583287132657
 42
0.0961396233827435
 10
291.6117551468821
 20
202.7197571546397
 42
0.0931994967107624
 10
293.25
 20
202.4117142574032
 42
0.0931994967107656
 10
294.8882448531178
 20
202.7197571546397
 42
0.0961396233827529
 10
296.2552038200428
 20
203.583287132657
 42
0.1006123652532236
 10
297.1805628126813
 20
204.8928800801295
 42
0.1040208258284304
 10
297.5
 20
206.4117142574033
 42
0.104020825828459
  0
LWPOLYLINE
  5
604
330
1E
100
AcDbEntity
  8
PEF-L60A
100
AcDbPolyline
 90
        2
 70
     0
 43
0.0
 10
292.0443276643668
 20
209.5
 10
290.9829928960312
 20
207.6617142574033
  0
LWPOLYLINE
  5
608
330
1E
100
AcDbEntity
  8
PEF-L60A
100
AcDbPolyline
 90
        6
 70
     1
 43
0.0
 10
292.0443276643668
 20
210.0
 10
290.8386553287338
 20
207.9117142574033
 10
292.0443276643668
 20
205.8234285148066
 10
294.4556723356329
 20
205.8234285148066
 10
295.6613446712659
 20
207.9117142574033
 10
294.4556723356329
 20
210.0
  0
LWPOLYLINE
  5
610
330
1E
100
AcDbEntity
  8
PEF-L60A
100
AcDbPolyline
 90
       16
 70
     1
 43
0.0
 10
297.0
 20
207.9117142574033
 42
0.1072180072854418
 10
296.720269491983
 20
209.2012122471201
 42
0.1016879673880965
 10
295.9016504294495
 20
210.324160544284
 42
0.094734003259449
 10
294.7010476490031
 20
211.059090130917
 42
0.0903419477868422
 10
293.25
 20
211.3234285148066
 42
0.0903419477868361
 10
291.7989523509967
 20
211.0590901309171
 42
0.094734003259451
 10
290.5983495705504
 20
210.324160544284
 42
0.1016879673880965
 10
289.7797305080168
 20
209.2012122471201
 42
0.1072180072854418
 10
289.4999999999999
 20
207.9117142574033
 42
0.1072180072854348
 10
289.7797305080168
 20
206.6222162676862
 42
0.1016879673880782
 10
290.5983495705504
 20
205.4992679705225
 42
0.0947340032594423
 10
291.7989523509967
 20
204.7643383838895
 42
0.0903419477868266
 10
293.25
 20
204.4999999999999
 42
0.0903419477868266
 10
294.7010476490031
 20
204.7643383838895
 42
0.0947340032594423
 10
295.9016504294495
 20
205.4992679705225
 42
0.1016879673881086
 10
296.720269491983
 20
206.6222162676864
 42
0.1072180072854464
  0
LWPOLYLINE
  5
622
330
1E
100
AcDbEntity
  8
PEF-L60A
100
AcDbPolyline
 90
       16
 70
     1
 43
0.0
 10
297.5
 20
207.9117142574033
 42
0.104020825828459
 10
297.1805628126812
 20
209.4305484346771
 42
0.1006123652532321
 10
296.2552038200428
 20
210.7401413821495
 42
0.096139623382753
 10
294.8882448531178
 20
211.6036713601668
 42
0.0931994967107656
 10
293.25
 20
211.9117142574033
 42
0.0931994967107656
 10
291.6117551468821
 20
211.6036713601668
 42
0.096139623382753
 10
290.2447961799571
 20
210.7401413821495
 42
0.1006123652532278
 10
289.3194371873186
 20
209.430548434677
 42
0.1040208258284447
 10
289.0
 20
207.9117142574033
 42
0.1040208258284304
 10
289.3194371873186
 20
206.3928800801295
 42
0.1006123652532235
 10
290.2447961799571
 20
205.0832871326571
 42
0.0961396233827435
 10
291.6117551468821
 20
204.2197571546398
 42
0.0931994967107624
 10
293.25
 20
203.9117142574033
 42
0.0931994967107656
 10
294.8882448531178
 20
204.2197571546398
 42
0.0961396233827529
 10
296.2552038200428
 20
205.0832871326571
 42
0.1006123652532236
 10
297.1805628126813
 20
206.3928800801295
 42
0.1040208258284304
  0
LINE
  5
634
330
1E
100
AcDbEntity
  8
PEF-L60A
100
AcDbLine
 10
285.25
 20
200.1449868771849
 30
0.0
 11
285.25
 21
212.7020226189427
 31
0.0
  0
LINE
  5
635
330
1E
100
AcDbEntity
  8
PEF-L60A
100
AcDbLine
 10
289.0
 20
206.4117142574033
 30
0.0
 11
289.0
 21
207.9117142574033
 31
0.0
  0
LINE
  5
636
330
1E
100
AcDbEntity
  8
PEF-L60A
100
AcDbLine
 10
283.75
 20
214.5
 30
0.0
 11
283.75
 21
196.5
 31
0.0
  0
LINE
  5
637
330
1E
100
AcDbEntity
  8
PEF-L60A
100
AcDbLine
 10
283.75
 20
196.5
 30
0.0
 11
285.25
 21
196.5
 31
0.0
  0
LINE
  5
638
330
1E
100
AcDbEntity
  8
PEF-L60A
100
AcDbLine
 10
281.25
 20
210.6844081308131
 30
0.0
 11
282.75
 21
210.6844081308131
 31
0.0
  0
LWPOLYLINE
  5
639
330
1E
100
AcDbEntity
  8
PEF-L60A
100
AcDbPolyline
 90
        3
 70
     0
 43
0.0
 10
298.0
 20
206.25
 42
0.1076945388625709
 10
297.6460796128246
 20
207.8741101079891
 42
0.0198024417829663
 10
297.4903204820593
 20
208.1817146362514
 42
0.0945222421427184
  0
LINE
  5
63E
330
1E
100
AcDbEntity
  8
PEF-L60A
100
AcDbLine
 10
297.5
 20
206.4117142574033
 30
0.0
 11
297.5
 21
207.9117142574033
 31
0.0
  0
LWPOLYLINE
  5
63F
330
1E
100
AcDbEntity
  8
PEF-L60A
100
AcDbPolyline
 90
        3
 70
     0
 43
0.0
 10
295.5170071039686
 20
207.6617142574033
 10
294.4556723356329
 20
209.5
 10
292.0443276643668
 20
209.5
  0
LWPOLYLINE
  5
647
330
1E
100
AcDbEntity
  8
PEF-L60A
100
AcDbPolyline
 90
       11
 70
     0
 43
0.0
 10
313.0096795179404
 20
208.1817146362512
 42
0.019802441782954
 10
312.8539203871753
 20
207.8741101079893
 42
0.1076945388625955
 10
312.5
 20
206.25
 42
0.1076945388626087
 10
312.8539203871754
 20
204.6258898920104
 42
0.1018390787589622
 10
313.8912427893638
 20
203.2094408408978
 42
0.0945222421427268
 10
315.4109980081826
 20
202.2834515739052
 42
0.0899278378053826
 10
317.2499999999998
 20
201.9499999999999
 42
0.089927837805375
 10
319.0890019918173
 20
202.2834515739052
 42
0.0945222421427199
 10
320.6087572106361
 20
203.2094408408978
 42
0.1018390787589648
 10
321.6460796128245
 20
204.6258898920107
 42
0.107694538862586
 10
322.0
 20
206.25
 42
0.1076945388625709
  0
LINE
  5
654
330
1E
100
AcDbEntity
  8
PEF-L60A
100
AcDbLine
 10
321.4999999999998
 20
206.4117142574033
 30
0.0
 11
321.4999999999998
 21
207.9117142574033
 31
0.0
  0
LWPOLYLINE
  5
655
330
1E
100
AcDbEntity
  8
PEF-L60A
100
AcDbPolyline
 90
        3
 70
     0
 43
0.0
 10
322.0
 20
206.25
 42
0.1076945388625709
 10
321.6460796128246
 20
207.8741101079891
 42
0.0198024417829663
 10
321.4903204820593
 20
208.1817146362514
 42
0.0945222421427184
  0
LINE
  5
65A
330
1E
100
AcDbEntity
  8
PEF-L60A
100
AcDbLine
 10
313.0
 20
206.4117142574033
 30
0.0
 11
313.0
 21
207.9117142574033
 31
0.0
  0
LWPOLYLINE
  5
65B
330
1E
100
AcDbEntity
  8
PEF-L60A
100
AcDbPolyline
 90
       16
 70
     1
 43
0.0
 10
321.4999999999998
 20
207.9117142574033
 42
0.104020825828459
 10
321.1805628126812
 20
209.4305484346771
 42
0.1006123652532321
 10
320.2552038200428
 20
210.7401413821495
 42
0.096139623382753
 10
318.8882448531178
 20
211.6036713601668
 42
0.0931994967107656
 10
317.2499999999998
 20
211.9117142574033
 42
0.0931994967107656
 10
315.6117551468821
 20
211.6036713601668
 42
0.096139623382753
 10
314.2447961799571
 20
210.7401413821495
 42
0.1006123652532278
 10
313.3194371873186
 20
209.430548434677
 42
0.1040208258284447
 10
313.0
 20
207.9117142574033
 42
0.1040208258284304
 10
313.3194371873186
 20
206.3928800801295
 42
0.1006123652532235
 10
314.2447961799571
 20
205.0832871326571
 42
0.0961396233827435
 10
315.611755146882
 20
204.2197571546398
 42
0.0931994967107624
 10
317.2499999999998
 20
203.9117142574033
 42
0.0931994967107656
 10
318.8882448531178
 20
204.2197571546398
 42
0.0961396233827529
 10
320.2552038200428
 20
205.0832871326571
 42
0.1006123652532236
 10
321.1805628126813
 20
206.3928800801295
 42
0.1040208258284304
  0
LWPOLYLINE
  5
66D
330
1E
100
AcDbEntity
  8
PEF-L60A
100
AcDbPolyline
 90
       16
 70
     1
 43
0.0
 10
321.0
 20
207.9117142574033
 42
0.1072180072854418
 10
320.720269491983
 20
209.2012122471201
 42
0.1016879673880965
 10
319.9016504294494
 20
210.324160544284
 42
0.094734003259449
 10
318.7010476490031
 20
211.059090130917
 42
0.0903419477868422
 10
317.2499999999998
 20
211.3234285148066
 42
0.0903419477868361
 10
315.7989523509967
 20
211.0590901309171
 42
0.094734003259451
 10
314.5983495705503
 20
210.324160544284
 42
0.1016879673880965
 10
313.7797305080169
 20
209.2012122471201
 42
0.1072180072854418
 10
313.5
 20
207.9117142574033
 42
0.1072180072854348
 10
313.7797305080169
 20
206.6222162676862
 42
0.1016879673880782
 10
314.5983495705503
 20
205.4992679705225
 42
0.0947340032594423
 10
315.7989523509967
 20
204.7643383838895
 42
0.0903419477868266
 10
317.2499999999998
 20
204.4999999999999
 42
0.0903419477868266
 10
318.7010476490031
 20
204.7643383838895
 42
0.0947340032594423
 10
319.9016504294494
 20
205.4992679705225
 42
0.1016879673881086
 10
320.720269491983
 20
206.6222162676864
 42
0.1072180072854464
  0
LWPOLYLINE
  5
67F
330
1E
100
AcDbEntity
  8
PEF-L60A
100
AcDbPolyline
 90
        6
 70
     1
 43
0.0
 10
316.0443276643668
 20
210.0
 10
314.8386553287338
 20
207.9117142574033
 10
316.0443276643668
 20
205.8234285148066
 10
318.455672335633
 20
205.8234285148066
 10
319.6613446712659
 20
207.9117142574033
 10
318.455672335633
 20
210.0
  0
LWPOLYLINE
  5
687
330
1E
100
AcDbEntity
  8
PEF-L60A
100
AcDbPolyline
 90
        9
 70
     0
 43
0.0
 10
313.0
 20
206.4117142574033
 42
0.1040208258284304
 10
313.3194371873186
 20
204.8928800801295
 42
0.1006123652532235
 10
314.2447961799571
 20
203.583287132657
 42
0.0961396233827435
 10
315.611755146882
 20
202.7197571546397
 42
0.0931994967107624
 10
317.2499999999998
 20
202.4117142574032
 42
0.0931994967107656
 10
318.8882448531178
 20
202.7197571546397
 42
0.0961396233827529
 10
320.2552038200428
 20
203.583287132657
 42
0.1006123652532236
 10
321.1805628126813
 20
204.8928800801295
 42
0.1040208258284304
 10
321.4999999999998
 20
206.4117142574033
 42
0.104020825828459
  0
LWPOLYLINE
  5
692
330
1E
100
AcDbEntity
  8
PEF-L60A
100
AcDbPolyline
 90
        3
 70
     0
 43
0.0
 10
319.5170071039687
 20
207.6617142574033
 10
318.455672335633
 20
209.5
 10
316.0443276643668
 20
209.5
  0
LWPOLYLINE
  5
697
330
1E
100
AcDbEntity
  8
PEF-L60A
100
AcDbPolyline
 90
        2
 70
     0
 43
0.0
 10
316.0443276643668
 20
209.5
 10
314.9829928960313
 20
207.6617142574033
  0
LINE
  5
69B
330
1E
100
AcDbEntity
  8
PEF-L60A
100
AcDbLine
 10
325.2499999999999
 20
200.1449868771849
 30
0.0
 11
325.2499999999999
 21
212.7020226189427
 31
0.0
  0
LINE
  5
69C
330
1E
100
AcDbEntity
  8
PEF-L60A
100
AcDbLine
 10
326.75
 20
214.5
 30
0.0
 11
326.75
 21
196.5
 31
0.0
  0
LINE
  5
69D
330
1E
100
AcDbEntity
  8
PEF-L60A
100
AcDbLine
 10
325.2499999999999
 20
196.5
 30
0.0
 11
326.75
 21
196.5
 31
0.0
  0
LINE
  5
69E
330
1E
100
AcDbEntity
  8
PEF-L60A
100
AcDbLine
 10
327.7499999999998
 20
210.6844081308131
 30
0.0
 11
329.2499999999999
 21
210.6844081308131
 31
0.0
  0
LINE
  5
6A0
330
1E
100
AcDbEntity
  8
PEF-L60A
100
AcDbLine
 10
214.25
 20
104.2501472713438
 30
0.0
 11
215.5164083565709
 21
99.52384694149117
 31
0.0
  0
LINE
  5
6A1
330
1E
100
AcDbEntity
  8
PEF-L60A
100
AcDbLine
 10
211.619254809758
 20
111.7499999999999
 30
0.0
 11
208.5566893445145
 21
123.1796499177949
 31
0.0
  0
LINE
  5
6A5
330
1E
100
AcDbEntity
  8
PEF-L60A
  6
DASHED
100
AcDbLine
 10
212.2811702927894
 20
111.5979197701044
 30
0.0
 11
212.8487414375863
 21
111.7499999999999
 31
0.0
  0
LINE
  5
6A6
330
1E
100
AcDbEntity
  8
PEF-L60A
  6
CENTER
100
AcDbLine
 10
54.99381916985595
 20
175.5230671721305
 30
0.0
 11
63.89617796087077
 21
177.908447020915
 31
0.0
  0
LINE
  5
6A7
330
1E
100
AcDbEntity
  8
PEF-L60A
100
AcDbLine
 10
331.25
 20
191.5
 30
0.0
 11
341.215043731332
 21
188.8593216716446
 31
0.0
  0
LINE
  5
6A8
330
1E
100
AcDbEntity
  8
PEF-L60A
100
AcDbLine
 10
344.4785628658433
 20
186.0971616951444
 30
0.0
 11
354.4501312095193
 21
163.8833188407308
 31
0.0
  0
LINE
  5
6A9
330
1E
100
AcDbEntity
  8
PEF-L60A
100
AcDbLine
 10
355.75
 20
159.9169540264054
 30
0.0
 11
356.4999999999998
 21
151.75
 31
0.0
  0
LINE
  5
6AA
330
1E
100
AcDbEntity
  8
PEF-L60A
100
AcDbLine
 10
331.25
 20
186.5
 30
0.0
 11
338.3184920071941
 21
184.6317354647482
 31
0.0
  0
LINE
  5
6AB
330
1E
100
AcDbEntity
  8
PEF-L60A
100
AcDbLine
 10
341.5820111417055
 20
181.8695754882478
 30
0.0
 11
349.9225187078863
 21
163.2335088927165
 31
0.0
  0
LINE
  5
6AC
330
1E
100
AcDbEntity
  8
PEF-L60A
100
AcDbLine
 10
350.75
 20
160.3169540264056
 30
0.0
 11
351.5
 21
151.75
 31
0.0
  0
ARC
  5
6AD
330
1E
100
AcDbEntity
  8
PEF-L60A
100
AcDbCircle
 10
345.75
 20
160.3169540264056
 30
0.0
 40
5.0
100
AcDbArc
 50
0.0
 51
24.4439547804144
  0
ARC
  5
6AE
330
1E
100
AcDbEntity
  8
PEF-L60A
100
AcDbCircle
 10
350.75
 20
159.9169540264054
 30
0.0
 40
5.0
100
AcDbArc
 50
0.0
 51
24.44395478041442
  0
ARC
  5
6AF
330
1E
100
AcDbEntity
  8
PEF-L60A
100
AcDbCircle
 10
339.9267304785303
 20
184.0281469736384
 30
0.0
 40
5.0
100
AcDbArc
 50
24.44395478041472
 51
75.06858282186221
  0
ARC
  5
6B0
330
1E
100
AcDbEntity
  8
PEF-L60A
100
AcDbCircle
 10
337.0301787543926
 20
179.8005607667419
 30
0.0
 40
5.0
100
AcDbArc
 50
24.44395478041467
 51
75.06858282186283
  0
LINE
  5
6B1
330
1E
100
AcDbEntity
  8
PEF-L60A
100
AcDbLine
 10
356.4999999999998
 20
151.75
 30
0.0
 11
351.5
 21
151.75
 31
0.0
  0
LINE
  5
6B2
330
1E
100
AcDbEntity
  8
PEF-L60A
100
AcDbLine
 10
347.9627205277006
 20
139.106276000586
 30
0.0
 11
346.9642435061158
 21
133.4436314207659
 31
0.0
  0
LINE
  5
6B3
330
1E
100
AcDbEntity
  8
PEF-L60A
100
AcDbLine
 10
346.9642435061158
 20
133.4436314207659
 30
0.0
 11
348.4414551356341
 21
133.1831591542655
 31
0.0
  0
LINE
  5
6B4
330
1E
100
AcDbEntity
  8
PEF-L60A
100
AcDbLine
 10
352.3806861476828
 20
132.4885664435977
 30
0.0
 11
353.3791631692678
 21
138.151211023418
 31
0.0
  0
LINE
  5
6B5
330
1E
100
AcDbEntity
  8
PEF-L60A
100
AcDbLine
 10
352.5680035939225
 20
139.3096669540971
 30
0.0
 11
349.1211764583798
 21
139.9174355759314
 31
0.0
  0
LINE
  5
6B6
330
1E
100
AcDbEntity
  8
PEF-L60A
100
AcDbLine
 10
349.1211764583798
 20
139.9174355759314
 30
0.0
 11
349.9894173467144
 21
144.8414743409925
 31
0.0
  0
LINE
  5
6B7
330
1E
100
AcDbEntity
  8
PEF-L60A
100
AcDbLine
 10
352.5680035939225
 20
139.3096669540971
 30
0.0
 11
353.4362444822571
 21
144.2337057191581
 31
0.0
  0
ARC
  5
6B8
330
1E
100
AcDbEntity
  8
PEF-L60A
100
AcDbCircle
 10
350.3236454931503
 20
136.6591280059777
 30
0.0
 40
1.25
100
AcDbArc
 50
350.0
 51
170.0
  0
LINE
  5
6B9
330
1E
100
AcDbEntity
  8
PEF-L60A
100
AcDbLine
 10
350.9034745181646
 20
132.7490387100981
 30
0.0
 11
351.5546551844156
 21
136.442067783894
 31
0.0
  0
LINE
  5
6BA
330
1E
100
AcDbEntity
  8
PEF-L60A
100
AcDbLine
 10
349.0926358018849
 20
136.8761882280612
 30
0.0
 11
348.4414551356341
 21
133.1831591542655
 31
0.0
  0
LINE
  5
6BB
330
1E
100
AcDbEntity
  8
PEF-L60A
100
AcDbLine
 10
350.9034745181646
 20
132.7490387100981
 30
0.0
 11
352.3806861476828
 21
132.4885664435977
 31
0.0
  0
ARC
  5
6BC
330
1E
100
AcDbEntity
  8
PEF-L60A
100
AcDbCircle
 10
352.3943554162555
 20
138.3248592010849
 30
0.0
 40
1.0
100
AcDbArc
 50
350.0
 51
80.00000000000001
  0
ARC
  5
6BD
330
1E
100
AcDbEntity
  8
PEF-L60A
100
AcDbCircle
 10
348.9475282807128
 20
138.9326278229191
 30
0.0
 40
1.0
100
AcDbArc
 50
80.00000000000001
 51
170.0
  0
LINE
  5
6BE
330
1E
100
AcDbEntity
  8
PEF-L60A
100
AcDbLine
 10
353.4362444822571
 20
144.2337057191581
 30
0.0
 11
349.9894173467144
 21
144.8414743409925
 31
0.0
  0
LINE
  5
6BF
330
1E
100
AcDbEntity
  8
PEF-L60A
100
AcDbLine
 10
358.8788235416202
 20
139.9174355759314
 30
0.0
 11
355.4319964060774
 21
139.3096669540971
 31
0.0
  0
ARC
  5
6C0
330
1E
100
AcDbEntity
  8
PEF-L60A
100
AcDbCircle
 10
357.6763545068495
 20
136.6591280059777
 30
0.0
 40
1.25
100
AcDbArc
 50
9.999999999999998
 51
190.0
  0
LINE
  5
6C1
330
1E
100
AcDbEntity
  8
PEF-L60A
100
AcDbLine
 10
358.0105826532855
 20
144.8414743409925
 30
0.0
 11
354.5637555177428
 21
144.2337057191581
 31
0.0
  0
ARC
  5
6C2
330
1E
100
AcDbEntity
  8
PEF-L60A
100
AcDbCircle
 10
355.6056445837443
 20
138.3248592010849
 30
0.0
 40
1.0
100
AcDbArc
 50
100.0
 51
190.0
  0
LINE
  5
6C3
330
1E
100
AcDbEntity
  8
PEF-L60A
100
AcDbLine
 10
355.6193138523169
 20
132.4885664435977
 30
0.0
 11
357.0965254818353
 21
132.7490387100981
 31
0.0
  0
LINE
  5
6C4
330
1E
100
AcDbEntity
  8
PEF-L60A
100
AcDbLine
 10
354.6208368307322
 20
138.151211023418
 30
0.0
 11
355.6193138523169
 21
132.4885664435977
 31
0.0
  0
LINE
  5
6C5
330
1E
100
AcDbEntity
  8
PEF-L60A
100
AcDbLine
 10
356.4453448155843
 20
136.442067783894
 30
0.0
 11
357.0965254818353
 21
132.7490387100981
 31
0.0
  0
LINE
  5
6C6
330
1E
100
AcDbEntity
  8
PEF-L60A
100
AcDbLine
 10
355.4319964060774
 20
139.3096669540971
 30
0.0
 11
354.5637555177428
 21
144.2337057191581
 31
0.0
  0
ARC
  5
6C7
330
1E
100
AcDbEntity
  8
PEF-L60A
100
AcDbCircle
 10
359.0524717192871
 20
138.9326278229191
 30
0.0
 40
1.0
100
AcDbArc
 50
9.999999999999998
 51
100.0
  0
LINE
  5
6C8
330
1E
100
AcDbEntity
  8
PEF-L60A
100
AcDbLine
 10
359.5585448643658
 20
133.1831591542655
 30
0.0
 11
361.0357564938841
 21
133.443631420766
 31
0.0
  0
LINE
  5
6C9
330
1E
100
AcDbEntity
  8
PEF-L60A
100
AcDbLine
 10
361.0357564938841
 20
133.443631420766
 30
0.0
 11
360.0372794722993
 21
139.106276000586
 31
0.0
  0
LINE
  5
6CA
330
1E
100
AcDbEntity
  8
PEF-L60A
100
AcDbLine
 10
359.5585448643658
 20
133.1831591542655
 30
0.0
 11
358.9073641981148
 21
136.8761882280612
 31
0.0
  0
LINE
  5
6CB
330
1E
100
AcDbEntity
  8
PEF-L60A
100
AcDbLine
 10
358.8788235416202
 20
139.9174355759314
 30
0.0
 11
358.0105826532855
 21
144.8414743409925
 31
0.0
  0
LINE
  5
6CC
330
1E
100
AcDbEntity
  8
PEF-L60A
100
AcDbLine
 10
355.3023613325019
 20
144.3639418524083
 30
0.0
 11
354.0
 21
151.75
 31
0.0
  0
LINE
  5
6CD
330
1E
100
AcDbEntity
  8
PEF-L60A
100
AcDbLine
 10
357.2719768385263
 20
144.7112382077421
 30
0.0
 11
356.0308532237713
 21
151.75
 31
0.0
  0
LINE
  5
6CE
330
1E
100
AcDbEntity
  8
PEF-L60A
100
AcDbLine
 10
352.6976386674978
 20
144.3639418524083
 30
0.0
 11
354.0
 21
151.75
 31
0.0
  0
LINE
  5
6CF
330
1E
100
AcDbEntity
  8
PEF-L60A
100
AcDbLine
 10
350.7280231614736
 20
144.7112382077421
 30
0.0
 11
351.9691467762285
 21
151.75
 31
0.0
  0
LINE
  5
6D0
330
1E
100
AcDbEntity
  8
PEF-L60A
100
AcDbLine
 10
354.7370342314373
 20
163.2441797982365
 30
0.0
 11
355.301832387313
 21
161.9859687479113
 31
0.0
  0
LINE
  5
6D1
330
1E
100
AcDbEntity
  8
PEF-L60A
100
AcDbLine
 10
350.2507310169633
 20
162.5001498733888
 30
0.0
 11
350.3018323873128
 21
162.3859687479115
 31
0.0
  0
LWPOLYLINE
  5
6D2
330
1E
100
AcDbEntity
  8
PEF-L60A
100
AcDbPolyline
 90
        4
 70
     0
 43
0.0
 10
354.4501312095193
 20
163.8833188407308
 42
-0.0313256145375937
 10
353.25
 20
163.4999999999999
 42
-0.0726213652438701
 10
350.3567484022688
 20
163.2052132521806
 42
-0.0108103953333583
 10
349.9225187078863
 20
163.2335088927165
  0
LWPOLYLINE
  5
6D8
330
1E
100
AcDbEntity
  8
PEF-L60A
100
AcDbPolyline
 90
        4
 70
     0
 43
0.0
 10
354.7370342314373
 20
163.2441797982365
 42
-0.0364218803765091
 10
353.346746609029
 20
162.784475832126
 42
-0.0726213652438707
 10
350.4534950112976
 20
162.4896890843066
 42
-0.004731234818147
 10
350.2507310169633
 20
162.5001498733888
  0
LINE
  5
6E3
330
1E
100
AcDbEntity
  8
PEF-L60A
  6
CENTER
100
AcDbLine
 10
305.25
 20
90.75000000000001
 30
0.0
 11
305.25
 21
219.2499999999999
 31
0.0
  0
LINE
  5
A08
330
1E
100
AcDbEntity
  8
PEF-L60A
100
AcDbLine
 10
62.00706094925303
 20
210.1634254293055
 30
0.0
 11
60.84507929511811
 21
214.5
 31
0.0
  0
ENDSEC
  0
SECTION
  2
OBJECTS
  0
DICTIONARY
  5
C
330
0
100
AcDbDictionary
  3
ACAD_GROUP
350
D
  3
ACAD_LAYOUT
350
19
  3
ACAD_MLINESTYLE
350
16
  3
ACAD_PLOTSETTINGS
350
18
  3
ACAD_PLOTSTYLENAME
350
E
  3
DWGPROPS
350
9DA
  3
ACDBHEADERROUNDTRIPXREC
350
A0D
  0
DICTIONARY
  5
9FF
330
1E
100
AcDbDictionary
280
     1
  3
ACAD_LAYOUTSELFREF
360
A2E
  0
DICTIONARY
  5
9FD
330
1A
100
AcDbDictionary
280
     1
  3
ACAD_LAYOUTSELFREF
360
A2D
  0
DICTIONARY
  5
D
102
{ACAD_REACTORS
330
C
102
}
330
C
100
AcDbDictionary
  0
DICTIONARY
  5
19
102
{ACAD_REACTORS
330
C
102
}
330
C
100
AcDbDictionary
  0
DICTIONARY
  5
16
102
{ACAD_REACTORS
330
C
102
}
330
C
100
AcDbDictionary
  3
STANDARD
350
17
  0
DICTIONARY
  5
18
102
{ACAD_REACTORS
330
C
102
}
330
C
100
AcDbDictionary
  0
ACDBDICTIONARYWDFLT
  5
E
102
{ACAD_REACTORS
330
C
102
}
330
C
100
AcDbDictionary
281
     1
  3
Normal
350
F
100
AcDbDictionaryWithDefault
340
F
  0
XRECORD
  5
9DA
102
{ACAD_REACTORS
330
C
102
}
330
C
100
AcDbXrecord
  1
DWGPROPS COOKIE
  2

  3

  4

  6

  7

  8
한신
  9

300
=
301
=
302
=
303
=
304
=
305
=
306
=
307
=
308
=
309
=
 40
0.0314238425925926
 41
2450389.679906364
 42
2451814.65451794
  1

 90
        0
  0
DICTIONARY
  5
A0D
102
{ACAD_REACTORS
330
C
102
}
330
C
100
AcDbDictionary
  3
TSTACKALIGN
350
A0E
  3
TSTACKSIZE
350
A0F
  3
HYPERLINKBASE
350
A10
  3
STYLESHEET
350
A11
  3
LAYOUTDICT
350
A12
  3
PLOTSETDICT
350
A13
  3
PLOTSTYLNAMDICT
350
A14
  3
LWETCUNION
350
A15
  3
INSUNITS
350
A16
  3
CEPSNTYPE
350
A17
  3
FINGERPRINTGUID
350
A18
  3
VERSIONGUID
350
A19
  3
PSVPSCALE
350
A1A
  3
PUCSORTHOREF
350
A1B
  3
PUCSORTHOVIEW
350
A1C
  3
PUCSBASE
350
A1D
  3
PUCSORGTOP
350
A1E
  3
PUCSORGBOTTOM
350
A1F
  3
PUCSORGLEFT
350
A20
  3
PUCSORGRIGHT
350
A21
  3
PUCSORGFRONT
350
A22
  3
PUCSORGBACK
350
A23
  3
UCSORTHOREF
350
A24
  3
UCSORTHOVIEW
350
A25
  3
UCSBASE
350
A26
  3
UCSORGTOP
350
A27
  3
UCSORGBOTTOM
350
A28
  3
UCSORGLEFT
350
A29
  3
UCSORGRIGHT
350
A2A
  3
UCSORGFRONT
350
A2B
  3
UCSORGBACK
350
A2C
  0
XRECORD
  5
A2E
102
{ACAD_REACTORS
330
9FF
102
}
330
9FF
100
AcDbXrecord
340
1E
  0
XRECORD
  5
A2D
102
{ACAD_REACTORS
330
9FD
102
}
330
9FD
100
AcDbXrecord
340
1A
  0
MLINESTYLE
  5
17
102
{ACAD_REACTORS
330
16
102
}
330
16
100
AcDbMlineStyle
  2
STANDARD
 70
     0
  3

 62
   256
 51
90.0
 52
90.0
 71
     2
 49
0.5
 62
   256
  6
BYLAYER
 49
-0.5
 62
   256
  6
BYLAYER
  0
ACDBPLACEHOLDER
  5
F
102
{ACAD_REACTORS
330
E
102
}
330
E
100
AcDbPlaceHolder
280
     0
  0
XRECORD
  5
A0E
102
{ACAD_REACTORS
330
A0D
102
}
330
A0D
100
AcDbXrecord
 90
        1
  0
XRECORD
  5
A0F
102
{ACAD_REACTORS
330
A0D
102
}
330
A0D
100
AcDbXrecord
 90
       70
  0
XRECORD
  5
A10
102
{ACAD_REACTORS
330
A0D
102
}
330
A0D
100
AcDbXrecord
  1

  0
XRECORD
  5
A11
102
{ACAD_REACTORS
330
A0D
102
}
330
A0D
100
AcDbXrecord
  1

  0
XRECORD
  5
A12
102
{ACAD_REACTORS
330
A0D
102
}
330
A0D
100
AcDbXrecord
340
19
  0
XRECORD
  5
A13
102
{ACAD_REACTORS
330
A0D
102
}
330
A0D
100
AcDbXrecord
340
18
  0
XRECORD
  5
A14
102
{ACAD_REACTORS
330
A0D
102
}
330
A0D
100
AcDbXrecord
340
E
  0
XRECORD
  5
A15
102
{ACAD_REACTORS
330
A0D
102
}
330
A0D
100
AcDbXrecord
 90
    14877
  0
XRECORD
  5
A16
102
{ACAD_REACTORS
330
A0D
102
}
330
A0D
100
AcDbXrecord
 90
        0
  0
XRECORD
  5
A17
102
{ACAD_REACTORS
330
A0D
102
}
330
A0D
100
AcDbXrecord
 90
        0
  0
XRECORD
  5
A18
102
{ACAD_REACTORS
330
A0D
102
}
330
A0D
100
AcDbXrecord
  1
{55359ED1-645D-11D4-BC29-40594FC10001}
  0
XRECORD
  5
A19
102
{ACAD_REACTORS
330
A0D
102
}
330
A0D
100
AcDbXrecord
  1
{E1C79391-FA21-4ED9-B56D-B91C626CDFF2}
  0
XRECORD
  5
A1A
102
{ACAD_REACTORS
330
A0D
102
}
330
A0D
100
AcDbXrecord
 40
0.0
  0
XRECORD
  5
A1B
102
{ACAD_REACTORS
330
A0D
102
}
330
A0D
100
AcDbXrecord
340
0
  0
XRECORD
  5
A1C
102
{ACAD_REACTORS
330
A0D
102
}
330
A0D
100
AcDbXrecord
 70
     0
  0
XRECORD
  5
A1D
102
{ACAD_REACTORS
330
A0D
102
}
330
A0D
100
AcDbXrecord
340
0
  0
XRECORD
  5
A1E
102
{ACAD_REACTORS
330
A0D
102
}
330
A0D
100
AcDbXrecord
 10
0.0
 20
0.0
 30
0.0
  0
XRECORD
  5
A1F
102
{ACAD_REACTORS
330
A0D
102
}
330
A0D
100
AcDbXrecord
 10
0.0
 20
0.0
 30
0.0
  0
XRECORD
  5
A20
102
{ACAD_REACTORS
330
A0D
102
}
330
A0D
100
AcDbXrecord
 10
0.0
 20
0.0
 30
0.0
  0
XRECORD
  5
A21
102
{ACAD_REACTORS
330
A0D
102
}
330
A0D
100
AcDbXrecord
 10
0.0
 20
0.0
 30
0.0
  0
XRECORD
  5
A22
102
{ACAD_REACTORS
330
A0D
102
}
330
A0D
100
AcDbXrecord
 10
0.0
 20
0.0
 30
0.0
  0
XRECORD
  5
A23
102
{ACAD_REACTORS
330
A0D
102
}
330
A0D
100
AcDbXrecord
 10
0.0
 20
0.0
 30
0.0
  0
XRECORD
  5
A24
102
{ACAD_REACTORS
330
A0D
102
}
330
A0D
100
AcDbXrecord
340
0
  0
XRECORD
  5
A25
102
{ACAD_REACTORS
330
A0D
102
}
330
A0D
100
AcDbXrecord
 70
     0
  0
XRECORD
  5
A26
102
{ACAD_REACTORS
330
A0D
102
}
330
A0D
100
AcDbXrecord
340
0
  0
XRECORD
  5
A27
102
{ACAD_REACTORS
330
A0D
102
}
330
A0D
100
AcDbXrecord
 10
0.0
 20
0.0
 30
0.0
  0
XRECORD
  5
A28
102
{ACAD_REACTORS
330
A0D
102
}
330
A0D
100
AcDbXrecord
 10
0.0
 20
0.0
 30
0.0
  0
XRECORD
  5
A29
102
{ACAD_REACTORS
330
A0D
102
}
330
A0D
100
AcDbXrecord
 10
0.0
 20
0.0
 30
0.0
  0
XRECORD
  5
A2A
102
{ACAD_REACTORS
330
A0D
102
}
330
A0D
100
AcDbXrecord
 10
0.0
 20
0.0
 30
0.0
  0
XRECORD
  5
A2B
102
{ACAD_REACTORS
330
A0D
102
}
330
A0D
100
AcDbXrecord
 10
0.0
 20
0.0
 30
0.0
  0
XRECORD
  5
A2C
102
{ACAD_REACTORS
330
A0D
102
}
330
A0D
100
AcDbXrecord
 10
0.0
 20
0.0
 30
0.0
  0
ENDSEC
  0
EOF
