  0
SECTION
  2
HEADER
  9
$ACADVER
  1
AC1014
  9
$ACADMAINTVER
 70
     9
  9
$DWGCODEPAGE
  3
ANSI_949
  9
$INSBASE
 10
384.0
 20
277.0
 30
0.0
  9
$EXTMIN
 10
40.23376567316449
 20
92.32759174137333
 30
-0.0000000000000053
  9
$EXTMAX
 10
354.2596444560444
 20
189.1507879194696
 30
0.0000000000000099
  9
$LIMMIN
 10
0.0
 20
0.0
  9
$LIMMAX
 10
420.0
 20
297.0
  9
$ORTHOMODE
 70
     0
  9
$REGENMODE
 70
     1
  9
$FILLMODE
 70
     1
  9
$QTEXTMODE
 70
     0
  9
$MIRRTEXT
 70
     1
  9
$DRAGMODE
 70
     2
  9
$LTSCALE
 40
4.0
  9
$OSMODE
 70
    37
  9
$ATTMODE
 70
     1
  9
$TEXTSIZE
 40
3.5
  9
$TRACEWID
 40
0.05
  9
$TEXTSTYLE
  7
STANDARD
  9
$CLAYER
  8
0
  9
$CELTYPE
  6
BYLAYER
  9
$CECOLOR
 62
     7
  9
$CELTSCALE
 40
1.0
  9
$DELOBJ
 70
     1
  9
$DISPSILH
 70
     0
  9
$DIMSCALE
 40
1.0
  9
$DIMASZ
 40
3.299999999999998
  9
$DIMEXO
 40
1.25
  9
$DIMDLI
 40
0.38
  9
$DIMRND
 40
0.0
  9
$DIMDLE
 40
0.0
  9
$DIMEXE
 40
1.25
  9
$DIMTP
 40
0.0
  9
$DIMTM
 40
0.0
  9
$DIMTXT
 40
3.5
  9
$DIMCEN
 40
0.09
  9
$DIMTSZ
 40
0.0
  9
$DIMTOL
 70
     0
  9
$DIMLIM
 70
     0
  9
$DIMTIH
 70
     0
  9
$DIMTOH
 70
     1
  9
$DIMSE1
 70
     0
  9
$DIMSE2
 70
     0
  9
$DIMTAD
 70
     1
  9
$DIMZIN
 70
     8
  9
$DIMBLK
  1

  9
$DIMASO
 70
     0
  9
$DIMSHO
 70
     1
  9
$DIMPOST
  1

  9
$DIMAPOST
  1

  9
$DIMALT
 70
     0
  9
$DIMALTD
 70
     2
  9
$DIMALTF
 40
25.4
  9
$DIMLFAC
 40
1.0
  9
$DIMTOFL
 70
     1
  9
$DIMTVP
 40
0.0
  9
$DIMTIX
 70
     1
  9
$DIMSOXD
 70
     0
  9
$DIMSAH
 70
     0
  9
$DIMBLK1
  1

  9
$DIMBLK2
  1

  9
$DIMSTYLE
  2
STANDARD
  9
$DIMCLRD
 70
     5
  9
$DIMCLRE
 70
     5
  9
$DIMCLRT
 70
     3
  9
$DIMTFAC
 40
0.8571428571428571
  9
$DIMGAP
 40
0.09
  9
$DIMJUST
 70
     0
  9
$DIMSD1
 70
     0
  9
$DIMSD2
 70
     0
  9
$DIMTOLJ
 70
     1
  9
$DIMTZIN
 70
     8
  9
$DIMALTZ
 70
     8
  9
$DIMALTTZ
 70
     8
  9
$DIMFIT
 70
     3
  9
$DIMUPT
 70
     0
  9
$DIMUNIT
 70
     2
  9
$DIMDEC
 70
     4
  9
$DIMTDEC
 70
     4
  9
$DIMALTU
 70
     2
  9
$DIMALTTD
 70
     2
  9
$DIMTXSTY
  7
STANDARD
  9
$DIMAUNIT
 70
     0
  9
$LUNITS
 70
     2
  9
$LUPREC
 70
     4
  9
$SKETCHINC
 40
0.1
  9
$FILLETRAD
 40
1.5
  9
$AUNITS
 70
     0
  9
$AUPREC
 70
     0
  9
$MENU
  1
acad
  9
$ELEVATION
 40
0.0
  9
$PELEVATION
 40
0.0
  9
$THICKNESS
 40
0.0
  9
$LIMCHECK
 70
     0
  9
$BLIPMODE
 70
     0
  9
$CHAMFERA
 40
0.25
  9
$CHAMFERB
 40
0.25
  9
$CHAMFERC
 40
0.0
  9
$CHAMFERD
 40
0.0
  9
$SKPOLY
 70
     0
  9
$TDCREATE
 40
2450308.573907755
  9
$TDUPDATE
 40
2453069.720057141
  9
$TDINDWG
 40
0.3116686921
  9
$TDUSRTIMER
 40
0.3116686921
  9
$USRTIMER
 70
     1
  9
$ANGBASE
 50
0.0
  9
$ANGDIR
 70
     0
  9
$PDMODE
 70
     0
  9
$PDSIZE
 40
0.0
  9
$PLINEWID
 40
0.0
  9
$COORDS
 70
     2
  9
$SPLFRAME
 70
     0
  9
$SPLINETYPE
 70
     6
  9
$SPLINESEGS
 70
     8
  9
$ATTDIA
 70
     0
  9
$ATTREQ
 70
     1
  9
$HANDLING
 70
 12289
  9
$HANDSEED
  5
12BE
  9
$SURFTAB1
 70
     6
  9
$SURFTAB2
 70
     6
  9
$SURFTYPE
 70
     6
  9
$SURFU
 70
     6
  9
$SURFV
 70
     6
  9
$UCSNAME
  2

  9
$UCSORG
 10
0.0
 20
0.0
 30
0.0
  9
$UCSXDIR
 10
1.0
 20
0.0
 30
0.0
  9
$UCSYDIR
 10
0.0
 20
1.0
 30
0.0
  9
$PUCSNAME
  2

  9
$PUCSORG
 10
0.0
 20
0.0
 30
0.0
  9
$PUCSXDIR
 10
1.0
 20
0.0
 30
0.0
  9
$PUCSYDIR
 10
0.0
 20
1.0
 30
0.0
  9
$USERI1
 70
     0
  9
$USERI2
 70
     0
  9
$USERI3
 70
     0
  9
$USERI4
 70
     0
  9
$USERI5
 70
     0
  9
$USERR1
 40
0.0
  9
$USERR2
 40
0.0
  9
$USERR3
 40
0.0
  9
$USERR4
 40
0.0
  9
$USERR5
 40
0.0
  9
$WORLDVIEW
 70
     1
  9
$SHADEDGE
 70
     3
  9
$SHADEDIF
 70
    70
  9
$TILEMODE
 70
     1
  9
$MAXACTVP
 70
    16
  9
$PINSBASE
 10
0.0
 20
0.0
 30
0.0
  9
$PLIMCHECK
 70
     0
  9
$PEXTMIN
 10
1.000000000000000E+20
 20
1.000000000000000E+20
 30
1.000000000000000E+20
  9
$PEXTMAX
 10
-1.000000000000000E+20
 20
-1.000000000000000E+20
 30
-1.000000000000000E+20
  9
$PLIMMIN
 10
0.0
 20
0.0
  9
$PLIMMAX
 10
12.0
 20
9.0
  9
$UNITMODE
 70
     0
  9
$VISRETAIN
 70
     0
  9
$PLINEGEN
 70
     0
  9
$PSLTSCALE
 70
     1
  9
$TREEDEPTH
 70
  3020
  9
$PICKSTYLE
 70
     1
  9
$CMLSTYLE
  2
STANDARD
  9
$CMLJUST
 70
     0
  9
$CMLSCALE
 40
1.0
  9
$PROXYGRAPHICS
 70
     1
  9
$MEASUREMENT
 70
     0
  0
ENDSEC
  0
SECTION
  2
CLASSES
  0
CLASS
  1
ACDBDICTIONARYWDFLT
  2
AcDbDictionaryWithDefault
  3
AutoCAD 2000
 90
        0
280
     0
281
     0
  0
CLASS
  1
ACDBPLACEHOLDER
  2
AcDbPlaceHolder
  3
AutoCAD 2000
 90
        0
280
     0
281
     0
  0
CLASS
  1
LAYOUT
  2
AcDbLayout
  3
AutoCAD 2000
 90
        0
280
     0
281
     0
  0
CLASS
  1
LONG_TRANSACTION
  2
AcDbLongTransaction
  3
AutoCAD 2000
 90
        0
280
     0
281
     0
  0
CLASS
  1
LWPOLYLINE
  2
AcDbPolyline
  3
AutoCAD 2000
 90
        0
280
     0
281
     1
  0
CLASS
  1
HATCH
  2
AcDbHatch
  3
AutoCAD 2000
 90
        0
280
     0
281
     1
  0
CLASS
  1
XRECORD
  2
AcDbXrecord
  3
AutoCAD 2000
 90
        0
280
     0
281
     0
  0
CLASS
  1
LONG_TRANSACTION
  2
AcDbLongTransaction
  3
AutoCAD 2000
 90
        0
280
     0
281
     0
  0
CLASS
  1
LWPOLYLINE
  2
AcDbPolyline
  3
AutoCAD 2000
 90
        0
280
     0
281
     1
  0
CLASS
  1
HATCH
  2
AcDbHatch
  3
AutoCAD 2000
 90
        0
280
     0
281
     1
  0
CLASS
  1
XRECORD
  2
AcDbXrecord
  3
AutoCAD 2000
 90
        0
280
     0
281
     0
  0
CLASS
  1
LONG_TRANSACTION
  2
AcDbLongTransaction
  3
AutoCAD 2000
 90
        0
280
     0
281
     0
  0
CLASS
  1
LWPOLYLINE
  2
AcDbPolyline
  3
AutoCAD 2000
 90
        0
280
     0
281
     1
  0
CLASS
  1
HATCH
  2
AcDbHatch
  3
AutoCAD 2000
 90
        0
280
     0
281
     1
  0
CLASS
  1
XRECORD
  2
AcDbXrecord
  3
AutoCAD 2000
 90
        0
280
     0
281
     0
  0
ENDSEC
  0
SECTION
  2
TABLES
  0
TABLE
  2
VPORT
  5
8
330
0
100
AcDbSymbolTable
 70
     2
  0
VPORT
  5
129B
330
8
100
AcDbSymbolTableRecord
100
AcDbViewportTableRecord
  2
*ACTIVE
 70
     0
 10
0.0
 20
0.0
 11
1.0
 21
1.0
 12
197.2467050646045
 22
140.7391898304214
 13
0.0
 23
0.0
 14
0.25
 24
0.25
 15
5.0
 25
5.0
 16
0.0
 26
0.0
 36
1.0
 17
0.0
 27
0.0
 37
0.0
 40
214.9461400490025
 41
1.467911318553092
 42
50.0
 43
0.0
 44
0.0
 50
0.0
 51
0.0
 71
     0
 72
  1000
 73
     1
 74
     1
 75
     0
 76
     0
 77
     0
 78
     0
  0
ENDTAB
  0
TABLE
  2
LTYPE
  5
5
330
0
100
AcDbSymbolTable
 70
     1
  0
LTYPE
  5
13
330
5
100
AcDbSymbolTableRecord
100
AcDbLinetypeTableRecord
  2
BYBLOCK
 70
     0
  3

 72
    65
 73
     0
 40
0.0
  0
LTYPE
  5
14
330
5
100
AcDbSymbolTableRecord
100
AcDbLinetypeTableRecord
  2
BYLAYER
 70
     0
  3

 72
    65
 73
     0
 40
0.0
  0
LTYPE
  5
15
330
5
100
AcDbSymbolTableRecord
100
AcDbLinetypeTableRecord
  2
CONTINUOUS
 70
     0
  3
Solid line
 72
    65
 73
     0
 40
0.0
  0
ENDTAB
  0
TABLE
  2
LAYER
  5
2
330
0
100
AcDbSymbolTable
 70
     2
  0
LAYER
  5
10
330
2
100
AcDbSymbolTableRecord
100
AcDbLayerTableRecord
  2
0
 70
     0
 62
     7
  6
CONTINUOUS
  0
LAYER
  5
1270
330
2
100
AcDbSymbolTableRecord
100
AcDbLayerTableRecord
  2
PEG-L75AG
 70
     0
 62
     7
  6
CONTINUOUS
  0
ENDTAB
  0
TABLE
  2
STYLE
  5
3
330
0
100
AcDbSymbolTable
 70
     1
  0
STYLE
  5
11
330
3
100
AcDbSymbolTableRecord
100
AcDbTextStyleTableRecord
  2
STANDARD
 70
     0
 40
3.5
 41
1.0
 50
0.0
 71
     0
 42
3.5
  3
txt.shx
  4
whgtxt.shx
  0
ENDTAB
  0
TABLE
  2
VIEW
  5
6
330
0
100
AcDbSymbolTable
 70
     0
  0
ENDTAB
  0
TABLE
  2
UCS
  5
7
330
0
100
AcDbSymbolTable
 70
     0
  0
ENDTAB
  0
TABLE
  2
APPID
  5
9
330
0
100
AcDbSymbolTable
 70
     2
  0
APPID
  5
12
330
9
100
AcDbSymbolTableRecord
100
AcDbRegAppTableRecord
  2
ACAD
 70
     0
  0
APPID
  5
117C
330
9
100
AcDbSymbolTableRecord
100
AcDbRegAppTableRecord
  2
DCO15
 70
     0
  0
ENDTAB
  0
TABLE
  2
DIMSTYLE
  5
A
330
0
100
AcDbSymbolTable
 70
     1
  0
DIMSTYLE
105
1019
330
A
100
AcDbSymbolTableRecord
100
AcDbDimStyleTableRecord
  2
STANDARD
 70
     0
  3

  4

  5

  6

  7

 40
1.0
 41
0.18
 42
0.0625
 43
0.38
 44
0.18
 45
0.0
 46
0.0
 47
0.0
 48
0.0
140
0.18
141
0.09
142
0.0
143
25.4
144
1.0
145
0.0
146
1.0
147
0.09
 71
     0
 72
     0
 73
     1
 74
     1
 75
     0
 76
     0
 77
     0
 78
     0
170
     0
171
     2
172
     0
173
     0
174
     0
175
     0
176
     0
177
     0
178
     0
270
     2
271
     4
272
     4
273
     2
274
     2
340
11
275
     0
280
     0
281
     0
282
     0
283
     1
284
     0
285
     0
286
     0
287
     3
288
     0
  0
ENDTAB
  0
TABLE
  2
BLOCK_RECORD
  5
1
330
0
100
AcDbSymbolTable
 70
     0
  0
BLOCK_RECORD
  5
1E
102
{ACAD_XDICTIONARY
360
1266
102
}
330
1
100
AcDbSymbolTableRecord
100
AcDbBlockTableRecord
  2
*MODEL_SPACE
  0
BLOCK_RECORD
  5
1A
102
{ACAD_XDICTIONARY
360
1264
102
}
330
1
100
AcDbSymbolTableRecord
100
AcDbBlockTableRecord
  2
*PAPER_SPACE
  0
ENDTAB
  0
ENDSEC
  0
SECTION
  2
BLOCKS
  0
BLOCK
  5
37
330
1E
100
AcDbEntity
  8
0
 62
     7
100
AcDbBlockBegin
  2
*MODEL_SPACE
 70
     0
 10
0.0
 20
0.0
 30
0.0
  3
*MODEL_SPACE
  1

  0
ENDBLK
  5
38
330
1E
100
AcDbEntity
  8
0
 62
     7
100
AcDbBlockEnd
  0
BLOCK
  5
35
330
1A
100
AcDbEntity
 67
     1
  8
0
 62
     7
100
AcDbBlockBegin
  2
*PAPER_SPACE
 70
     0
 10
0.0
 20
0.0
 30
0.0
  3
*PAPER_SPACE
  1

  0
ENDBLK
  5
36
330
1A
100
AcDbEntity
 67
     1
  8
0
 62
     7
100
AcDbBlockEnd
  0
ENDSEC
  0
SECTION
  2
ENTITIES
  0
LINE
  5
AED
330
1E
100
AcDbEntity
  8
PEG-L75AG
100
AcDbLine
 10
267.7635783446506
 20
173.15
 30
0.0
 11
272.85
 21
173.15
 31
0.0
  0
LINE
  5
AEE
330
1E
100
AcDbEntity
  8
PEG-L75AG
100
AcDbLine
 10
263.05
 20
137.15
 30
0.0
 11
271.85
 21
137.15
 31
0.0
  0
LINE
  5
AEF
330
1E
100
AcDbEntity
  8
PEG-L75AG
100
AcDbLine
 10
262.6499999999999
 20
126.35
 30
0.0
 11
262.6499999999999
 21
136.7499999999999
 31
0.0
  0
LINE
  5
AF0
330
1E
100
AcDbEntity
  8
PEG-L75AG
100
AcDbLine
 10
321.85
 20
126.35
 30
0.0
 11
321.85
 21
135.15
 31
0.0
  0
LINE
  5
AF1
330
1E
100
AcDbEntity
  8
PEG-L75AG
100
AcDbLine
 10
266.2114675348983
 20
158.8342105263157
 30
0.0
 11
272.85
 21
158.8342105263157
 31
0.0
  0
LINE
  5
AF2
330
1E
100
AcDbEntity
  8
PEG-L75AG
100
AcDbLine
 10
318.333958220478
 20
171.638752031396
 30
0.0
 11
320.1833333333333
 21
138.3499999999999
 31
0.0
  0
LINE
  5
AF3
330
1E
100
AcDbEntity
  8
PEG-L75AG
100
AcDbLine
 10
266.166041779522
 20
171.638752031396
 30
0.0
 11
264.2919791102389
 21
137.9056239843019
 31
0.0
  0
ARC
  5
AF4
330
1E
100
AcDbEntity
  8
PEG-L75AG
100
AcDbCircle
 10
263.4932108276746
 20
137.9499999999999
 30
0.0
 40
0.8
100
AcDbArc
 50
270.0
 51
356.820169880136
  0
ARC
  5
AF5
330
1E
100
AcDbEntity
  8
PEG-L75AG
100
AcDbCircle
 10
316.7364216553493
 20
171.55
 30
0.0
 40
1.6
100
AcDbArc
 50
3.17983011986421
 51
90.0
  0
ARC
  5
AF6
330
1E
100
AcDbEntity
  8
PEG-L75AG
100
AcDbCircle
 10
267.7635783446506
 20
171.55
 30
0.0
 40
1.6
100
AcDbArc
 50
90.0
 51
176.8201698801355
  0
ARC
  5
AF7
330
1E
100
AcDbEntity
  8
PEG-L75AG
100
AcDbCircle
 10
318.2885324651016
 20
158.0342105263158
 30
0.0
 40
0.8
100
AcDbArc
 50
3.179830119863963
 51
90.0
  0
ARC
  5
AF8
330
1E
100
AcDbEntity
  8
PEG-L75AG
100
AcDbCircle
 10
266.2114675348983
 20
158.0342105263158
 30
0.0
 40
0.8
100
AcDbArc
 50
90.0
 51
176.8201698801359
  0
LINE
  5
AF9
330
1E
100
AcDbEntity
  8
PEG-L75AG
100
AcDbLine
 10
263.05
 20
137.15
 30
0.0
 11
262.6499999999999
 21
136.7499999999999
 31
0.0
  0
LINE
  5
AFA
330
1E
100
AcDbEntity
  8
PEG-L75AG
100
AcDbLine
 10
150.4499999999999
 20
123.15
 30
0.0
 11
162.0499999999998
 21
123.15
 31
0.0
  0
LINE
  5
AFB
330
1E
100
AcDbEntity
  8
PEG-L75AG
100
AcDbLine
 10
151.5115384615384
 20
116.7499999999999
 30
0.0
 11
170.6499999999999
 21
116.7499999999999
 31
0.0
  0
LINE
  5
AFD
330
1E
100
AcDbEntity
  8
PEG-L75AG
100
AcDbLine
 10
89.04999999999999
 20
115.9499999999999
 30
0.0
 11
180.25
 21
115.9499999999999
 31
0.0
  0
LINE
  5
AFE
330
1E
100
AcDbEntity
  8
PEG-L75AG
100
AcDbLine
 10
126.6499999999999
 20
108.75
 30
0.0
 11
180.25
 21
108.75
 31
0.0
  0
LINE
  5
AFF
330
1E
100
AcDbEntity
  8
PEG-L75AG
100
AcDbLine
 10
156.25
 20
128.55
 30
0.0
 11
156.25
 21
117.9499999999999
 31
0.0
  0
LINE
  5
B01
330
1E
100
AcDbEntity
  8
PEG-L75AG
100
AcDbLine
 10
180.25
 20
115.9499999999999
 30
0.0
 11
180.25
 21
108.75
 31
0.0
  0
LINE
  5
B02
330
1E
100
AcDbEntity
  8
PEG-L75AG
100
AcDbLine
 10
170.6499999999999
 20
115.9499999999999
 30
0.0
 11
170.6499999999999
 21
116.7499999999999
 31
0.0
  0
CIRCLE
  5
B03
330
1E
100
AcDbEntity
  8
PEG-L75AG
100
AcDbCircle
 10
156.25
 20
123.15
 30
0.0
 40
1.399999999999999
  0
ARC
  5
B04
330
1E
100
AcDbEntity
  8
PEG-L75AG
100
AcDbCircle
 10
156.25
 20
123.15
 30
0.0
 40
2.0
100
AcDbArc
 50
275.7105931374995
 51
174.8055710922651
  0
LINE
  5
B05
330
1E
100
AcDbEntity
  8
PEG-L75AG
100
AcDbLine
 10
51.17548339959387
 20
124.75
 30
0.0
 11
88.37307692307692
 21
124.75
 31
0.0
  0
LINE
  5
B06
330
1E
100
AcDbEntity
  8
PEG-L75AG
100
AcDbLine
 10
40.25
 20
119.95
 30
0.0
 11
83.04999999999997
 21
119.95
 31
0.0
  0
LINE
  5
B07
330
1E
100
AcDbEntity
  8
PEG-L75AG
100
AcDbLine
 10
88.25000000000001
 20
126.35
 30
0.0
 11
40.25
 21
126.35
 31
0.0
  0
LINE
  5
B08
330
1E
100
AcDbEntity
  8
PEG-L75AG
100
AcDbLine
 10
55.84999999999999
 20
109.95
 30
0.0
 11
125.4499999999999
 21
109.95
 31
0.0
  0
LINE
  5
B09
330
1E
100
AcDbEntity
  8
PEG-L75AG
100
AcDbLine
 10
88.25000000000001
 20
126.35
 30
0.0
 11
89.04999999999999
 21
115.9499999999999
 31
0.0
  0
LINE
  5
B0A
330
1E
100
AcDbEntity
  8
PEG-L75AG
100
AcDbLine
 10
83.04999999999997
 20
119.95
 30
0.0
 11
83.04999999999997
 21
109.95
 31
0.0
  0
LINE
  5
B0B
330
1E
100
AcDbEntity
  8
PEG-L75AG
100
AcDbLine
 10
104.2499999999999
 20
128.55
 30
0.0
 11
104.2499999999999
 21
117.9499999999999
 31
0.0
  0
LINE
  5
B0C
330
1E
100
AcDbEntity
  8
PEG-L75AG
100
AcDbLine
 10
100.2499999999999
 20
115.9499999999999
 30
0.0
 11
100.4082102797062
 21
118.0067336361817
 31
0.0
  0
LINE
  5
B0F
330
1E
100
AcDbEntity
  8
PEG-L75AG
100
AcDbLine
 10
100.3115384615382
 20
116.7499999999999
 30
0.0
 11
118.6499999999997
 21
116.7499999999999
 31
0.0
  0
ARC
  5
B10
330
1E
100
AcDbEntity
  8
PEG-L75AG
100
AcDbCircle
 10
125.4499999999999
 20
108.75
 30
0.0
 40
1.199999999999999
100
AcDbArc
 50
0.0
 51
90.0
  0
LINE
  5
B11
330
1E
100
AcDbEntity
  8
PEG-L75AG
100
AcDbLine
 10
120.25
 20
108.75
 30
0.0
 11
120.25
 21
108.75
 31
0.0
  0
LINE
  5
B12
330
1E
100
AcDbEntity
  8
PEG-L75AG
100
AcDbLine
 10
118.6499999999997
 20
115.9499999999999
 30
0.0
 11
118.6499999999997
 21
116.7499999999999
 31
0.0
  0
LINE
  5
B13
330
1E
100
AcDbEntity
  8
PEG-L75AG
100
AcDbLine
 10
88.25000000000001
 20
126.35
 30
0.0
 11
97.67768775266121
 21
126.3499999999999
 31
0.0
  0
CIRCLE
  5
B14
330
1E
100
AcDbEntity
  8
PEG-L75AG
100
AcDbCircle
 10
104.2499999999999
 20
123.15
 30
0.0
 40
1.399999999999999
  0
ARC
  5
B15
330
1E
100
AcDbEntity
  8
PEG-L75AG
100
AcDbCircle
 10
104.2499999999999
 20
123.15
 30
0.0
 40
2.0
100
AcDbArc
 50
275.7105931374995
 51
174.8055710922651
  0
LINE
  5
B17
330
1E
100
AcDbEntity
  8
PEG-L75AG
100
AcDbLine
 10
98.44999999999998
 20
123.15
 30
0.0
 11
109.85
 21
123.15
 31
0.0
  0
LINE
  5
B18
330
1E
100
AcDbEntity
  8
PEG-L75AG
100
AcDbLine
 10
81.44999999999997
 20
126.35
 30
0.0
 11
81.44999999999997
 21
119.95
 31
0.0
  0
LINE
  5
B19
330
1E
100
AcDbEntity
  8
PEG-L75AG
100
AcDbLine
 10
53.84999999999998
 20
115.9499999999999
 30
0.0
 11
54.64999999999998
 21
124.75
 31
0.0
  0
LINE
  5
B1A
330
1E
100
AcDbEntity
  8
PEG-L75AG
100
AcDbLine
 10
40.25
 20
108.75
 30
0.0
 11
40.25
 21
126.35
 31
0.0
  0
LINE
  5
B1B
330
1E
100
AcDbEntity
  8
PEG-L75AG
100
AcDbLine
 10
46.64999999999998
 20
93.75
 30
0.0
 11
46.64999999999998
 21
122.55
 31
0.0
  0
ARC
  5
B1C
330
1E
100
AcDbEntity
  8
PEG-L75AG
100
AcDbCircle
 10
55.84999999999999
 20
108.75
 30
0.0
 40
1.199999999999999
100
AcDbArc
 50
90.0
 51
180.0
  0
LINE
  5
B1D
330
1E
100
AcDbEntity
  8
PEG-L75AG
100
AcDbLine
 10
40.25
 20
115.9499999999999
 30
0.0
 11
46.64999999999998
 21
115.9499999999999
 31
0.0
  0
LINE
  5
B1E
330
1E
100
AcDbEntity
  8
PEG-L75AG
100
AcDbLine
 10
40.25
 20
108.75
 30
0.0
 11
54.64999999999998
 21
108.75
 31
0.0
  0
LINE
  5
B1F
330
1E
100
AcDbEntity
  8
PEG-L75AG
100
AcDbLine
 10
46.64999999999998
 20
115.9499999999999
 30
0.0
 11
53.84999999999998
 21
115.9499999999999
 31
0.0
  0
LINE
  5
B20
330
1E
100
AcDbEntity
  8
PEG-L75AG
100
AcDbLine
 10
51.17548339959387
 20
126.35
 30
0.0
 11
51.17548339959387
 21
124.75
 31
0.0
  0
LINE
  5
B21
330
1E
100
AcDbEntity
  8
PEG-L75AG
100
AcDbLine
 10
49.44999999999999
 20
126.35
 30
0.0
 11
49.44999999999999
 21
119.95
 31
0.0
  0
LINE
  5
B22
330
1E
100
AcDbEntity
  8
PEG-L75AG
100
AcDbLine
 10
72.25
 20
174.35
 30
0.0
 11
72.25
 21
182.15
 31
0.0
  0
LINE
  5
B23
330
1E
100
AcDbEntity
  8
PEG-L75AG
100
AcDbLine
 10
88.25000000000001
 20
138.3499999999999
 30
0.0
 11
78.92158721377575
 21
173.164110472164
 31
0.0
  0
LINE
  5
B24
330
1E
100
AcDbEntity
  8
PEG-L75AG
100
AcDbLine
 10
88.25000000000001
 20
127.55
 30
0.0
 11
40.30999999999997
 21
127.55
 31
0.0
  0
LINE
  5
B25
330
1E
100
AcDbEntity
  8
PEG-L75AG
100
AcDbLine
 10
88.25000000000001
 20
138.3499999999999
 30
0.0
 11
40.84999999999999
 21
138.3499999999999
 31
0.0
  0
LINE
  5
B26
330
1E
100
AcDbEntity
  8
PEG-L75AG
100
AcDbLine
 10
88.25000000000001
 20
126.35
 30
0.0
 11
40.25
 21
126.35
 31
0.0
  0
LINE
  5
B27
330
1E
100
AcDbEntity
  8
PEG-L75AG
100
AcDbLine
 10
88.25000000000001
 20
126.35
 30
0.0
 11
88.25000000000001
 21
138.3499999999999
 31
0.0
  0
LINE
  5
B2A
330
1E
100
AcDbEntity
  8
PEG-L75AG
100
AcDbLine
 10
55.78137084989847
 20
173.8813708498984
 30
0.0
 11
42.37006248333329
 21
160.4700624833333
 31
0.0
  0
LINE
  5
B2B
330
1E
100
AcDbEntity
  8
PEG-L75AG
100
AcDbLine
 10
40.25
 20
126.35
 30
0.0
 11
41.90342959102721
 21
159.418591820545
 31
0.0
  0
ARC
  5
B2C
330
1E
100
AcDbEntity
  8
PEG-L75AG
100
AcDbCircle
 10
43.50143333323174
 20
159.3386916334348
 30
0.0
 40
1.6
100
AcDbArc
 50
135.0
 51
177.137594773888
  0
ARC
  5
B2E
330
1E
100
AcDbEntity
  8
PEG-L75AG
100
AcDbCircle
 10
77.37610589171325
 20
172.75
 30
0.0
 40
1.6
100
AcDbArc
 50
14.99999999999998
 51
90.0
  0
ARC
  5
B2F
330
1E
100
AcDbEntity
  8
PEG-L75AG
100
AcDbCircle
 10
56.91274169979696
 20
172.75
 30
0.0
 40
1.6
100
AcDbArc
 50
90.0
 51
134.9999999999999
  0
LINE
  5
B31
330
1E
100
AcDbEntity
  8
PEG-L75AG
100
AcDbLine
 10
153.8499999999999
 20
184.75
 30
0.0
 11
96.28864436919938
 21
184.75
 31
0.0
  0
LINE
  5
B32
330
1E
100
AcDbEntity
  8
PEG-L75AG
100
AcDbLine
 10
145.8499999999999
 20
184.75
 30
0.0
 11
145.8499999999999
 21
182.3499999999999
 31
0.0
  0
LINE
  5
B34
330
1E
100
AcDbEntity
  8
PEG-L75AG
100
AcDbLine
 10
109.85
 20
184.75
 30
0.0
 11
109.85
 21
182.3499999999999
 31
0.0
  0
LINE
  5
B35
330
1E
100
AcDbEntity
  8
PEG-L75AG
100
AcDbLine
 10
113.85
 20
184.75
 30
0.0
 11
113.85
 21
182.3499999999999
 31
0.0
  0
LINE
  5
B36
330
1E
100
AcDbEntity
  8
PEG-L75AG
100
AcDbLine
 10
113.2499999999998
 20
182.3499999999999
 30
0.0
 11
113.25
 21
184.75
 31
0.0
  0
LINE
  5
B37
330
1E
100
AcDbEntity
  8
PEG-L75AG
100
AcDbLine
 10
110.4499999999999
 20
182.3499999999999
 30
0.0
 11
110.4499999999999
 21
184.75
 31
0.0
  0
LINE
  5
B39
330
1E
100
AcDbEntity
  8
PEG-L75AG
100
AcDbLine
 10
141.8499999999999
 20
184.75
 30
0.0
 11
141.8499999999999
 21
182.3499999999999
 31
0.0
  0
LINE
  5
B3A
330
1E
100
AcDbEntity
  8
PEG-L75AG
100
AcDbLine
 10
142.4499999999999
 20
182.3499999999999
 30
0.0
 11
142.4499999999999
 21
184.75
 31
0.0
  0
LINE
  5
B3B
330
1E
100
AcDbEntity
  8
PEG-L75AG
100
AcDbLine
 10
145.25
 20
182.3499999999999
 30
0.0
 11
145.25
 21
184.75
 31
0.0
  0
LINE
  5
B3E
330
1E
100
AcDbEntity
  8
PEG-L75AG
100
AcDbLine
 10
143.8477012058021
 20
182.3499999999999
 30
0.0
 11
143.8477012058021
 21
188.2892328347942
 31
0.0
  0
LINE
  5
B3F
330
1E
100
AcDbEntity
  8
PEG-L75AG
100
AcDbLine
 10
111.8477012058022
 20
182.3499999999999
 30
0.0
 11
111.8477012058022
 21
188.2892328347942
 31
0.0
  0
LINE
  5
B40
330
1E
100
AcDbEntity
  8
PEG-L75AG
100
AcDbLine
 10
40.64999999999996
 20
96.75
 30
0.0
 11
84.64999999999998
 21
96.75
 31
0.0
  0
LINE
  5
B41
330
1E
100
AcDbEntity
  8
PEG-L75AG
100
AcDbLine
 10
40.64999999999996
 20
96.75
 30
0.0
 11
40.64999999999996
 21
98.55
 31
0.0
  0
LINE
  5
B42
330
1E
100
AcDbEntity
  8
PEG-L75AG
100
AcDbLine
 10
41.44999999999996
 20
99.35
 30
0.0
 11
41.44999999999996
 21
106.3499999999999
 31
0.0
  0
LINE
  5
B43
330
1E
100
AcDbEntity
  8
PEG-L75AG
100
AcDbLine
 10
40.64999999999996
 20
98.55
 30
0.0
 11
84.64999999999998
 21
98.55
 31
0.0
  0
LINE
  5
B44
330
1E
100
AcDbEntity
  8
PEG-L75AG
100
AcDbLine
 10
40.64999999999996
 20
107.15
 30
0.0
 11
52.64999999999997
 21
107.15
 31
0.0
  0
LINE
  5
B45
330
1E
100
AcDbEntity
  8
PEG-L75AG
100
AcDbLine
 10
40.64999999999996
 20
107.15
 30
0.0
 11
40.64999999999996
 21
108.75
 31
0.0
  0
ARC
  5
B46
330
1E
100
AcDbEntity
  8
PEG-L75AG
100
AcDbCircle
 10
40.64999999999996
 20
99.35
 30
0.0
 40
0.8
100
AcDbArc
 50
270.0
 51
0.0
  0
ARC
  5
B47
330
1E
100
AcDbEntity
  8
PEG-L75AG
100
AcDbCircle
 10
40.64999999999996
 20
106.3499999999999
 30
0.0
 40
0.8
100
AcDbArc
 50
0.0
 51
90.0
  0
LINE
  5
B48
330
1E
100
AcDbEntity
  8
PEG-L75AG
100
AcDbLine
 10
51.84999999999998
 20
99.35
 30
0.0
 11
51.84999999999998
 21
106.3499999999999
 31
0.0
  0
ARC
  5
B49
330
1E
100
AcDbEntity
  8
PEG-L75AG
100
AcDbCircle
 10
52.64999999999997
 20
99.35
 30
0.0
 40
0.8
100
AcDbArc
 50
180.0
 51
270.0
  0
ARC
  5
B4A
330
1E
100
AcDbEntity
  8
PEG-L75AG
100
AcDbCircle
 10
52.64999999999997
 20
106.3499999999999
 30
0.0
 40
0.8
100
AcDbArc
 50
90.0
 51
180.0
  0
LINE
  5
B4B
330
1E
100
AcDbEntity
  8
PEG-L75AG
100
AcDbLine
 10
52.64999999999997
 20
107.15
 30
0.0
 11
52.64999999999997
 21
108.75
 31
0.0
  0
LINE
  5
B4C
330
1E
100
AcDbEntity
  8
PEG-L75AG
100
AcDbLine
 10
84.64999999999998
 20
98.55
 30
0.0
 11
84.64999999999998
 21
96.75
 31
0.0
  0
LINE
  5
B4D
330
1E
100
AcDbEntity
  8
PEG-L75AG
100
AcDbLine
 10
140.65
 20
96.75
 30
0.0
 11
96.65
 21
96.75
 31
0.0
  0
LINE
  5
B4E
330
1E
100
AcDbEntity
  8
PEG-L75AG
100
AcDbLine
 10
140.65
 20
98.55
 30
0.0
 11
96.65
 21
98.55
 31
0.0
  0
LINE
  5
B4F
330
1E
100
AcDbEntity
  8
PEG-L75AG
100
AcDbLine
 10
129.4499999999999
 20
99.35
 30
0.0
 11
129.4499999999999
 21
106.3499999999999
 31
0.0
  0
LINE
  5
B50
330
1E
100
AcDbEntity
  8
PEG-L75AG
100
AcDbLine
 10
139.85
 20
99.35
 30
0.0
 11
139.85
 21
106.3499999999999
 31
0.0
  0
ARC
  5
B51
330
1E
100
AcDbEntity
  8
PEG-L75AG
100
AcDbCircle
 10
140.65
 20
99.35
 30
0.0
 40
0.8
100
AcDbArc
 50
180.0
 51
270.0
  0
LINE
  5
B52
330
1E
100
AcDbEntity
  8
PEG-L75AG
100
AcDbLine
 10
140.65
 20
96.75
 30
0.0
 11
140.65
 21
98.55
 31
0.0
  0
ARC
  5
B53
330
1E
100
AcDbEntity
  8
PEG-L75AG
100
AcDbCircle
 10
128.6499999999997
 20
99.35
 30
0.0
 40
0.8
100
AcDbArc
 50
270.0
 51
0.0
  0
LINE
  5
B54
330
1E
100
AcDbEntity
  8
PEG-L75AG
100
AcDbLine
 10
96.65
 20
98.55
 30
0.0
 11
96.65
 21
96.75
 31
0.0
  0
LINE
  5
B55
330
1E
100
AcDbEntity
  8
PEG-L75AG
100
AcDbLine
 10
140.65
 20
107.15
 30
0.0
 11
128.6499999999997
 21
107.15
 31
0.0
  0
LINE
  5
B56
330
1E
100
AcDbEntity
  8
PEG-L75AG
100
AcDbLine
 10
128.6499999999997
 20
107.15
 30
0.0
 11
128.6499999999997
 21
108.75
 31
0.0
  0
ARC
  5
B57
330
1E
100
AcDbEntity
  8
PEG-L75AG
100
AcDbCircle
 10
128.6499999999997
 20
106.3499999999999
 30
0.0
 40
0.8
100
AcDbArc
 50
0.0
 51
90.0
  0
ARC
  5
B58
330
1E
100
AcDbEntity
  8
PEG-L75AG
100
AcDbCircle
 10
140.65
 20
106.3499999999999
 30
0.0
 40
0.8
100
AcDbArc
 50
90.0
 51
180.0
  0
LINE
  5
B59
330
1E
100
AcDbEntity
  8
PEG-L75AG
100
AcDbLine
 10
140.65
 20
107.15
 30
0.0
 11
140.65
 21
108.75
 31
0.0
  0
LINE
  5
B65
330
1E
100
AcDbEntity
  8
PEG-L75AG
100
AcDbLine
 10
74.84999999999998
 20
177.9499999999999
 30
0.0
 11
74.84999999999998
 21
174.9499999999999
 31
0.0
  0
LINE
  5
B66
330
1E
100
AcDbEntity
  8
PEG-L75AG
100
AcDbLine
 10
76.84999999999998
 20
177.9499999999999
 30
0.0
 11
76.84999999999998
 21
174.9499999999999
 31
0.0
  0
LINE
  5
B67
330
1E
100
AcDbEntity
  8
PEG-L75AG
100
AcDbLine
 10
75.84999999999998
 20
178.35
 30
0.0
 11
68.64999999999998
 21
178.35
 31
0.0
  0
ARC
  5
B68
330
1E
100
AcDbEntity
  8
PEG-L75AG
100
AcDbCircle
 10
72.25
 20
169.6999999999999
 30
0.0
 40
8.65
100
AcDbArc
 50
72.50767547488957
 51
107.4923245251103
  0
ARC
  5
B69
330
1E
100
AcDbEntity
  8
PEG-L75AG
100
AcDbCircle
 10
75.84999999999998
 20
176.9
 30
0.0
 40
1.45
100
AcDbArc
 50
46.39718102729639
 51
133.6028189727036
  0
LINE
  5
B6A
330
1E
100
AcDbEntity
  8
PEG-L75AG
100
AcDbLine
 10
69.64999999999998
 20
177.9499999999999
 30
0.0
 11
69.64999999999998
 21
174.9499999999999
 31
0.0
  0
LINE
  5
B6B
330
1E
100
AcDbEntity
  8
PEG-L75AG
100
AcDbLine
 10
67.64999999999997
 20
177.9499999999999
 30
0.0
 11
67.64999999999997
 21
174.9499999999999
 31
0.0
  0
ARC
  5
B6C
330
1E
100
AcDbEntity
  8
PEG-L75AG
100
AcDbCircle
 10
68.64999999999998
 20
176.9
 30
0.0
 40
1.45
100
AcDbArc
 50
46.39718102729639
 51
133.6028189727036
  0
LINE
  5
B86
330
1E
100
AcDbEntity
  8
PEG-L75AG
100
AcDbLine
 10
136.85
 20
119.15
 30
0.0
 11
136.85
 21
116.3499999999999
 31
0.0
  0
LINE
  5
B87
330
1E
100
AcDbEntity
  8
PEG-L75AG
100
AcDbLine
 10
138.4499999999997
 20
119.15
 30
0.0
 11
138.4499999999997
 21
116.3499999999999
 31
0.0
  0
LINE
  5
B88
330
1E
100
AcDbEntity
  8
PEG-L75AG
100
AcDbLine
 10
137.4499999999999
 20
119.55
 30
0.0
 11
131.85
 21
119.55
 31
0.0
  0
ARC
  5
B89
330
1E
100
AcDbEntity
  8
PEG-L75AG
100
AcDbCircle
 10
134.6499999999997
 20
113.3
 30
0.0
 40
6.25
100
AcDbArc
 50
69.39030706246794
 51
110.609692937532
  0
ARC
  5
B8A
330
1E
100
AcDbEntity
  8
PEG-L75AG
100
AcDbCircle
 10
131.6499999999997
 20
118.55
 30
0.0
 40
1.0
100
AcDbArc
 50
36.86989764584402
 51
143.1301023541559
  0
ARC
  5
B8B
330
1E
100
AcDbEntity
  8
PEG-L75AG
100
AcDbCircle
 10
137.6499999999997
 20
118.55
 30
0.0
 40
1.0
100
AcDbArc
 50
36.86989764584402
 51
143.1301023541559
  0
LINE
  5
B8C
330
1E
100
AcDbEntity
  8
PEG-L75AG
100
AcDbLine
 10
132.45
 20
119.15
 30
0.0
 11
132.45
 21
116.3499999999999
 31
0.0
  0
LINE
  5
B8D
330
1E
100
AcDbEntity
  8
PEG-L75AG
100
AcDbLine
 10
130.8499999999999
 20
119.15
 30
0.0
 11
130.8499999999999
 21
116.3499999999999
 31
0.0
  0
LINE
  5
B8E
330
1E
100
AcDbEntity
  8
PEG-L75AG
100
AcDbLine
 10
276.25
 20
182.823487258731
 30
0.0
 11
276.25
 21
172.7778586653248
 31
0.0
  0
LINE
  5
B8F
330
1E
100
AcDbEntity
  8
PEG-L75AG
100
AcDbLine
 10
308.25
 20
172.7778586653245
 30
0.0
 11
308.25
 21
182.823487258731
 31
0.0
  0
LINE
  5
B94
330
1E
100
AcDbEntity
  8
PEG-L75AG
100
AcDbLine
 10
154.4930780618346
 20
182.3499999999999
 30
0.0
 11
153.8499999999999
 21
184.75
 31
0.0
  0
LINE
  5
BC2
330
1E
100
AcDbEntity
  8
PEG-L75AG
100
AcDbLine
 10
96.93172243103408
 20
182.3499999999999
 30
0.0
 11
96.28864436919938
 21
184.75
 31
0.0
  0
LINE
  5
C35
330
1E
100
AcDbEntity
  8
PEG-L75AG
100
AcDbLine
 10
262.25
 20
108.75
 30
0.0
 11
322.25
 21
108.75
 31
0.0
  0
LINE
  5
C36
330
1E
100
AcDbEntity
  8
PEG-L75AG
100
AcDbLine
 10
262.25
 20
115.9499999999999
 30
0.0
 11
322.25
 21
115.9499999999999
 31
0.0
  0
LINE
  5
C37
330
1E
100
AcDbEntity
  8
PEG-L75AG
100
AcDbLine
 10
322.25
 20
108.75
 30
0.0
 11
322.25
 21
115.9499999999999
 31
0.0
  0
LINE
  5
C38
330
1E
100
AcDbEntity
  8
PEG-L75AG
100
AcDbLine
 10
262.25
 20
108.75
 30
0.0
 11
262.25
 21
115.9499999999999
 31
0.0
  0
LINE
  5
C39
330
1E
100
AcDbEntity
  8
PEG-L75AG
100
AcDbLine
 10
292.2499999999999
 20
104.55
 30
0.0
 11
292.2499999999999
 21
189.15
 31
0.0
  0
LINE
  5
C3A
330
1E
100
AcDbEntity
  8
PEG-L75AG
100
AcDbLine
 10
262.25
 20
126.35
 30
0.0
 11
268.05
 21
126.35
 31
0.0
  0
LINE
  5
C3B
330
1E
100
AcDbEntity
  8
PEG-L75AG
100
AcDbLine
 10
262.25
 20
115.9499999999999
 30
0.0
 11
262.25
 21
126.35
 31
0.0
  0
LINE
  5
C3C
330
1E
100
AcDbEntity
  8
PEG-L75AG
100
AcDbLine
 10
322.25
 20
115.9499999999999
 30
0.0
 11
322.25
 21
126.35
 31
0.0
  0
LINE
  5
C3D
330
1E
100
AcDbEntity
  8
PEG-L75AG
100
AcDbLine
 10
322.25
 20
126.35
 30
0.0
 11
316.4499999999998
 21
126.35
 31
0.0
  0
LINE
  5
C3E
330
1E
100
AcDbEntity
  8
PEG-L75AG
100
AcDbLine
 10
273.45
 20
99.35
 30
0.0
 11
273.45
 21
106.3499999999999
 31
0.0
  0
LINE
  5
C3F
330
1E
100
AcDbEntity
  8
PEG-L75AG
100
AcDbLine
 10
263.05
 20
99.35
 30
0.0
 11
263.05
 21
106.3499999999999
 31
0.0
  0
LINE
  5
C40
330
1E
100
AcDbEntity
  8
PEG-L75AG
100
AcDbLine
 10
268.25
 20
93.55
 30
0.0
 11
268.25
 21
122.55
 31
0.0
  0
LINE
  5
C41
330
1E
100
AcDbEntity
  8
PEG-L75AG
100
AcDbLine
 10
274.25
 20
98.55
 30
0.0
 11
230.25
 21
98.55
 31
0.0
  0
LINE
  5
C42
330
1E
100
AcDbEntity
  8
PEG-L75AG
100
AcDbLine
 10
274.25
 20
96.75
 30
0.0
 11
230.25
 21
96.75
 31
0.0
  0
ARC
  5
C43
330
1E
100
AcDbEntity
  8
PEG-L75AG
100
AcDbCircle
 10
262.25
 20
99.35
 30
0.0
 40
0.8
100
AcDbArc
 50
270.0
 51
0.0
  0
ARC
  5
C44
330
1E
100
AcDbEntity
  8
PEG-L75AG
100
AcDbCircle
 10
274.25
 20
99.35
 30
0.0
 40
0.8
100
AcDbArc
 50
180.0
 51
270.0
  0
LINE
  5
C45
330
1E
100
AcDbEntity
  8
PEG-L75AG
100
AcDbLine
 10
274.25
 20
96.75
 30
0.0
 11
274.25
 21
98.55
 31
0.0
  0
LINE
  5
C46
330
1E
100
AcDbEntity
  8
PEG-L75AG
100
AcDbLine
 10
274.25
 20
107.15
 30
0.0
 11
262.25
 21
107.15
 31
0.0
  0
ARC
  5
C47
330
1E
100
AcDbEntity
  8
PEG-L75AG
100
AcDbCircle
 10
262.25
 20
106.3499999999999
 30
0.0
 40
0.8
100
AcDbArc
 50
0.0
 51
90.0
  0
LINE
  5
C48
330
1E
100
AcDbEntity
  8
PEG-L75AG
100
AcDbLine
 10
262.25
 20
107.15
 30
0.0
 11
262.25
 21
108.75
 31
0.0
  0
ARC
  5
C49
330
1E
100
AcDbEntity
  8
PEG-L75AG
100
AcDbCircle
 10
274.25
 20
106.3499999999999
 30
0.0
 40
0.8
100
AcDbArc
 50
90.0
 51
180.0
  0
LINE
  5
C4A
330
1E
100
AcDbEntity
  8
PEG-L75AG
100
AcDbLine
 10
274.25
 20
107.15
 30
0.0
 11
274.25
 21
108.75
 31
0.0
  0
LINE
  5
C4B
330
1E
100
AcDbEntity
  8
PEG-L75AG
100
AcDbLine
 10
230.25
 20
98.55
 30
0.0
 11
230.25
 21
96.75
 31
0.0
  0
LINE
  5
C4C
330
1E
100
AcDbEntity
  8
PEG-L75AG
100
AcDbLine
 10
130.8499999999999
 20
116.3499999999999
 30
0.0
 11
138.4499999999997
 21
116.3499999999999
 31
0.0
  0
LINE
  5
C4D
330
1E
100
AcDbEntity
  8
PEG-L75AG
100
AcDbLine
 10
138.4499999999997
 20
116.3499999999999
 30
0.0
 11
138.4499999999997
 21
115.9499999999999
 31
0.0
  0
LINE
  5
C4E
330
1E
100
AcDbEntity
  8
PEG-L75AG
100
AcDbLine
 10
130.8499999999999
 20
116.3499999999999
 30
0.0
 11
130.8499999999999
 21
115.9499999999999
 31
0.0
  0
LINE
  5
C4F
330
1E
100
AcDbEntity
  8
PEG-L75AG
100
AcDbLine
 10
275.4499999999999
 20
184.75
 30
0.0
 11
309.05
 21
184.75
 31
0.0
  0
LINE
  5
C5D
330
1E
100
AcDbEntity
  8
PEG-L75AG
100
AcDbLine
 10
308.25
 20
155.8939410285313
 30
0.0
 11
308.25
 21
165.9395696219376
 31
0.0
  0
LINE
  5
C5E
330
1E
100
AcDbEntity
  8
PEG-L75AG
100
AcDbLine
 10
276.25
 20
165.9395696219376
 30
0.0
 11
276.25
 21
155.8939410285313
 31
0.0
  0
LINE
  5
C5F
330
1E
100
AcDbEntity
  8
PEG-L75AG
100
AcDbLine
 10
276.25
 20
155.8939410285313
 30
0.0
 11
308.25
 21
155.8939410285313
 31
0.0
  0
LINE
  5
C60
330
1E
100
AcDbEntity
  8
PEG-L75AG
100
AcDbLine
 10
309.05
 20
170.35
 30
0.0
 11
309.05
 21
184.75
 31
0.0
  0
LINE
  5
C61
330
1E
100
AcDbEntity
  8
PEG-L75AG
100
AcDbLine
 10
275.4499999999999
 20
170.35
 30
0.0
 11
275.4499999999999
 21
184.75
 31
0.0
  0
LINE
  5
C62
330
1E
100
AcDbEntity
  8
PEG-L75AG
100
AcDbLine
 10
276.25
 20
172.7778586653248
 30
0.0
 11
308.25
 21
172.7778586653248
 31
0.0
  0
LINE
  5
C63
330
1E
100
AcDbEntity
  8
PEG-L75AG
100
AcDbLine
 10
276.25
 20
171.8413916515256
 30
0.0
 11
308.25
 21
171.8413916515256
 31
0.0
  0
LINE
  5
C64
330
1E
100
AcDbEntity
  8
PEG-L75AG
100
AcDbLine
 10
276.25
 20
182.823487258731
 30
0.0
 11
308.25
 21
182.823487258731
 31
0.0
  0
LINE
  5
C65
330
1E
100
AcDbEntity
  8
PEG-L75AG
100
AcDbLine
 10
276.25
 20
172.7778586653248
 30
0.0
 11
308.25
 21
172.7778586653245
 31
0.0
  0
LINE
  5
C66
330
1E
100
AcDbEntity
  8
PEG-L75AG
100
AcDbLine
 10
276.25
 20
165.9395696219376
 30
0.0
 11
308.25
 21
165.9395696219376
 31
0.0
  0
LINE
  5
C67
330
1E
100
AcDbEntity
  8
PEG-L75AG
100
AcDbLine
 10
307.85
 20
165.9395696219376
 30
0.0
 11
307.85
 21
171.8413916515256
 31
0.0
  0
LINE
  5
C68
330
1E
100
AcDbEntity
  8
PEG-L75AG
100
AcDbLine
 10
276.6499999999999
 20
165.9395696219376
 30
0.0
 11
276.6499999999999
 21
171.8413916515256
 31
0.0
  0
LINE
  5
C69
330
1E
100
AcDbEntity
  8
PEG-L75AG
100
AcDbLine
 10
275.4499999999999
 20
170.35
 30
0.0
 11
276.6499999999999
 21
170.35
 31
0.0
  0
ARC
  5
C6C
330
1E
100
AcDbEntity
  8
PEG-L75AG
100
AcDbCircle
 10
43.64999999999997
 20
118.55
 30
0.0
 40
1.0
100
AcDbArc
 50
36.86989764584402
 51
143.1301023541559
  0
LINE
  5
C6D
330
1E
100
AcDbEntity
  8
PEG-L75AG
100
AcDbLine
 10
49.44999999999999
 20
119.55
 30
0.0
 11
43.84999999999998
 21
119.55
 31
0.0
  0
ARC
  5
C6E
330
1E
100
AcDbEntity
  8
PEG-L75AG
100
AcDbCircle
 10
46.64999999999998
 20
113.3
 30
0.0
 40
6.25
100
AcDbArc
 50
69.39030706246794
 51
110.609692937532
  0
ARC
  5
C6F
330
1E
100
AcDbEntity
  8
PEG-L75AG
100
AcDbCircle
 10
49.64999999999998
 20
118.55
 30
0.0
 40
1.0
100
AcDbArc
 50
36.86989764584402
 51
143.1301023541559
  0
LINE
  5
C70
330
1E
100
AcDbEntity
  8
PEG-L75AG
100
AcDbLine
 10
42.84999999999999
 20
116.3499999999999
 30
0.0
 11
50.44999999999999
 21
116.3499999999999
 31
0.0
  0
LINE
  5
C71
330
1E
100
AcDbEntity
  8
PEG-L75AG
100
AcDbLine
 10
42.84999999999999
 20
119.15
 30
0.0
 11
42.84999999999999
 21
116.3499999999999
 31
0.0
  0
LINE
  5
C72
330
1E
100
AcDbEntity
  8
PEG-L75AG
100
AcDbLine
 10
42.84999999999999
 20
116.3499999999999
 30
0.0
 11
42.84999999999999
 21
115.9499999999999
 31
0.0
  0
LINE
  5
C73
330
1E
100
AcDbEntity
  8
PEG-L75AG
100
AcDbLine
 10
48.84999999999998
 20
119.15
 30
0.0
 11
48.84999999999998
 21
116.3499999999999
 31
0.0
  0
LINE
  5
C74
330
1E
100
AcDbEntity
  8
PEG-L75AG
100
AcDbLine
 10
50.44999999999999
 20
119.15
 30
0.0
 11
50.44999999999999
 21
116.3499999999999
 31
0.0
  0
LINE
  5
C75
330
1E
100
AcDbEntity
  8
PEG-L75AG
100
AcDbLine
 10
44.44999999999999
 20
119.15
 30
0.0
 11
44.44999999999999
 21
116.3499999999999
 31
0.0
  0
LINE
  5
C76
330
1E
100
AcDbEntity
  8
PEG-L75AG
100
AcDbLine
 10
50.44999999999999
 20
116.3499999999999
 30
0.0
 11
50.44999999999999
 21
115.9499999999999
 31
0.0
  0
LINE
  5
C77
330
1E
100
AcDbEntity
  8
PEG-L75AG
100
AcDbLine
 10
76.84999999999998
 20
174.9499999999999
 30
0.0
 11
67.64999999999997
 21
174.9499999999999
 31
0.0
  0
LINE
  5
C78
330
1E
100
AcDbEntity
  8
PEG-L75AG
100
AcDbLine
 10
76.04999999999998
 20
174.9499999999999
 30
0.0
 11
75.44999999999998
 21
174.35
 31
0.0
  0
LINE
  5
C79
330
1E
100
AcDbEntity
  8
PEG-L75AG
100
AcDbLine
 10
75.25
 20
174.9499999999999
 30
0.0
 11
74.64999999999998
 21
174.35
 31
0.0
  0
LINE
  5
C7A
330
1E
100
AcDbEntity
  8
PEG-L75AG
100
AcDbLine
 10
69.25
 20
174.9499999999999
 30
0.0
 11
68.64999999999998
 21
174.35
 31
0.0
  0
LINE
  5
C7B
330
1E
100
AcDbEntity
  8
PEG-L75AG
100
AcDbLine
 10
70.04999999999999
 20
174.9499999999999
 30
0.0
 11
69.44999999999999
 21
174.35
 31
0.0
  0
LINE
  5
C84
330
1E
100
AcDbEntity
  8
PEG-L75AG
100
AcDbLine
 10
81.44999999999997
 20
96.75
 30
0.0
 11
81.44999999999997
 21
98.55
 31
0.0
  0
LINE
  5
C85
330
1E
100
AcDbEntity
  8
PEG-L75AG
100
AcDbLine
 10
59.84999999999999
 20
96.75
 30
0.0
 11
59.84999999999999
 21
98.55
 31
0.0
  0
LINE
  5
C86
330
1E
100
AcDbEntity
  8
PEG-L75AG
100
AcDbLine
 10
121.4499999999999
 20
96.75
 30
0.0
 11
121.4499999999999
 21
98.55
 31
0.0
  0
LINE
  5
C87
330
1E
100
AcDbEntity
  8
PEG-L75AG
100
AcDbLine
 10
99.84999999999999
 20
96.75
 30
0.0
 11
99.84999999999999
 21
98.55
 31
0.0
  0
LINE
  5
C88
330
1E
100
AcDbEntity
  8
PEG-L75AG
100
AcDbLine
 10
110.6499999999999
 20
93.34999999999999
 30
0.0
 11
110.6499999999999
 21
101.95
 31
0.0
  0
LINE
  5
C8C
330
1E
100
AcDbEntity
  8
PEG-L75AG
100
AcDbLine
 10
233.4499999999999
 20
96.75
 30
0.0
 11
233.4499999999999
 21
98.55
 31
0.0
  0
LINE
  5
C8D
330
1E
100
AcDbEntity
  8
PEG-L75AG
100
AcDbLine
 10
244.2499999999999
 20
92.34999999999999
 30
0.0
 11
244.2499999999999
 21
102.75
 31
0.0
  0
LINE
  5
C8E
330
1E
100
AcDbEntity
  8
PEG-L75AG
100
AcDbLine
 10
255.0499999999999
 20
96.75
 30
0.0
 11
255.0499999999999
 21
98.55
 31
0.0
  0
LINE
  5
C8F
330
1E
100
AcDbEntity
  8
PEG-L75AG
100
AcDbLine
 10
310.25
 20
98.55
 30
0.0
 11
354.2499999999998
 21
98.55
 31
0.0
  0
LINE
  5
C90
330
1E
100
AcDbEntity
  8
PEG-L75AG
100
AcDbLine
 10
310.25
 20
96.75
 30
0.0
 11
354.2499999999998
 21
96.75
 31
0.0
  0
LINE
  5
C91
330
1E
100
AcDbEntity
  8
PEG-L75AG
100
AcDbLine
 10
310.25
 20
107.15
 30
0.0
 11
310.25
 21
108.75
 31
0.0
  0
LINE
  5
C92
330
1E
100
AcDbEntity
  8
PEG-L75AG
100
AcDbLine
 10
310.25
 20
107.15
 30
0.0
 11
322.25
 21
107.15
 31
0.0
  0
LINE
  5
C93
330
1E
100
AcDbEntity
  8
PEG-L75AG
100
AcDbLine
 10
310.25
 20
96.75
 30
0.0
 11
310.25
 21
98.55
 31
0.0
  0
LINE
  5
C94
330
1E
100
AcDbEntity
  8
PEG-L75AG
100
AcDbLine
 10
311.05
 20
99.35
 30
0.0
 11
311.05
 21
106.3499999999999
 31
0.0
  0
ARC
  5
C95
330
1E
100
AcDbEntity
  8
PEG-L75AG
100
AcDbCircle
 10
310.25
 20
99.35
 30
0.0
 40
0.8
100
AcDbArc
 50
270.0
 51
0.0
  0
ARC
  5
C96
330
1E
100
AcDbEntity
  8
PEG-L75AG
100
AcDbCircle
 10
310.25
 20
106.3499999999999
 30
0.0
 40
0.8
100
AcDbArc
 50
0.0
 51
90.0
  0
LINE
  5
C97
330
1E
100
AcDbEntity
  8
PEG-L75AG
100
AcDbLine
 10
322.25
 20
107.15
 30
0.0
 11
322.25
 21
108.75
 31
0.0
  0
LINE
  5
C98
330
1E
100
AcDbEntity
  8
PEG-L75AG
100
AcDbLine
 10
316.25
 20
93.55
 30
0.0
 11
316.25
 21
122.55
 31
0.0
  0
LINE
  5
C99
330
1E
100
AcDbEntity
  8
PEG-L75AG
100
AcDbLine
 10
321.45
 20
99.35
 30
0.0
 11
321.45
 21
106.3499999999999
 31
0.0
  0
ARC
  5
C9A
330
1E
100
AcDbEntity
  8
PEG-L75AG
100
AcDbCircle
 10
322.25
 20
106.3499999999999
 30
0.0
 40
0.8
100
AcDbArc
 50
90.0
 51
180.0
  0
LINE
  5
C9B
330
1E
100
AcDbEntity
  8
PEG-L75AG
100
AcDbLine
 10
351.05
 20
96.75
 30
0.0
 11
351.05
 21
98.55
 31
0.0
  0
LINE
  5
C9C
330
1E
100
AcDbEntity
  8
PEG-L75AG
100
AcDbLine
 10
354.2499999999998
 20
98.55
 30
0.0
 11
354.2499999999998
 21
96.75
 31
0.0
  0
LINE
  5
C9D
330
1E
100
AcDbEntity
  8
PEG-L75AG
100
AcDbLine
 10
329.4499999999998
 20
96.75
 30
0.0
 11
329.4499999999998
 21
98.55
 31
0.0
  0
ARC
  5
C9E
330
1E
100
AcDbEntity
  8
PEG-L75AG
100
AcDbCircle
 10
322.25
 20
99.35
 30
0.0
 40
0.8
100
AcDbArc
 50
180.0
 51
270.0
  0
LINE
  5
C9F
330
1E
100
AcDbEntity
  8
PEG-L75AG
100
AcDbLine
 10
264.4499999999999
 20
116.3499999999999
 30
0.0
 11
272.05
 21
116.3499999999999
 31
0.0
  0
ARC
  5
CA0
330
1E
100
AcDbEntity
  8
PEG-L75AG
100
AcDbCircle
 10
265.2499999999999
 20
118.55
 30
0.0
 40
1.0
100
AcDbArc
 50
36.86989764584402
 51
143.1301023541559
  0
LINE
  5
CA1
330
1E
100
AcDbEntity
  8
PEG-L75AG
100
AcDbLine
 10
264.4499999999999
 20
119.15
 30
0.0
 11
264.4499999999999
 21
116.3499999999999
 31
0.0
  0
LINE
  5
CA2
330
1E
100
AcDbEntity
  8
PEG-L75AG
100
AcDbLine
 10
264.4499999999999
 20
116.3499999999999
 30
0.0
 11
264.4499999999999
 21
115.9499999999999
 31
0.0
  0
LINE
  5
CA3
330
1E
100
AcDbEntity
  8
PEG-L75AG
100
AcDbLine
 10
270.4499999999999
 20
119.15
 30
0.0
 11
270.4499999999999
 21
116.3499999999999
 31
0.0
  0
LINE
  5
CA4
330
1E
100
AcDbEntity
  8
PEG-L75AG
100
AcDbLine
 10
272.05
 20
119.15
 30
0.0
 11
272.05
 21
116.3499999999999
 31
0.0
  0
LINE
  5
CA5
330
1E
100
AcDbEntity
  8
PEG-L75AG
100
AcDbLine
 10
266.05
 20
119.15
 30
0.0
 11
266.05
 21
116.3499999999999
 31
0.0
  0
LINE
  5
CA6
330
1E
100
AcDbEntity
  8
PEG-L75AG
100
AcDbLine
 10
272.05
 20
116.3499999999999
 30
0.0
 11
272.05
 21
115.9499999999999
 31
0.0
  0
LINE
  5
CA7
330
1E
100
AcDbEntity
  8
PEG-L75AG
100
AcDbLine
 10
271.05
 20
119.55
 30
0.0
 11
265.45
 21
119.55
 31
0.0
  0
ARC
  5
CA8
330
1E
100
AcDbEntity
  8
PEG-L75AG
100
AcDbCircle
 10
268.25
 20
113.3
 30
0.0
 40
6.25
100
AcDbArc
 50
69.39030706246794
 51
110.609692937532
  0
ARC
  5
CA9
330
1E
100
AcDbEntity
  8
PEG-L75AG
100
AcDbCircle
 10
271.2499999999999
 20
118.55
 30
0.0
 40
1.0
100
AcDbArc
 50
36.86989764584402
 51
143.1301023541559
  0
ARC
  5
CAA
330
1E
100
AcDbEntity
  8
PEG-L75AG
100
AcDbCircle
 10
316.25
 20
113.3
 30
0.0
 40
6.25
100
AcDbArc
 50
69.39030706246794
 51
110.609692937532
  0
LINE
  5
CAB
330
1E
100
AcDbEntity
  8
PEG-L75AG
100
AcDbLine
 10
319.05
 20
119.55
 30
0.0
 11
313.45
 21
119.55
 31
0.0
  0
LINE
  5
CAC
330
1E
100
AcDbEntity
  8
PEG-L75AG
100
AcDbLine
 10
312.4499999999998
 20
116.3499999999999
 30
0.0
 11
320.05
 21
116.3499999999999
 31
0.0
  0
LINE
  5
CAD
330
1E
100
AcDbEntity
  8
PEG-L75AG
100
AcDbLine
 10
314.05
 20
119.15
 30
0.0
 11
314.05
 21
116.3499999999999
 31
0.0
  0
LINE
  5
CAE
330
1E
100
AcDbEntity
  8
PEG-L75AG
100
AcDbLine
 10
312.4499999999998
 20
119.15
 30
0.0
 11
312.4499999999998
 21
116.3499999999999
 31
0.0
  0
LINE
  5
CAF
330
1E
100
AcDbEntity
  8
PEG-L75AG
100
AcDbLine
 10
312.4499999999998
 20
116.3499999999999
 30
0.0
 11
312.4499999999998
 21
115.9499999999999
 31
0.0
  0
ARC
  5
CB0
330
1E
100
AcDbEntity
  8
PEG-L75AG
100
AcDbCircle
 10
313.25
 20
118.55
 30
0.0
 40
1.0
100
AcDbArc
 50
36.86989764584402
 51
143.1301023541559
  0
LINE
  5
CB1
330
1E
100
AcDbEntity
  8
PEG-L75AG
100
AcDbLine
 10
320.05
 20
119.15
 30
0.0
 11
320.05
 21
116.3499999999999
 31
0.0
  0
LINE
  5
CB2
330
1E
100
AcDbEntity
  8
PEG-L75AG
100
AcDbLine
 10
318.4499999999998
 20
119.15
 30
0.0
 11
318.4499999999998
 21
116.3499999999999
 31
0.0
  0
LINE
  5
CB3
330
1E
100
AcDbEntity
  8
PEG-L75AG
100
AcDbLine
 10
320.05
 20
116.3499999999999
 30
0.0
 11
320.05
 21
115.9499999999999
 31
0.0
  0
ARC
  5
CB4
330
1E
100
AcDbEntity
  8
PEG-L75AG
100
AcDbCircle
 10
319.2499999999999
 20
118.55
 30
0.0
 40
1.0
100
AcDbArc
 50
36.86989764584402
 51
143.1301023541559
  0
LINE
  5
CB5
330
1E
100
AcDbEntity
  8
PEG-L75AG
100
AcDbLine
 10
276.25
 20
172.7778586653248
 30
0.0
 11
276.25
 21
171.8413916515256
 31
0.0
  0
LINE
  5
CB6
330
1E
100
AcDbEntity
  8
PEG-L75AG
100
AcDbLine
 10
308.25
 20
172.7778586653245
 30
0.0
 11
308.25
 21
171.8413916515256
 31
0.0
  0
LWPOLYLINE
  5
CB7
330
1E
100
AcDbEntity
  8
PEG-L75AG
100
AcDbPolyline
 90
        2
 70
     0
 43
0.0
 10
312.25
 20
147.0029075604152
 10
312.25
 20
147.0029075604152
 42
0.10155541118211
  0
LINE
  5
CBA
330
1E
100
AcDbEntity
  8
PEG-L75AG
100
AcDbLine
 10
309.05
 20
173.15
 30
0.0
 11
310.65
 21
173.15
 31
0.0
  0
LINE
  5
CBB
330
1E
100
AcDbEntity
  8
PEG-L75AG
100
AcDbLine
 10
308.25
 20
158.8342105263158
 30
0.0
 11
310.65
 21
158.8342105263158
 31
0.0
  0
LINE
  5
CBC
330
1E
100
AcDbEntity
  8
PEG-L75AG
100
AcDbLine
 10
276.25
 20
117.186082223464
 30
0.0
 11
308.25
 21
117.1860822234642
 31
0.0
  0
LINE
  5
CBD
330
1E
100
AcDbEntity
  8
PEG-L75AG
100
AcDbLine
 10
276.25
 20
128.1681778306694
 30
0.0
 11
308.25
 21
128.1681778306694
 31
0.0
  0
LINE
  5
CBE
330
1E
100
AcDbEntity
  8
PEG-L75AG
100
AcDbLine
 10
276.25
 20
118.122549237263
 30
0.0
 11
308.25
 21
118.122549237263
 31
0.0
  0
LINE
  5
CBF
330
1E
100
AcDbEntity
  8
PEG-L75AG
100
AcDbLine
 10
276.25
 20
128.1681778306694
 30
0.0
 11
276.25
 21
118.122549237263
 31
0.0
  0
LINE
  5
CC0
330
1E
100
AcDbEntity
  8
PEG-L75AG
100
AcDbLine
 10
276.25
 20
118.122549237263
 30
0.0
 11
276.25
 21
117.1860822234642
 31
0.0
  0
LINE
  5
CC1
330
1E
100
AcDbEntity
  8
PEG-L75AG
100
AcDbLine
 10
298.4499999999998
 20
123.15
 30
0.0
 11
298.45
 21
124.3615781599852
 31
0.0
  0
LINE
  5
CC2
330
1E
100
AcDbEntity
  8
PEG-L75AG
100
AcDbLine
 10
308.25
 20
118.122549237263
 30
0.0
 11
308.25
 21
128.1681778306694
 31
0.0
  0
LINE
  5
CC3
330
1E
100
AcDbEntity
  8
PEG-L75AG
100
AcDbLine
 10
308.25
 20
118.122549237263
 30
0.0
 11
308.25
 21
117.1860822234642
 31
0.0
  0
LINE
  5
CC4
330
1E
100
AcDbEntity
  8
PEG-L75AG
100
AcDbLine
 10
305.25
 20
123.15
 30
0.0
 11
305.25
 21
124.3615781599852
 31
0.0
  0
LINE
  5
CC5
330
1E
100
AcDbEntity
  8
PEG-L75AG
100
AcDbLine
 10
307.85
 20
128.1681778306694
 30
0.0
 11
307.85
 21
155.75
 31
0.0
  0
LINE
  5
CC6
330
1E
100
AcDbEntity
  8
PEG-L75AG
100
AcDbLine
 10
276.6499999999999
 20
128.1395696219375
 30
0.0
 11
276.6499999999999
 21
155.75
 31
0.0
  0
LINE
  5
CC7
330
1E
100
AcDbEntity
  8
PEG-L75AG
100
AcDbLine
 10
272.05
 20
116.7499999999999
 30
0.0
 11
312.4499999999998
 21
116.7499999999999
 31
0.0
  0
LINE
  5
CC8
330
1E
100
AcDbEntity
  8
PEG-L75AG
100
AcDbLine
 10
340.2499999999998
 20
92.55
 30
0.0
 11
340.2499999999998
 21
102.15
 31
0.0
  0
LINE
  5
CC9
330
1E
100
AcDbEntity
  8
PEG-L75AG
100
AcDbLine
 10
176.25
 20
116.7499999999999
 30
0.0
 11
103.3193079519157
 21
116.7499999999999
 31
0.0
  0
LINE
  5
CCA
330
1E
100
AcDbEntity
  8
PEG-L75AG
100
AcDbLine
 10
143.4499999999998
 20
136.7499999999999
 30
0.0
 11
129.0499999999999
 21
136.7499999999999
 31
0.0
  0
LINE
  5
CCB
330
1E
100
AcDbEntity
  8
PEG-L75AG
100
AcDbLine
 10
162.8186153337759
 20
182.3499999999999
 30
0.0
 11
89.85000000000002
 21
182.3499999999999
 31
0.0
  0
LINE
  5
CCC
330
1E
100
AcDbEntity
  8
PEG-L75AG
100
AcDbLine
 10
172.7546004538309
 20
156.7232119293314
 30
0.0
 11
166.6823186389322
 21
179.38527618041
 31
0.0
  0
LINE
  5
CCD
330
1E
100
AcDbEntity
  8
PEG-L75AG
100
AcDbLine
 10
180.25
 20
128.75
 30
0.0
 11
173.0030667371294
 21
155.7959231360939
 31
0.0
  0
LINE
  5
CCE
330
1E
100
AcDbEntity
  8
PEG-L75AG
100
AcDbLine
 10
179.3227112067623
 20
128.5015337167015
 30
0.0
 11
172.0757779438919
 21
155.5474568527955
 31
0.0
  0
LINE
  5
CCF
330
1E
100
AcDbEntity
  8
PEG-L75AG
100
AcDbLine
 10
180.25
 20
120.75
 30
0.0
 11
180.25
 21
127.7561348668063
 31
0.0
  0
ARC
  5
CD0
330
1E
100
AcDbEntity
  8
PEG-L75AG
100
AcDbCircle
 10
176.25
 20
120.75
 30
0.0
 40
4.0
100
AcDbArc
 50
270.0
 51
0.0
  0
LINE
  5
CD1
330
1E
100
AcDbEntity
  8
PEG-L75AG
100
AcDbLine
 10
180.25
 20
128.75
 30
0.0
 11
179.3227112067623
 21
128.5015337167015
 31
0.0
  0
ARC
  5
CD2
330
1E
100
AcDbEntity
  8
PEG-L75AG
100
AcDbCircle
 10
179.9105887450304
 20
128.1621224617319
 30
0.0
 40
0.48
100
AcDbArc
 50
104.9999999999996
 51
285.0000000000018
  0
LINE
  5
CD3
330
1E
100
AcDbEntity
  8
PEG-L75AG
100
AcDbLine
 10
180.25
 20
127.7561348668063
 30
0.0
 11
180.0348218866796
 21
127.6984780651132
 31
0.0
  0
CIRCLE
  5
CD4
330
1E
100
AcDbEntity
  8
PEG-L75AG
100
AcDbCircle
 10
156.25
 20
123.15
 30
0.0
 40
2.2
  0
LINE
  5
CD5
330
1E
100
AcDbEntity
  8
PEG-L75AG
100
AcDbLine
 10
173.0030667371294
 20
155.7959231360939
 30
0.0
 11
172.0757779438919
 21
155.5474568527955
 31
0.0
  0
LINE
  5
CD6
330
1E
100
AcDbEntity
  8
PEG-L75AG
100
AcDbLine
 10
172.7546004538309
 20
156.7232119293314
 30
0.0
 11
172.290956057212
 21
156.5989787876822
 31
0.0
  0
ARC
  5
CD7
330
1E
100
AcDbEntity
  8
PEG-L75AG
100
AcDbCircle
 10
172.4151891988612
 20
156.1353343910633
 30
0.0
 40
0.48
100
AcDbArc
 50
105.0000000000009
 51
284.9999999999996
  0
ARC
  5
CD8
330
1E
100
AcDbEntity
  8
PEG-L75AG
100
AcDbCircle
 10
162.8186153337759
 20
178.3499999999999
 30
0.0
 40
4.0
100
AcDbArc
 50
14.99999999999983
 51
90.0
  0
LINE
  5
CD9
330
1E
100
AcDbEntity
  8
PEG-L75AG
100
AcDbLine
 10
99.45560464675956
 20
119.7147238195899
 30
0.0
 11
85.84999999999999
 21
170.4915316289919
 31
0.0
  0
CIRCLE
  5
CDA
330
1E
100
AcDbEntity
  8
PEG-L75AG
100
AcDbCircle
 10
136.25
 20
136.7499999999999
 30
0.0
 40
3.2
  0
LINE
  5
CDB
330
1E
100
AcDbEntity
  8
PEG-L75AG
100
AcDbLine
 10
136.25
 20
129.55
 30
0.0
 11
136.25
 21
143.9499999999999
 31
0.0
  0
CIRCLE
  5
CDC
330
1E
100
AcDbEntity
  8
PEG-L75AG
100
AcDbCircle
 10
104.2499999999999
 20
123.15
 30
0.0
 40
2.2
  0
ARC
  5
CDD
330
1E
100
AcDbEntity
  8
PEG-L75AG
100
AcDbCircle
 10
103.3193079519157
 20
120.75
 30
0.0
 40
4.0
100
AcDbArc
 50
195.0
 51
270.0
  0
ARC
  5
CDE
330
1E
100
AcDbEntity
  8
PEG-L75AG
100
AcDbCircle
 10
89.85000000000002
 20
178.3499999999999
 30
0.0
 40
4.0
100
AcDbArc
 50
90.0
 51
180.0
  0
LINE
  5
CDF
330
1E
100
AcDbEntity
  8
PEG-L75AG
100
AcDbLine
 10
85.84999999999999
 20
170.4915316289919
 30
0.0
 11
85.84999999999999
 21
178.3499999999999
 31
0.0
  0
LINE
  5
CE0
330
1E
100
AcDbEntity
  8
PEG-L75AG
100
AcDbLine
 10
311.6499999999998
 20
182.3499999999999
 30
0.0
 11
311.6499999999998
 21
116.7499999999999
 31
0.0
  0
LINE
  5
CE1
330
1E
100
AcDbEntity
  8
PEG-L75AG
100
AcDbLine
 10
310.65
 20
182.3499999999999
 30
0.0
 11
310.65
 21
155.7959231360939
 31
0.0
  0
LINE
  5
CE2
330
1E
100
AcDbEntity
  8
PEG-L75AG
100
AcDbLine
 10
273.85
 20
182.3499999999999
 30
0.0
 11
273.85
 21
155.7959231360939
 31
0.0
  0
LINE
  5
CE3
330
1E
100
AcDbEntity
  8
PEG-L75AG
100
AcDbLine
 10
272.85
 20
182.3499999999999
 30
0.0
 11
272.85
 21
116.7499999999999
 31
0.0
  0
LINE
  5
CE4
330
1E
100
AcDbEntity
  8
PEG-L75AG
100
AcDbLine
 10
272.85
 20
182.3499999999999
 30
0.0
 11
273.85
 21
182.3499999999999
 31
0.0
  0
LINE
  5
CE5
330
1E
100
AcDbEntity
  8
PEG-L75AG
100
AcDbLine
 10
310.65
 20
182.3499999999999
 30
0.0
 11
311.6499999999998
 21
182.3499999999999
 31
0.0
  0
LINE
  5
CE6
330
1E
100
AcDbEntity
  8
PEG-L75AG
100
AcDbLine
 10
311.6499999999998
 20
173.15
 30
0.0
 11
316.7364216553493
 21
173.15
 31
0.0
  0
LINE
  5
CE7
330
1E
100
AcDbEntity
  8
PEG-L75AG
100
AcDbLine
 10
273.85
 20
173.15
 30
0.0
 11
275.4499999999999
 21
173.15
 31
0.0
  0
LINE
  5
CE8
330
1E
100
AcDbEntity
  8
PEG-L75AG
100
AcDbLine
 10
311.6499999999998
 20
158.8342105263158
 30
0.0
 11
318.2885324651016
 21
158.8342105263157
 31
0.0
  0
LINE
  5
CE9
330
1E
100
AcDbEntity
  8
PEG-L75AG
100
AcDbLine
 10
273.85
 20
158.8342105263157
 30
0.0
 11
276.25
 21
158.8342105263158
 31
0.0
  0
LINE
  5
CEA
330
1E
100
AcDbEntity
  8
PEG-L75AG
100
AcDbLine
 10
310.65
 20
126.35
 30
0.0
 11
308.25
 21
126.35
 31
0.0
  0
LINE
  5
CEB
330
1E
100
AcDbEntity
  8
PEG-L75AG
100
AcDbLine
 10
273.85
 20
126.35
 30
0.0
 11
276.25
 21
126.35
 31
0.0
  0
LINE
  5
CEC
330
1E
100
AcDbEntity
  8
PEG-L75AG
100
AcDbLine
 10
292.8499999999999
 20
128.75
 30
0.0
 11
292.85
 21
155.7959231360939
 31
0.0
  0
LINE
  5
CED
330
1E
100
AcDbEntity
  8
PEG-L75AG
100
AcDbLine
 10
291.6499999999998
 20
128.75
 30
0.0
 11
291.6499999999998
 21
155.7959231360939
 31
0.0
  0
LINE
  5
CEE
330
1E
100
AcDbEntity
  8
PEG-L75AG
100
AcDbLine
 10
272.85
 20
155.7959231360939
 30
0.0
 11
291.6499999999998
 21
155.7959231360939
 31
0.0
  0
LINE
  5
CEF
330
1E
100
AcDbEntity
  8
PEG-L75AG
100
AcDbLine
 10
272.85
 20
128.75
 30
0.0
 11
291.6499999999998
 21
128.75
 31
0.0
  0
LINE
  5
CF0
330
1E
100
AcDbEntity
  8
PEG-L75AG
100
AcDbLine
 10
310.65
 20
128.75
 30
0.0
 11
310.65
 21
116.7499999999999
 31
0.0
  0
LINE
  5
CF1
330
1E
100
AcDbEntity
  8
PEG-L75AG
100
AcDbLine
 10
273.85
 20
128.75
 30
0.0
 11
273.85
 21
116.7499999999999
 31
0.0
  0
LINE
  5
CF2
330
1E
100
AcDbEntity
  8
PEG-L75AG
100
AcDbLine
 10
292.8499999999999
 20
128.75
 30
0.0
 11
311.6499999999998
 21
128.75
 31
0.0
  0
LINE
  5
CF3
330
1E
100
AcDbEntity
  8
PEG-L75AG
100
AcDbLine
 10
292.85
 20
155.7959231360939
 30
0.0
 11
311.6499999999998
 21
155.7959231360939
 31
0.0
  0
CIRCLE
  5
CF4
330
1E
100
AcDbEntity
  8
PEG-L75AG
100
AcDbCircle
 10
136.25
 20
136.7499999999999
 30
0.0
 40
5.2
  0
LINE
  5
CF5
330
1E
100
AcDbEntity
  8
PEG-L75AG
100
AcDbLine
 10
272.8099999999999
 20
141.95
 30
0.0
 11
272.85
 21
141.95
 31
0.0
  0
LINE
  5
CF6
330
1E
100
AcDbEntity
  8
PEG-L75AG
100
AcDbLine
 10
271.85
 20
140.9899999999999
 30
0.0
 11
271.85
 21
132.5099999999999
 31
0.0
  0
ARC
  5
CF7
330
1E
100
AcDbEntity
  8
PEG-L75AG
100
AcDbCircle
 10
272.8099999999999
 20
132.5099999999999
 30
0.0
 40
0.9599999999999999
100
AcDbArc
 50
180.0
 51
272.3880154632666
  0
ARC
  5
CF8
330
1E
100
AcDbEntity
  8
PEG-L75AG
100
AcDbCircle
 10
272.8099999999999
 20
140.9899999999999
 30
0.0
 40
0.9599999999999999
100
AcDbArc
 50
90.0
 51
180.0
  0
LINE
  5
CF9
330
1E
100
AcDbEntity
  8
PEG-L75AG
100
AcDbLine
 10
268.85
 20
136.7499999999999
 30
0.0
 11
275.85
 21
136.7499999999999
 31
0.0
  0
LINE
  5
CFA
330
1E
100
AcDbEntity
  8
PEG-L75AG
100
AcDbLine
 10
312.65
 20
140.9899999999999
 30
0.0
 11
312.65
 21
132.5099999999999
 31
0.0
  0
ARC
  5
CFB
330
1E
100
AcDbEntity
  8
PEG-L75AG
100
AcDbCircle
 10
311.6899999999998
 20
132.5099999999999
 30
0.0
 40
0.9599999999999999
100
AcDbArc
 50
267.6119845367332
 51
0.0
  0
LINE
  5
CFC
330
1E
100
AcDbEntity
  8
PEG-L75AG
100
AcDbLine
 10
311.6899999999998
 20
141.95
 30
0.0
 11
311.6499999999998
 21
141.95
 31
0.0
  0
ARC
  5
CFD
330
1E
100
AcDbEntity
  8
PEG-L75AG
100
AcDbCircle
 10
311.6899999999998
 20
140.9899999999999
 30
0.0
 40
0.9599999999999999
100
AcDbArc
 50
0.0
 51
90.0
  0
LINE
  5
CFE
330
1E
100
AcDbEntity
  8
PEG-L75AG
100
AcDbLine
 10
329.85
 20
136.7499999999999
 30
0.0
 11
308.65
 21
136.7499999999999
 31
0.0
  0
LINE
  5
CFF
330
1E
100
AcDbEntity
  8
PEG-L75AG
100
AcDbLine
 10
307.85
 20
170.35
 30
0.0
 11
309.05
 21
170.35
 31
0.0
  0
LINE
  5
D00
330
1E
100
AcDbEntity
  8
PEG-L75AG
100
AcDbLine
 10
276.6499999999999
 20
170.35
 30
0.0
 11
307.85
 21
170.35
 31
0.0
  0
LWPOLYLINE
  5
D01
330
1E
100
AcDbEntity
  8
PEG-L75AG
100
AcDbPolyline
 90
        3
 70
     0
 43
0.0
 10
312.65
 20
135.15
 10
329.4499999999998
 20
135.15
 42
-0.3757351161049496
 10
332.6499999999998
 20
132.3499999999999
  0
LINE
  5
D06
330
1E
100
AcDbEntity
  8
PEG-L75AG
100
AcDbLine
 10
332.6499999999998
 20
132.3499999999999
 30
0.0
 11
332.6499999999998
 21
129.7423914700192
 31
0.0
  0
LWPOLYLINE
  5
D07
330
1E
100
AcDbEntity
  8
PEG-L75AG
100
AcDbPolyline
 90
        5
 70
     0
 43
0.0
 10
335.85
 20
128.3568281540468
 42
-0.0749393839523388
 10
335.05
 20
128.3499999999999
 42
-0.1288102474257438
 10
333.9934220689801
 20
128.7933226120594
 42
0.1470596431655768
 10
333.05
 20
129.15
 42
0.0442540222870122
 10
332.6499999999998
 20
129.1423914700195
 42
0.0821649844212136
  0
LWPOLYLINE
  5
D0E
330
1E
100
AcDbEntity
  8
PEG-L75AG
100
AcDbPolyline
 90
        5
 70
     0
 43
0.0
 10
335.85
 20
128.9568281540468
 42
-0.0749393839523388
 10
335.05
 20
128.9499999999997
 42
-0.1288102474257438
 10
333.9934220689801
 20
129.3933226120595
 42
0.1470596431655768
 10
333.05
 20
129.75
 42
0.0442540222870122
 10
332.6499999999998
 20
129.7423914700192
 42
0.0821649844212183
  0
LINE
  5
D15
330
1E
100
AcDbEntity
  8
PEG-L75AG
100
AcDbLine
 10
332.6499999999998
 20
129.1423914700195
 30
0.0
 11
332.6499999999998
 21
125.35
 31
0.0
  0
LWPOLYLINE
  5
D16
330
1E
100
AcDbEntity
  8
PEG-L75AG
100
AcDbPolyline
 90
        4
 70
     0
 43
0.0
 10
312.65
 20
138.3499999999999
 10
329.85
 20
138.3499999999999
 42
-0.3432179909921195
 10
335.85
 20
133.75
 10
335.85
 20
128.9568281540468
  0
LWPOLYLINE
  5
D1C
330
1E
100
AcDbEntity
  8
PEG-L75AG
100
AcDbPolyline
 90
        2
 70
     0
 43
0.0
 10
335.85
 20
128.3568281540468
 10
335.85
 20
125.35
  0
LINE
  5
D20
330
1E
100
AcDbEntity
  8
PEG-L75AG
100
AcDbLine
 10
335.85
 20
125.35
 30
0.0
 11
332.6499999999998
 21
125.35
 31
0.0
  0
ARC
  5
D21
330
1E
100
AcDbEntity
  8
PEG-L75AG
100
AcDbCircle
 10
329.8122950819672
 20
132.305737704918
 30
0.0
 40
4.444422235603981
100
AcDbArc
 50
3.150522818321446
 51
89.51391688941768
  0
LINE
  5
D22
330
1E
100
AcDbEntity
  8
PEG-L75AG
100
AcDbLine
 10
334.25
 20
132.55
 30
0.0
 11
334.25
 21
123.55
 31
0.0
  0
LINE
  5
D23
330
1E
100
AcDbEntity
  8
PEG-L75AG
100
AcDbLine
 10
334.25
 20
125.35
 30
0.0
 11
333.1105667585676
 21
118.7982588617635
 31
0.0
  0
LINE
  5
D24
330
1E
100
AcDbEntity
  8
PEG-L75AG
100
AcDbLine
 10
332.6499999999998
 20
125.35
 30
0.0
 11
331.5581718215436
 21
119.0719879738762
 31
0.0
  0
LINE
  5
D25
330
1E
100
AcDbEntity
  8
PEG-L75AG
100
AcDbLine
 10
330.7586768852361
 20
119.212960502087
 30
0.0
 11
333.9100616948749
 21
118.6572863335529
 31
0.0
  0
LINE
  5
D26
330
1E
100
AcDbEntity
  8
PEG-L75AG
100
AcDbLine
 10
333.9100616948749
 20
118.6572863335529
 30
0.0
 11
333.062709658093
 21
113.851714132534
 31
0.0
  0
LINE
  5
D27
330
1E
100
AcDbEntity
  8
PEG-L75AG
100
AcDbLine
 10
329.9113248484538
 20
114.4073883010682
 30
0.0
 11
330.7586768852361
 21
119.212960502087
 31
0.0
  0
ARC
  5
D28
330
1E
100
AcDbEntity
  8
PEG-L75AG
100
AcDbCircle
 10
331.0146431397868
 20
111.4505844949271
 30
0.0
 40
1.199999999999999
100
AcDbArc
 50
350.0
 51
170.0
  0
ARC
  5
D29
330
1E
100
AcDbEntity
  8
PEG-L75AG
100
AcDbCircle
 10
331.0146431397868
 20
111.4505844949271
 30
0.0
 40
2.6
100
AcDbArc
 50
129.6324064558145
 51
170.0
  0
ARC
  5
D2A
330
1E
100
AcDbEntity
  8
PEG-L75AG
100
AcDbCircle
 10
334.6384020629126
 20
113.5738770482669
 30
0.0
 40
1.6
100
AcDbArc
 50
170.0
 51
210.3675935441855
  0
ARC
  5
D2B
330
1E
100
AcDbEntity
  8
PEG-L75AG
100
AcDbCircle
 10
328.3356324436343
 20
114.6852253853352
 30
0.0
 40
1.6
100
AcDbArc
 50
309.6324064558142
 51
350.0
  0
LINE
  5
D2C
330
1E
100
AcDbEntity
  8
PEG-L75AG
100
AcDbLine
 10
332.1964124434016
 20
111.2422066817267
 30
0.0
 11
331.4670900972005
 21
107.1060141190755
 31
0.0
  0
LINE
  5
D2D
330
1E
100
AcDbEntity
  8
PEG-L75AG
100
AcDbLine
 10
331.4670900972005
 20
107.1060141190755
 30
0.0
 11
332.8458209514176
 21
106.8629066703419
 31
0.0
  0
LINE
  5
D2E
330
1E
100
AcDbEntity
  8
PEG-L75AG
100
AcDbLine
 10
332.8458209514176
 20
106.8629066703419
 30
0.0
 11
333.5751432976187
 21
110.9990992329929
 31
0.0
  0
LINE
  5
D2F
330
1E
100
AcDbEntity
  8
PEG-L75AG
100
AcDbLine
 10
327.724820635754
 20
107.7658771942099
 30
0.0
 11
328.454142981955
 21
111.9020697568612
 31
0.0
  0
LINE
  5
D30
330
1E
100
AcDbEntity
  8
PEG-L75AG
100
AcDbLine
 10
329.8328738361721
 20
111.6589623081275
 30
0.0
 11
329.1035514899712
 21
107.5227697454762
 31
0.0
  0
LINE
  5
D31
330
1E
100
AcDbEntity
  8
PEG-L75AG
100
AcDbLine
 10
329.1035514899712
 20
107.5227697454762
 30
0.0
 11
327.724820635754
 21
107.7658771942099
 31
0.0
  0
ARC
  5
D32
330
1E
100
AcDbEntity
  8
PEG-L75AG
100
AcDbCircle
 10
331.0146431397868
 20
111.4505844949271
 30
0.0
 40
2.6
100
AcDbArc
 50
350.0
 51
30.36759354418549
  0
LINE
  5
D33
330
1E
100
AcDbEntity
  8
PEG-L75AG
100
AcDbLine
 10
333.062709658093
 20
113.851714132534
 30
0.0
 11
329.9113248484538
 21
114.4073883010682
 31
0.0
  0
LINE
  5
D34
330
1E
100
AcDbEntity
  8
PEG-L75AG
100
AcDbLine
 10
334.25
 20
125.35
 30
0.0
 11
335.3894332414323
 21
118.7982588617635
 31
0.0
  0
LINE
  5
D35
330
1E
100
AcDbEntity
  8
PEG-L75AG
100
AcDbLine
 10
335.85
 20
125.35
 30
0.0
 11
336.9418281784561
 21
119.0719879738762
 31
0.0
  0
LINE
  5
D36
330
1E
100
AcDbEntity
  8
PEG-L75AG
100
AcDbLine
 10
334.5899383051248
 20
118.6572863335529
 30
0.0
 11
335.4372903419069
 21
113.851714132534
 31
0.0
  0
LINE
  5
D37
330
1E
100
AcDbEntity
  8
PEG-L75AG
100
AcDbLine
 10
337.7413231147638
 20
119.212960502087
 30
0.0
 11
334.5899383051248
 21
118.6572863335529
 31
0.0
  0
LINE
  5
D38
330
1E
100
AcDbEntity
  8
PEG-L75AG
100
AcDbLine
 10
338.6671261638277
 20
111.6589623081275
 30
0.0
 11
339.3964485100287
 21
107.5227697454762
 31
0.0
  0
LINE
  5
D39
330
1E
100
AcDbEntity
  8
PEG-L75AG
100
AcDbLine
 10
340.7751793642459
 20
107.7658771942099
 30
0.0
 11
340.0458570180447
 21
111.9020697568612
 31
0.0
  0
LINE
  5
D3A
330
1E
100
AcDbEntity
  8
PEG-L75AG
100
AcDbLine
 10
339.3964485100287
 20
107.5227697454762
 30
0.0
 11
340.7751793642459
 21
107.7658771942099
 31
0.0
  0
ARC
  5
D3B
330
1E
100
AcDbEntity
  8
PEG-L75AG
100
AcDbCircle
 10
337.4853568602128
 20
111.4505844949271
 30
0.0
 40
2.6
100
AcDbArc
 50
9.999999999999991
 51
50.36759354418546
  0
LINE
  5
D3C
330
1E
100
AcDbEntity
  8
PEG-L75AG
100
AcDbLine
 10
338.588675151546
 20
114.4073883010682
 30
0.0
 11
337.7413231147638
 21
119.212960502087
 31
0.0
  0
ARC
  5
D3D
330
1E
100
AcDbEntity
  8
PEG-L75AG
100
AcDbCircle
 10
337.4853568602128
 20
111.4505844949271
 30
0.0
 40
1.199999999999999
100
AcDbArc
 50
9.999999999999991
 51
190.0
  0
LINE
  5
D3E
330
1E
100
AcDbEntity
  8
PEG-L75AG
100
AcDbLine
 10
335.4372903419069
 20
113.851714132534
 30
0.0
 11
338.588675151546
 21
114.4073883010682
 31
0.0
  0
ARC
  5
D3F
330
1E
100
AcDbEntity
  8
PEG-L75AG
100
AcDbCircle
 10
340.1643675563655
 20
114.6852253853352
 30
0.0
 40
1.6
100
AcDbArc
 50
190.0
 51
230.3675935441856
  0
LINE
  5
D40
330
1E
100
AcDbEntity
  8
PEG-L75AG
100
AcDbLine
 10
335.6541790485823
 20
106.8629066703419
 30
0.0
 11
334.9248567023812
 21
110.9990992329929
 31
0.0
  0
LINE
  5
D41
330
1E
100
AcDbEntity
  8
PEG-L75AG
100
AcDbLine
 10
336.3035875565983
 20
111.2422066817267
 30
0.0
 11
337.0329099027993
 21
107.1060141190755
 31
0.0
  0
LINE
  5
D42
330
1E
100
AcDbEntity
  8
PEG-L75AG
100
AcDbLine
 10
337.0329099027993
 20
107.1060141190755
 30
0.0
 11
335.6541790485823
 21
106.8629066703419
 31
0.0
  0
ARC
  5
D43
330
1E
100
AcDbEntity
  8
PEG-L75AG
100
AcDbCircle
 10
333.8615979370873
 20
113.5738770482669
 30
0.0
 40
1.6
100
AcDbArc
 50
329.6324064558142
 51
9.999999999999991
  0
ARC
  5
D44
330
1E
100
AcDbEntity
  8
PEG-L75AG
100
AcDbCircle
 10
337.4853568602128
 20
111.4505844949271
 30
0.0
 40
2.6
100
AcDbArc
 50
149.6324064558145
 51
190.0
  0
LINE
  5
D45
330
1E
100
AcDbEntity
  8
PEG-L75AG
100
AcDbLine
 10
310.65
 20
128.75
 30
0.0
 11
310.65
 21
155.7959231360939
 31
0.0
  0
LINE
  5
D46
330
1E
100
AcDbEntity
  8
PEG-L75AG
100
AcDbLine
 10
273.8499999999999
 20
128.75
 30
0.0
 11
273.8499999999999
 21
155.7959231360939
 31
0.0
  0
LINE
  5
D47
330
1E
100
AcDbEntity
  8
PEG-L75AG
100
AcDbLine
 10
265.6499999999999
 20
123.15
 30
0.0
 11
275.85
 21
123.15
 31
0.0
  0
LINE
  5
D48
330
1E
100
AcDbEntity
  8
PEG-L75AG
100
AcDbLine
 10
272.85
 20
126.55
 30
0.0
 11
268.25
 21
126.55
 31
0.0
  0
LINE
  5
D49
330
1E
100
AcDbEntity
  8
PEG-L75AG
100
AcDbLine
 10
268.05
 20
126.35
 30
0.0
 11
268.05
 21
123.15
 31
0.0
  0
LINE
  5
D4A
330
1E
100
AcDbEntity
  8
PEG-L75AG
100
AcDbLine
 10
272.85
 20
119.75
 30
0.0
 11
268.25
 21
119.75
 31
0.0
  0
LINE
  5
D4B
330
1E
100
AcDbEntity
  8
PEG-L75AG
100
AcDbLine
 10
268.05
 20
119.95
 30
0.0
 11
268.05
 21
123.15
 31
0.0
  0
LINE
  5
D4C
330
1E
100
AcDbEntity
  8
PEG-L75AG
100
AcDbLine
 10
272.25
 20
126.55
 30
0.0
 11
272.25
 21
119.75
 31
0.0
  0
LINE
  5
D4D
330
1E
100
AcDbEntity
  8
PEG-L75AG
100
AcDbLine
 10
268.25
 20
119.75
 30
0.0
 11
268.05
 21
119.95
 31
0.0
  0
LINE
  5
D4E
330
1E
100
AcDbEntity
  8
PEG-L75AG
100
AcDbLine
 10
268.25
 20
126.55
 30
0.0
 11
268.05
 21
126.35
 31
0.0
  0
LINE
  5
D4F
330
1E
100
AcDbEntity
  8
PEG-L75AG
100
AcDbLine
 10
272.85
 20
120.75
 30
0.0
 11
272.25
 21
121.35
 31
0.0
  0
LINE
  5
D50
330
1E
100
AcDbEntity
  8
PEG-L75AG
100
AcDbLine
 10
272.85
 20
121.55
 30
0.0
 11
272.25
 21
122.15
 31
0.0
  0
LINE
  5
D51
330
1E
100
AcDbEntity
  8
PEG-L75AG
100
AcDbLine
 10
272.85
 20
124.15
 30
0.0
 11
272.25
 21
124.75
 31
0.0
  0
LINE
  5
D52
330
1E
100
AcDbEntity
  8
PEG-L75AG
100
AcDbLine
 10
272.85
 20
124.95
 30
0.0
 11
272.25
 21
125.55
 31
0.0
  0
LINE
  5
D53
330
1E
100
AcDbEntity
  8
PEG-L75AG
100
AcDbLine
 10
311.6499999999998
 20
126.55
 30
0.0
 11
316.25
 21
126.55
 31
0.0
  0
LINE
  5
D54
330
1E
100
AcDbEntity
  8
PEG-L75AG
100
AcDbLine
 10
316.25
 20
126.55
 30
0.0
 11
316.4499999999998
 21
126.35
 31
0.0
  0
LINE
  5
D55
330
1E
100
AcDbEntity
  8
PEG-L75AG
100
AcDbLine
 10
311.6499999999998
 20
124.15
 30
0.0
 11
312.25
 21
124.75
 31
0.0
  0
LINE
  5
D56
330
1E
100
AcDbEntity
  8
PEG-L75AG
100
AcDbLine
 10
311.6499999999998
 20
124.95
 30
0.0
 11
312.25
 21
125.55
 31
0.0
  0
LINE
  5
D57
330
1E
100
AcDbEntity
  8
PEG-L75AG
100
AcDbLine
 10
312.25
 20
126.55
 30
0.0
 11
312.25
 21
119.75
 31
0.0
  0
LINE
  5
D58
330
1E
100
AcDbEntity
  8
PEG-L75AG
100
AcDbLine
 10
311.6499999999998
 20
120.75
 30
0.0
 11
312.25
 21
121.35
 31
0.0
  0
LINE
  5
D59
330
1E
100
AcDbEntity
  8
PEG-L75AG
100
AcDbLine
 10
311.6499999999998
 20
121.55
 30
0.0
 11
312.25
 21
122.15
 31
0.0
  0
LINE
  5
D5A
330
1E
100
AcDbEntity
  8
PEG-L75AG
100
AcDbLine
 10
311.6499999999998
 20
119.75
 30
0.0
 11
316.25
 21
119.75
 31
0.0
  0
LINE
  5
D5B
330
1E
100
AcDbEntity
  8
PEG-L75AG
100
AcDbLine
 10
316.4499999999998
 20
126.35
 30
0.0
 11
316.4499999999998
 21
123.15
 31
0.0
  0
LINE
  5
D5C
330
1E
100
AcDbEntity
  8
PEG-L75AG
100
AcDbLine
 10
316.4499999999998
 20
119.95
 30
0.0
 11
316.4499999999998
 21
123.15
 31
0.0
  0
LINE
  5
D5D
330
1E
100
AcDbEntity
  8
PEG-L75AG
100
AcDbLine
 10
316.25
 20
119.75
 30
0.0
 11
316.4499999999998
 21
119.95
 31
0.0
  0
LINE
  5
D5E
330
1E
100
AcDbEntity
  8
PEG-L75AG
100
AcDbLine
 10
318.85
 20
123.15
 30
0.0
 11
308.65
 21
123.15
 31
0.0
  0
LINE
  5
D97
330
1E
100
AcDbEntity
  8
PEG-L75AG
100
AcDbLine
 10
134.6499999999997
 20
93.75
 30
0.0
 11
134.6499999999997
 21
122.75
 31
0.0
  0
LINE
  5
D98
330
1E
100
AcDbEntity
  8
PEG-L75AG
100
AcDbLine
 10
70.64999999999997
 20
93.34999999999999
 30
0.0
 11
70.64999999999997
 21
101.95
 31
0.0
  0
LINE
  5
DFA
330
1E
100
AcDbEntity
  8
PEG-L75AG
100
AcDbLine
 10
76.84999999999998
 20
174.9499999999999
 30
0.0
 11
77.25
 21
174.9499999999999
 31
0.0
  0
LINE
  5
DFB
330
1E
100
AcDbEntity
  8
PEG-L75AG
100
AcDbLine
 10
77.25
 20
174.9499999999999
 30
0.0
 11
77.25
 21
174.35
 31
0.0
  0
LINE
  5
DFC
330
1E
100
AcDbEntity
  8
PEG-L75AG
100
AcDbLine
 10
67.64999999999997
 20
174.9499999999999
 30
0.0
 11
67.25
 21
174.9499999999999
 31
0.0
  0
LINE
  5
DFD
330
1E
100
AcDbEntity
  8
PEG-L75AG
100
AcDbLine
 10
67.25
 20
174.9499999999999
 30
0.0
 11
67.25
 21
174.35
 31
0.0
  0
LINE
  5
E16
330
1E
100
AcDbEntity
  8
PEG-L75AG
100
AcDbLine
 10
56.91274169979696
 20
174.3499999999999
 30
0.0
 11
77.37610589171325
 21
174.35
 31
0.0
  0
LWPOLYLINE
  5
E22
330
1E
100
AcDbEntity
  8
PEG-L75AG
100
AcDbPolyline
 90
       16
 70
     1
 43
0.0
 10
304.85
 20
124.35
 42
0.1119247190749198
 10
304.6287663859732
 20
125.3259336041699
 42
0.1030783360639438
 10
303.9713203435596
 20
126.188477631085
 42
0.0926219775485416
 10
303.0168773891825
 20
126.7468993851087
 42
0.0863780754328249
 10
301.85
 20
126.95
 42
0.0863780754328282
 10
300.6831226108173
 20
126.7468993851087
 42
0.0926219775485521
 10
299.7286796564403
 20
126.188477631085
 42
0.1030783360639703
 10
299.0712336140266
 20
125.3259336041697
 42
0.1119247190749461
 10
298.85
 20
124.35
 42
0.1119247190749435
 10
299.0712336140266
 20
123.3740663958301
 42
0.1030783360639639
 10
299.7286796564403
 20
122.5115223689149
 42
0.0926219775485581
 10
300.6831226108173
 20
121.9531006148909
 42
0.0863780754328268
 10
301.85
 20
121.75
 42
0.0863780754328282
 10
303.0168773891825
 20
121.9531006148909
 42
0.0926219775485525
 10
303.9713203435596
 20
122.5115223689149
 42
0.1030783360639595
 10
304.6287663859732
 20
123.3740663958301
 42
0.1119247190749262
  0
LWPOLYLINE
  5
E34
330
1E
100
AcDbEntity
  8
PEG-L75AG
100
AcDbPolyline
 90
       16
 70
     1
 43
0.0
 10
305.25
 20
124.35
 42
0.1101684349312803
 10
304.9981826015429
 20
125.4790033741544
 42
0.1025859099047343
 10
304.2541630560342
 20
126.4713203435595
 42
0.0934149953728658
 10
303.1699795530357
 20
127.1163435644765
 42
0.0878249183358797
 10
301.85
 20
127.35
 42
0.0878249183358785
 10
300.5300204469643
 20
127.1163435644765
 42
0.0934149953728712
 10
299.4458369439657
 20
126.4713203435595
 42
0.1025859099047371
 10
298.7018173984569
 20
125.4790033741544
 42
0.1101684349312813
 10
298.45
 20
124.35
 42
0.1101684349312781
 10
298.7018173984569
 20
123.2209966258454
 42
0.1025859099047287
 10
299.4458369439657
 20
122.2286796564402
 42
0.0934149953728751
 10
300.5300204469643
 20
121.5836564355232
 42
0.0878249183358827
 10
301.85
 20
121.35
 42
0.0878249183358797
 10
303.1699795530357
 20
121.5836564355232
 42
0.0934149953728656
 10
304.2541630560342
 20
122.2286796564402
 42
0.1025859099047326
 10
304.9981826015429
 20
123.2209966258455
 42
0.1101684349312523
  0
LWPOLYLINE
  5
E49
330
1E
100
AcDbEntity
  8
PEG-L75AG
100
AcDbPolyline
 90
        9
 70
     0
 43
0.0
 10
298.45
 20
123.15
 42
0.1101684349312781
 10
298.7018173984569
 20
122.0209966258454
 42
0.1025859099047287
 10
299.4458369439657
 20
121.0286796564401
 42
0.0934149953728751
 10
300.5300204469643
 20
120.3836564355233
 42
0.0878249183358827
 10
301.85
 20
120.15
 42
0.0878249183358797
 10
303.1699795530357
 20
120.3836564355233
 42
0.0934149953728656
 10
304.2541630560342
 20
121.0286796564401
 42
0.1025859099047326
 10
304.9981826015429
 20
122.0209966258455
 42
0.1101684349312523
 10
305.25
 20
123.15
 42
0.1101684349312803
  0
LWPOLYLINE
  5
E54
330
1E
100
AcDbEntity
  8
PEG-L75AG
100
AcDbPolyline
 90
        2
 70
     0
 43
0.0
 10
305.4499999999998
 20
123.15
 42
0.0953206201181701
 10
305.2462566844655
 20
124.2090158735754
 42
0.1023760341356948
  0
LWPOLYLINE
  5
E58
330
1E
100
AcDbEntity
  8
PEG-L75AG
100
AcDbPolyline
 90
       10
 70
     0
 43
0.0
 10
298.4537433155344
 20
124.2090158735754
 42
0.0953206201181722
 10
298.2499999999999
 20
123.15
 42
0.1094518446865946
 10
298.51709674446
 20
121.9444606842309
 42
0.1023760341357163
 10
299.3044155877283
 20
120.8872583002029
 42
0.0937369940414508
 10
300.4534724245232
 20
120.1989253491609
 42
0.0884260944203377
 10
301.85
 20
119.95
 42
0.0884260944203338
 10
303.2465275754767
 20
120.1989253491609
 42
0.0937369940414472
 10
304.3955844122716
 20
120.8872583002029
 42
0.1023760341357016
 10
305.1829032555398
 20
121.9444606842307
 42
0.1094518446866017
 10
305.4499999999998
 20
123.15
 42
0.1094518446866118
  0
LWPOLYLINE
  5
E64
330
1E
100
AcDbEntity
  8
PEG-L75AG
100
AcDbPolyline
 90
        6
 70
     1
 43
0.0
 10
300.05
 20
124.35
 10
300.95
 20
122.791154273188
 10
302.7499999999998
 20
122.791154273188
 10
303.6499999999997
 20
124.35
 10
302.7499999999998
 20
125.908845726812
 10
300.95
 20
125.908845726812
  0
LWPOLYLINE
  5
E6C
330
1E
100
AcDbEntity
  8
PEG-L75AG
100
AcDbPolyline
 90
        4
 70
     0
 43
0.0
 10
303.5345299461618
 20
124.15
 10
302.7499999999998
 20
125.5088457268117
 10
300.95
 20
125.5088457268117
 10
300.1654700538379
 20
124.15
  0
LWPOLYLINE
  5
E72
330
1E
100
AcDbEntity
  8
PEG-L75AG
100
AcDbPolyline
 90
        6
 70
     1
 43
0.0
 10
284.45
 20
124.35
 10
283.55
 20
122.791154273188
 10
281.7499999999999
 20
122.791154273188
 10
280.85
 20
124.35
 10
281.7499999999999
 20
125.908845726812
 10
283.55
 20
125.908845726812
  0
LWPOLYLINE
  5
E7A
330
1E
100
AcDbEntity
  8
PEG-L75AG
100
AcDbPolyline
 90
       16
 70
     1
 43
0.0
 10
279.2499999999999
 20
124.35
 42
-0.1101684349312803
 10
279.5018173984569
 20
125.4790033741544
 42
-0.1025859099047343
 10
280.2458369439656
 20
126.4713203435595
 42
-0.0934149953728658
 10
281.3300204469641
 20
127.1163435644765
 42
-0.0878249183358797
 10
282.6499999999997
 20
127.35
 42
-0.0878249183358785
 10
283.9699795530356
 20
127.1163435644765
 42
-0.0934149953728712
 10
285.0541630560342
 20
126.4713203435595
 42
-0.1025859099047371
 10
285.7981826015428
 20
125.4790033741544
 42
-0.1101684349312813
 10
286.05
 20
124.35
 42
-0.1101684349312781
 10
285.7981826015428
 20
123.2209966258454
 42
-0.1025859099047287
 10
285.0541630560342
 20
122.2286796564402
 42
-0.0934149953728751
 10
283.9699795530356
 20
121.5836564355232
 42
-0.0878249183358827
 10
282.6499999999997
 20
121.35
 42
-0.0878249183358797
 10
281.3300204469641
 20
121.5836564355232
 42
-0.0934149953728656
 10
280.2458369439656
 20
122.2286796564402
 42
-0.1025859099047326
 10
279.5018173984569
 20
123.2209966258455
 42
-0.1101684349312523
  0
LWPOLYLINE
  5
E8C
330
1E
100
AcDbEntity
  8
PEG-L75AG
100
AcDbPolyline
 90
       16
 70
     1
 43
0.0
 10
279.6499999999999
 20
124.35
 42
-0.1119247190749198
 10
279.8712336140265
 20
125.3259336041699
 42
-0.1030783360639438
 10
280.5286796564404
 20
126.188477631085
 42
-0.0926219775485416
 10
281.4831226108172
 20
126.7468993851087
 42
-0.0863780754328249
 10
282.6499999999997
 20
126.95
 42
-0.0863780754328282
 10
283.8168773891825
 20
126.7468993851087
 42
-0.0926219775485521
 10
284.7713203435594
 20
126.188477631085
 42
-0.1030783360639703
 10
285.4287663859731
 20
125.3259336041697
 42
-0.1119247190749461
 10
285.65
 20
124.35
 42
-0.1119247190749435
 10
285.4287663859731
 20
123.3740663958301
 42
-0.1030783360639639
 10
284.7713203435594
 20
122.5115223689149
 42
-0.0926219775485581
 10
283.8168773891823
 20
121.9531006148909
 42
-0.0863780754328268
 10
282.6499999999997
 20
121.75
 42
-0.0863780754328282
 10
281.4831226108172
 20
121.9531006148909
 42
-0.0926219775485525
 10
280.5286796564404
 20
122.5115223689149
 42
-0.1030783360639595
 10
279.8712336140265
 20
123.3740663958301
 42
-0.1119247190749262
  0
LWPOLYLINE
  5
E9E
330
1E
100
AcDbEntity
  8
PEG-L75AG
100
AcDbPolyline
 90
       10
 70
     0
 43
0.0
 10
286.0462566844655
 20
124.2090158735754
 42
-0.0953206201181722
 10
286.25
 20
123.15
 42
-0.1094518446865946
 10
285.98290325554
 20
121.9444606842309
 42
-0.1023760341357163
 10
285.1955844122716
 20
120.8872583002029
 42
-0.0937369940414508
 10
284.0465275754766
 20
120.1989253491609
 42
-0.0884260944203377
 10
282.6499999999997
 20
119.95
 42
-0.0884260944203338
 10
281.253472424523
 20
120.1989253491609
 42
-0.0937369940414472
 10
280.1044155877281
 20
120.8872583002029
 42
-0.1023760341357016
 10
279.3170967444599
 20
121.9444606842307
 42
-0.1094518446866017
 10
279.05
 20
123.15
 42
-0.1094518446866118
  0
LWPOLYLINE
  5
EAA
330
1E
100
AcDbEntity
  8
PEG-L75AG
100
AcDbPolyline
 90
        9
 70
     0
 43
0.0
 10
286.05
 20
123.15
 42
-0.1101684349312781
 10
285.7981826015428
 20
122.0209966258454
 42
-0.1025859099047287
 10
285.0541630560342
 20
121.0286796564401
 42
-0.0934149953728751
 10
283.9699795530356
 20
120.3836564355233
 42
-0.0878249183358827
 10
282.6499999999997
 20
120.15
 42
-0.0878249183358797
 10
281.3300204469641
 20
120.3836564355233
 42
-0.0934149953728656
 10
280.2458369439656
 20
121.0286796564401
 42
-0.1025859099047326
 10
279.5018173984569
 20
122.0209966258455
 42
-0.1101684349312523
 10
279.2499999999999
 20
123.15
 42
-0.1101684349312803
  0
LINE
  5
EB5
330
1E
100
AcDbEntity
  8
PEG-L75AG
100
AcDbLine
 10
286.05
 20
123.15
 30
0.0
 11
286.05
 21
124.3615781599852
 31
0.0
  0
LWPOLYLINE
  5
EB6
330
1E
100
AcDbEntity
  8
PEG-L75AG
100
AcDbPolyline
 90
        4
 70
     0
 43
0.0
 10
280.9654700538379
 20
124.15
 10
281.7499999999999
 20
125.5088457268117
 10
283.55
 20
125.5088457268117
 10
284.3345299461621
 20
124.15
  0
LWPOLYLINE
  5
EBC
330
1E
100
AcDbEntity
  8
PEG-L75AG
100
AcDbPolyline
 90
        2
 70
     0
 43
0.0
 10
279.05
 20
123.15
 42
-0.0953206201181701
 10
279.2537433155345
 20
124.2090158735754
 42
-0.1023760341356948
  0
LINE
  5
EC0
330
1E
100
AcDbEntity
  8
PEG-L75AG
100
AcDbLine
 10
279.2499999999999
 20
123.15
 30
0.0
 11
279.2499999999999
 21
124.3615781599852
 31
0.0
  0
LWPOLYLINE
  5
EC1
330
1E
100
AcDbEntity
  8
PEG-L75AG
100
AcDbPolyline
 90
        9
 70
     0
 43
0.0
 10
286.05
 20
160.9499999999998
 42
-0.1101684349312781
 10
285.7981826015428
 20
159.8209966258454
 42
-0.1025859099047287
 10
285.0541630560342
 20
158.8286796564403
 42
-0.0934149953728751
 10
283.9699795530356
 20
158.1836564355233
 42
-0.0878249183358827
 10
282.6499999999997
 20
157.9499999999999
 42
-0.0878249183358797
 10
281.3300204469641
 20
158.1836564355233
 42
-0.0934149953728656
 10
280.2458369439656
 20
158.8286796564403
 42
-0.1025859099047326
 10
279.5018173984569
 20
159.8209966258455
 42
-0.1101684349312523
 10
279.2499999999999
 20
160.9499999999998
 42
-0.1101684349312803
  0
LWPOLYLINE
  5
ECC
330
1E
100
AcDbEntity
  8
PEG-L75AG
100
AcDbPolyline
 90
       10
 70
     0
 43
0.0
 10
286.0462566844655
 20
162.0090158735754
 42
-0.0953206201181722
 10
286.25
 20
160.9499999999998
 42
-0.1094518446865946
 10
285.98290325554
 20
159.7444606842308
 42
-0.1023760341357163
 10
285.1955844122716
 20
158.687258300203
 42
-0.0937369940414508
 10
284.0465275754766
 20
157.9989253491609
 42
-0.0884260944203377
 10
282.6499999999997
 20
157.75
 42
-0.0884260944203338
 10
281.253472424523
 20
157.9989253491609
 42
-0.0937369940414472
 10
280.1044155877281
 20
158.687258300203
 42
-0.1023760341357016
 10
279.3170967444599
 20
159.7444606842308
 42
-0.1094518446866017
 10
279.05
 20
160.9499999999998
 42
-0.1094518446866118
  0
LWPOLYLINE
  5
ED8
330
1E
100
AcDbEntity
  8
PEG-L75AG
100
AcDbPolyline
 90
       16
 70
     1
 43
0.0
 10
279.6499999999999
 20
162.15
 42
-0.1119247190749198
 10
279.8712336140265
 20
163.1259336041698
 42
-0.1030783360639438
 10
280.5286796564404
 20
163.988477631085
 42
-0.0926219775485416
 10
281.4831226108172
 20
164.5468993851088
 42
-0.0863780754328249
 10
282.6499999999997
 20
164.7499999999999
 42
-0.0863780754328282
 10
283.8168773891825
 20
164.5468993851088
 42
-0.0926219775485521
 10
284.7713203435594
 20
163.988477631085
 42
-0.1030783360639703
 10
285.4287663859731
 20
163.1259336041698
 42
-0.1119247190749461
 10
285.65
 20
162.15
 42
-0.1119247190749435
 10
285.4287663859731
 20
161.17406639583
 42
-0.1030783360639639
 10
284.7713203435594
 20
160.3115223689149
 42
-0.0926219775485581
 10
283.8168773891823
 20
159.753100614891
 42
-0.0863780754328268
 10
282.6499999999997
 20
159.55
 42
-0.0863780754328282
 10
281.4831226108172
 20
159.7531006148912
 42
-0.0926219775485525
 10
280.5286796564404
 20
160.3115223689149
 42
-0.1030783360639595
 10
279.8712336140265
 20
161.17406639583
 42
-0.1119247190749262
  0
LWPOLYLINE
  5
EEA
330
1E
100
AcDbEntity
  8
PEG-L75AG
100
AcDbPolyline
 90
       16
 70
     1
 43
0.0
 10
279.2499999999999
 20
162.15
 42
-0.1101684349312803
 10
279.5018173984569
 20
163.2790033741544
 42
-0.1025859099047343
 10
280.2458369439656
 20
164.2713203435594
 42
-0.0934149953728658
 10
281.3300204469641
 20
164.9163435644766
 42
-0.0878249183358797
 10
282.6499999999997
 20
165.15
 42
-0.0878249183358785
 10
283.9699795530356
 20
164.9163435644766
 42
-0.0934149953728712
 10
285.0541630560342
 20
164.2713203435594
 42
-0.1025859099047371
 10
285.7981826015428
 20
163.2790033741544
 42
-0.1101684349312813
 10
286.05
 20
162.15
 42
-0.1101684349312781
 10
285.7981826015428
 20
161.0209966258454
 42
-0.1025859099047287
 10
285.0541630560342
 20
160.0286796564403
 42
-0.0934149953728751
 10
283.9699795530356
 20
159.3836564355233
 42
-0.0878249183358827
 10
282.6499999999997
 20
159.15
 42
-0.0878249183358797
 10
281.3300204469641
 20
159.3836564355233
 42
-0.0934149953728656
 10
280.2458369439656
 20
160.0286796564403
 42
-0.1025859099047326
 10
279.5018173984569
 20
161.0209966258454
 42
-0.1101684349312523
  0
LWPOLYLINE
  5
EFC
330
1E
100
AcDbEntity
  8
PEG-L75AG
100
AcDbPolyline
 90
        6
 70
     1
 43
0.0
 10
284.45
 20
162.15
 10
283.55
 20
160.591154273188
 10
281.7499999999999
 20
160.591154273188
 10
280.85
 20
162.15
 10
281.7499999999999
 20
163.708845726812
 10
283.55
 20
163.708845726812
  0
LWPOLYLINE
  5
F04
330
1E
100
AcDbEntity
  8
PEG-L75AG
100
AcDbPolyline
 90
        4
 70
     0
 43
0.0
 10
280.9654700538379
 20
161.9499999999999
 10
281.7499999999999
 20
163.3088457268119
 10
283.55
 20
163.3088457268119
 10
284.3345299461621
 20
161.9499999999999
  0
LINE
  5
F0A
330
1E
100
AcDbEntity
  8
PEG-L75AG
100
AcDbLine
 10
279.2499999999999
 20
160.9499999999998
 30
0.0
 11
279.2499999999999
 21
162.161578159985
 31
0.0
  0
LWPOLYLINE
  5
F0B
330
1E
100
AcDbEntity
  8
PEG-L75AG
100
AcDbPolyline
 90
        2
 70
     0
 43
0.0
 10
279.05
 20
160.9499999999998
 42
-0.0953206201181701
 10
279.2537433155345
 20
162.0090158735754
 42
-0.1023760341356948
  0
LWPOLYLINE
  5
F0F
330
1E
100
AcDbEntity
  8
PEG-L75AG
100
AcDbPolyline
 90
        6
 70
     1
 43
0.0
 10
300.05
 20
162.15
 10
300.95
 20
160.591154273188
 10
302.7499999999998
 20
160.591154273188
 10
303.6499999999997
 20
162.15
 10
302.7499999999998
 20
163.708845726812
 10
300.95
 20
163.708845726812
  0
LWPOLYLINE
  5
F17
330
1E
100
AcDbEntity
  8
PEG-L75AG
100
AcDbPolyline
 90
       16
 70
     1
 43
0.0
 10
305.25
 20
162.15
 42
0.1101684349312803
 10
304.9981826015429
 20
163.2790033741544
 42
0.1025859099047343
 10
304.2541630560342
 20
164.2713203435594
 42
0.0934149953728658
 10
303.1699795530357
 20
164.9163435644766
 42
0.0878249183358797
 10
301.85
 20
165.15
 42
0.0878249183358785
 10
300.5300204469643
 20
164.9163435644766
 42
0.0934149953728712
 10
299.4458369439657
 20
164.2713203435594
 42
0.1025859099047371
 10
298.7018173984569
 20
163.2790033741544
 42
0.1101684349312813
 10
298.45
 20
162.15
 42
0.1101684349312781
 10
298.7018173984569
 20
161.0209966258454
 42
0.1025859099047287
 10
299.4458369439657
 20
160.0286796564403
 42
0.0934149953728751
 10
300.5300204469643
 20
159.3836564355233
 42
0.0878249183358827
 10
301.85
 20
159.15
 42
0.0878249183358797
 10
303.1699795530357
 20
159.3836564355233
 42
0.0934149953728656
 10
304.2541630560342
 20
160.0286796564403
 42
0.1025859099047326
 10
304.9981826015429
 20
161.0209966258454
 42
0.1101684349312523
  0
LWPOLYLINE
  5
F29
330
1E
100
AcDbEntity
  8
PEG-L75AG
100
AcDbPolyline
 90
       16
 70
     1
 43
0.0
 10
304.85
 20
162.15
 42
0.1119247190749198
 10
304.6287663859732
 20
163.1259336041698
 42
0.1030783360639438
 10
303.9713203435596
 20
163.988477631085
 42
0.0926219775485416
 10
303.0168773891825
 20
164.5468993851088
 42
0.0863780754328249
 10
301.85
 20
164.7499999999999
 42
0.0863780754328282
 10
300.6831226108173
 20
164.5468993851088
 42
0.0926219775485521
 10
299.7286796564403
 20
163.988477631085
 42
0.1030783360639703
 10
299.0712336140266
 20
163.1259336041698
 42
0.1119247190749461
 10
298.85
 20
162.15
 42
0.1119247190749435
 10
299.0712336140266
 20
161.17406639583
 42
0.1030783360639639
 10
299.7286796564403
 20
160.3115223689149
 42
0.0926219775485581
 10
300.6831226108173
 20
159.753100614891
 42
0.0863780754328268
 10
301.85
 20
159.55
 42
0.0863780754328282
 10
303.0168773891825
 20
159.7531006148912
 42
0.0926219775485525
 10
303.9713203435596
 20
160.3115223689149
 42
0.1030783360639595
 10
304.6287663859732
 20
161.17406639583
 42
0.1119247190749262
  0
LWPOLYLINE
  5
F3B
330
1E
100
AcDbEntity
  8
PEG-L75AG
100
AcDbPolyline
 90
       10
 70
     0
 43
0.0
 10
298.4537433155344
 20
162.0090158735754
 42
0.0953206201181722
 10
298.2499999999999
 20
160.9499999999998
 42
0.1094518446865946
 10
298.51709674446
 20
159.7444606842308
 42
0.1023760341357163
 10
299.3044155877283
 20
158.687258300203
 42
0.0937369940414508
 10
300.4534724245232
 20
157.9989253491609
 42
0.0884260944203377
 10
301.85
 20
157.75
 42
0.0884260944203338
 10
303.2465275754767
 20
157.9989253491609
 42
0.0937369940414472
 10
304.3955844122716
 20
158.687258300203
 42
0.1023760341357016
 10
305.1829032555398
 20
159.7444606842308
 42
0.1094518446866017
 10
305.4499999999998
 20
160.9499999999998
 42
0.1094518446866118
  0
LWPOLYLINE
  5
F47
330
1E
100
AcDbEntity
  8
PEG-L75AG
100
AcDbPolyline
 90
        9
 70
     0
 43
0.0
 10
298.45
 20
160.9499999999998
 42
0.1101684349312781
 10
298.7018173984569
 20
159.8209966258454
 42
0.1025859099047287
 10
299.4458369439657
 20
158.8286796564403
 42
0.0934149953728751
 10
300.5300204469643
 20
158.1836564355233
 42
0.0878249183358827
 10
301.85
 20
157.9499999999999
 42
0.0878249183358797
 10
303.1699795530357
 20
158.1836564355233
 42
0.0934149953728656
 10
304.2541630560342
 20
158.8286796564403
 42
0.1025859099047326
 10
304.9981826015429
 20
159.8209966258455
 42
0.1101684349312523
 10
305.25
 20
160.9499999999998
 42
0.1101684349312803
  0
LINE
  5
F52
330
1E
100
AcDbEntity
  8
PEG-L75AG
100
AcDbLine
 10
286.05
 20
160.9499999999998
 30
0.0
 11
286.05
 21
162.161578159985
 31
0.0
  0
LINE
  5
F53
330
1E
100
AcDbEntity
  8
PEG-L75AG
100
AcDbLine
 10
298.4499999999998
 20
160.9499999999998
 30
0.0
 11
298.45
 21
162.161578159985
 31
0.0
  0
LWPOLYLINE
  5
F54
330
1E
100
AcDbEntity
  8
PEG-L75AG
100
AcDbPolyline
 90
        4
 70
     0
 43
0.0
 10
303.5345299461618
 20
161.9499999999999
 10
302.7499999999998
 20
163.3088457268119
 10
300.95
 20
163.3088457268119
 10
300.1654700538379
 20
161.9499999999999
  0
LWPOLYLINE
  5
F5A
330
1E
100
AcDbEntity
  8
PEG-L75AG
100
AcDbPolyline
 90
        2
 70
     0
 43
0.0
 10
305.4499999999998
 20
160.9499999999998
 42
0.0953206201181701
 10
305.2462566844655
 20
162.0090158735754
 42
0.1023760341356948
  0
LINE
  5
F5E
330
1E
100
AcDbEntity
  8
PEG-L75AG
100
AcDbLine
 10
305.25
 20
160.9499999999998
 30
0.0
 11
305.25
 21
162.161578159985
 31
0.0
  0
LWPOLYLINE
  5
F5F
330
1E
100
AcDbEntity
  8
PEG-L75AG
100
AcDbPolyline
 90
       16
 70
     1
 43
0.0
 10
279.2499999999999
 20
178.9499999999999
 42
-0.1101684349312803
 10
279.5018173984569
 20
180.0790033741545
 42
-0.1025859099047343
 10
280.2458369439656
 20
181.0713203435596
 42
-0.0934149953728658
 10
281.3300204469641
 20
181.7163435644765
 42
-0.0878249183358797
 10
282.6499999999997
 20
181.9499999999999
 42
-0.0878249183358785
 10
283.9699795530356
 20
181.7163435644767
 42
-0.0934149953728712
 10
285.0541630560342
 20
181.0713203435596
 42
-0.1025859099047371
 10
285.7981826015428
 20
180.0790033741545
 42
-0.1101684349312813
 10
286.05
 20
178.9499999999999
 42
-0.1101684349312781
 10
285.7981826015428
 20
177.8209966258454
 42
-0.1025859099047287
 10
285.0541630560342
 20
176.8286796564403
 42
-0.0934149953728751
 10
283.9699795530356
 20
176.1836564355231
 42
-0.0878249183358827
 10
282.6499999999997
 20
175.9499999999999
 42
-0.0878249183358797
 10
281.3300204469641
 20
176.1836564355231
 42
-0.0934149953728656
 10
280.2458369439656
 20
176.8286796564403
 42
-0.1025859099047326
 10
279.5018173984569
 20
177.8209966258456
 42
-0.1101684349312523
  0
LWPOLYLINE
  5
F71
330
1E
100
AcDbEntity
  8
PEG-L75AG
100
AcDbPolyline
 90
       16
 70
     1
 43
0.0
 10
279.6499999999999
 20
178.9499999999999
 42
-0.1119247190749198
 10
279.8712336140265
 20
179.9259336041699
 42
-0.1030783360639438
 10
280.5286796564404
 20
180.788477631085
 42
-0.0926219775485416
 10
281.4831226108172
 20
181.3468993851086
 42
-0.0863780754328249
 10
282.6499999999997
 20
181.55
 42
-0.0863780754328282
 10
283.8168773891825
 20
181.3468993851086
 42
-0.0926219775485521
 10
284.7713203435594
 20
180.788477631085
 42
-0.1030783360639703
 10
285.4287663859731
 20
179.9259336041698
 42
-0.1119247190749461
 10
285.65
 20
178.9499999999999
 42
-0.1119247190749435
 10
285.4287663859731
 20
177.97406639583
 42
-0.1030783360639639
 10
284.7713203435594
 20
177.1115223689147
 42
-0.0926219775485581
 10
283.8168773891823
 20
176.553100614891
 42
-0.0863780754328268
 10
282.6499999999997
 20
176.35
 42
-0.0863780754328282
 10
281.4831226108172
 20
176.553100614891
 42
-0.0926219775485525
 10
280.5286796564404
 20
177.1115223689147
 42
-0.1030783360639595
 10
279.8712336140265
 20
177.97406639583
 42
-0.1119247190749262
  0
LWPOLYLINE
  5
F83
330
1E
100
AcDbEntity
  8
PEG-L75AG
100
AcDbPolyline
 90
       10
 70
     0
 43
0.0
 10
286.0462566844655
 20
178.8090158735753
 42
-0.0953206201181722
 10
286.25
 20
177.75
 42
-0.1094518446865946
 10
285.98290325554
 20
176.5444606842309
 42
-0.1023760341357163
 10
285.1955844122716
 20
175.487258300203
 42
-0.0937369940414508
 10
284.0465275754766
 20
174.7989253491609
 42
-0.0884260944203377
 10
282.6499999999997
 20
174.55
 42
-0.0884260944203338
 10
281.253472424523
 20
174.7989253491609
 42
-0.0937369940414472
 10
280.1044155877281
 20
175.487258300203
 42
-0.1023760341357016
 10
279.3170967444599
 20
176.5444606842308
 42
-0.1094518446866017
 10
279.05
 20
177.75
 42
-0.1094518446866118
  0
LWPOLYLINE
  5
F8F
330
1E
100
AcDbEntity
  8
PEG-L75AG
100
AcDbPolyline
 90
        9
 70
     0
 43
0.0
 10
286.05
 20
177.75
 42
-0.1101684349312781
 10
285.7981826015428
 20
176.6209966258454
 42
-0.1025859099047287
 10
285.0541630560342
 20
175.6286796564403
 42
-0.0934149953728751
 10
283.9699795530356
 20
174.9836564355231
 42
-0.0878249183358827
 10
282.6499999999997
 20
174.75
 42
-0.0878249183358797
 10
281.3300204469641
 20
174.9836564355231
 42
-0.0934149953728656
 10
280.2458369439656
 20
175.6286796564403
 42
-0.1025859099047326
 10
279.5018173984569
 20
176.6209966258456
 42
-0.1101684349312523
 10
279.2499999999999
 20
177.75
 42
-0.1101684349312803
  0
LWPOLYLINE
  5
F9A
330
1E
100
AcDbEntity
  8
PEG-L75AG
100
AcDbPolyline
 90
        4
 70
     0
 43
0.0
 10
280.9654700538379
 20
178.75
 10
281.7499999999999
 20
180.1088457268118
 10
283.55
 20
180.1088457268118
 10
284.3345299461621
 20
178.75
  0
LWPOLYLINE
  5
FA0
330
1E
100
AcDbEntity
  8
PEG-L75AG
100
AcDbPolyline
 90
        6
 70
     1
 43
0.0
 10
284.45
 20
178.9499999999999
 10
283.55
 20
177.391154273188
 10
281.7499999999999
 20
177.391154273188
 10
280.85
 20
178.9499999999999
 10
281.7499999999999
 20
180.5088457268118
 10
283.55
 20
180.5088457268118
  0
LWPOLYLINE
  5
FA8
330
1E
100
AcDbEntity
  8
PEG-L75AG
100
AcDbPolyline
 90
        2
 70
     0
 43
0.0
 10
279.05
 20
177.75
 42
-0.0953206201181701
 10
279.2537433155345
 20
178.8090158735755
 42
-0.1023760341356948
  0
LINE
  5
FAC
330
1E
100
AcDbEntity
  8
PEG-L75AG
100
AcDbLine
 10
279.2499999999999
 20
177.75
 30
0.0
 11
279.2499999999999
 21
178.9615781599852
 31
0.0
  0
LWPOLYLINE
  5
FAD
330
1E
100
AcDbEntity
  8
PEG-L75AG
100
AcDbPolyline
 90
        4
 70
     0
 43
0.0
 10
303.5345299461618
 20
178.75
 10
302.7499999999998
 20
180.1088457268118
 10
300.95
 20
180.1088457268118
 10
300.1654700538379
 20
178.75
  0
LWPOLYLINE
  5
FB3
330
1E
100
AcDbEntity
  8
PEG-L75AG
100
AcDbPolyline
 90
       16
 70
     1
 43
0.0
 10
304.85
 20
178.9499999999999
 42
0.1119247190749198
 10
304.6287663859732
 20
179.9259336041699
 42
0.1030783360639438
 10
303.9713203435596
 20
180.788477631085
 42
0.0926219775485416
 10
303.0168773891825
 20
181.3468993851086
 42
0.0863780754328249
 10
301.85
 20
181.55
 42
0.0863780754328282
 10
300.6831226108173
 20
181.3468993851086
 42
0.0926219775485521
 10
299.7286796564403
 20
180.788477631085
 42
0.1030783360639703
 10
299.0712336140266
 20
179.9259336041698
 42
0.1119247190749461
 10
298.85
 20
178.9499999999999
 42
0.1119247190749435
 10
299.0712336140266
 20
177.97406639583
 42
0.1030783360639639
 10
299.7286796564403
 20
177.1115223689147
 42
0.0926219775485581
 10
300.6831226108173
 20
176.553100614891
 42
0.0863780754328268
 10
301.85
 20
176.35
 42
0.0863780754328282
 10
303.0168773891825
 20
176.553100614891
 42
0.0926219775485525
 10
303.9713203435596
 20
177.1115223689147
 42
0.1030783360639595
 10
304.6287663859732
 20
177.97406639583
 42
0.1119247190749262
  0
LWPOLYLINE
  5
FC5
330
1E
100
AcDbEntity
  8
PEG-L75AG
100
AcDbPolyline
 90
       16
 70
     1
 43
0.0
 10
305.25
 20
178.9499999999999
 42
0.1101684349312803
 10
304.9981826015429
 20
180.0790033741545
 42
0.1025859099047343
 10
304.2541630560342
 20
181.0713203435596
 42
0.0934149953728658
 10
303.1699795530357
 20
181.7163435644765
 42
0.0878249183358797
 10
301.85
 20
181.9499999999999
 42
0.0878249183358785
 10
300.5300204469643
 20
181.7163435644767
 42
0.0934149953728712
 10
299.4458369439657
 20
181.0713203435596
 42
0.1025859099047371
 10
298.7018173984569
 20
180.0790033741545
 42
0.1101684349312813
 10
298.45
 20
178.9499999999999
 42
0.1101684349312781
 10
298.7018173984569
 20
177.8209966258454
 42
0.1025859099047287
 10
299.4458369439657
 20
176.8286796564403
 42
0.0934149953728751
 10
300.5300204469643
 20
176.1836564355231
 42
0.0878249183358827
 10
301.85
 20
175.9499999999999
 42
0.0878249183358797
 10
303.1699795530357
 20
176.1836564355231
 42
0.0934149953728656
 10
304.2541630560342
 20
176.8286796564403
 42
0.1025859099047326
 10
304.9981826015429
 20
177.8209966258456
 42
0.1101684349312523
  0
LWPOLYLINE
  5
FD7
330
1E
100
AcDbEntity
  8
PEG-L75AG
100
AcDbPolyline
 90
        6
 70
     1
 43
0.0
 10
300.05
 20
178.9499999999999
 10
300.95
 20
177.391154273188
 10
302.7499999999998
 20
177.391154273188
 10
303.6499999999997
 20
178.9499999999999
 10
302.7499999999998
 20
180.5088457268118
 10
300.95
 20
180.5088457268118
  0
LWPOLYLINE
  5
FDF
330
1E
100
AcDbEntity
  8
PEG-L75AG
100
AcDbPolyline
 90
        9
 70
     0
 43
0.0
 10
298.45
 20
177.75
 42
0.1101684349312781
 10
298.7018173984569
 20
176.6209966258454
 42
0.1025859099047287
 10
299.4458369439657
 20
175.6286796564403
 42
0.0934149953728751
 10
300.5300204469643
 20
174.9836564355231
 42
0.0878249183358827
 10
301.85
 20
174.75
 42
0.0878249183358797
 10
303.1699795530357
 20
174.9836564355231
 42
0.0934149953728656
 10
304.2541630560342
 20
175.6286796564403
 42
0.1025859099047326
 10
304.9981826015429
 20
176.6209966258456
 42
0.1101684349312523
 10
305.25
 20
177.75
 42
0.1101684349312803
  0
LWPOLYLINE
  5
FEA
330
1E
100
AcDbEntity
  8
PEG-L75AG
100
AcDbPolyline
 90
       10
 70
     0
 43
0.0
 10
298.4537433155344
 20
178.8090158735753
 42
0.0953206201181722
 10
298.2499999999999
 20
177.75
 42
0.1094518446865946
 10
298.51709674446
 20
176.5444606842309
 42
0.1023760341357163
 10
299.3044155877283
 20
175.487258300203
 42
0.0937369940414508
 10
300.4534724245232
 20
174.7989253491609
 42
0.0884260944203377
 10
301.85
 20
174.55
 42
0.0884260944203338
 10
303.2465275754767
 20
174.7989253491609
 42
0.0937369940414472
 10
304.3955844122716
 20
175.487258300203
 42
0.1023760341357016
 10
305.1829032555398
 20
176.5444606842308
 42
0.1094518446866017
 10
305.4499999999998
 20
177.75
 42
0.1094518446866118
  0
LINE
  5
FF6
330
1E
100
AcDbEntity
  8
PEG-L75AG
100
AcDbLine
 10
286.05
 20
177.75
 30
0.0
 11
286.05
 21
178.9615781599852
 31
0.0
  0
LINE
  5
FF7
330
1E
100
AcDbEntity
  8
PEG-L75AG
100
AcDbLine
 10
298.4499999999998
 20
177.75
 30
0.0
 11
298.45
 21
178.9615781599852
 31
0.0
  0
LINE
  5
FF8
330
1E
100
AcDbEntity
  8
PEG-L75AG
100
AcDbLine
 10
305.25
 20
177.75
 30
0.0
 11
305.25
 21
178.9615781599852
 31
0.0
  0
LWPOLYLINE
  5
FF9
330
1E
100
AcDbEntity
  8
PEG-L75AG
100
AcDbPolyline
 90
        2
 70
     0
 43
0.0
 10
305.4499999999998
 20
177.75
 42
0.0953206201181701
 10
305.2462566844655
 20
178.8090158735755
 42
0.1023760341356948
  0
TEXT
  5
100D
330
1E
100
AcDbEntity
  8
PEG-L75AG
100
AcDbText
 10
191.25
 20
96.75
 30
0.0
 40
3.149999999999999
  1
PEF-L75AG
100
AcDbText
  0
ENDSEC
  0
SECTION
  2
OBJECTS
  0
DICTIONARY
  5
C
330
0
100
AcDbDictionary
  3
ACAD_GROUP
350
D
  3
ACAD_LAYOUT
350
19
  3
ACAD_MLINESTYLE
350
16
  3
ACAD_PLOTSETTINGS
350
18
  3
ACAD_PLOTSTYLENAME
350
E
  3
DWGPROPS
350
1241
  3
ACDBHEADERROUNDTRIPXREC
350
129C
  0
DICTIONARY
  5
1266
330
1E
100
AcDbDictionary
280
     1
  3
ACAD_LAYOUTSELFREF
360
12BD
  0
DICTIONARY
  5
1264
330
1A
100
AcDbDictionary
280
     1
  3
ACAD_LAYOUTSELFREF
360
12BC
  0
DICTIONARY
  5
D
102
{ACAD_REACTORS
330
C
102
}
330
C
100
AcDbDictionary
  0
DICTIONARY
  5
19
102
{ACAD_REACTORS
330
C
102
}
330
C
100
AcDbDictionary
  0
DICTIONARY
  5
16
102
{ACAD_REACTORS
330
C
102
}
330
C
100
AcDbDictionary
  3
STANDARD
350
17
  0
DICTIONARY
  5
18
102
{ACAD_REACTORS
330
C
102
}
330
C
100
AcDbDictionary
  0
ACDBDICTIONARYWDFLT
  5
E
102
{ACAD_REACTORS
330
C
102
}
330
C
100
AcDbDictionary
281
     1
  3
Normal
350
F
100
AcDbDictionaryWithDefault
340
F
  0
XRECORD
  5
1241
102
{ACAD_REACTORS
330
C
102
}
330
C
100
AcDbXrecord
  1
DWGPROPS COOKIE
  2

  3

  4

  6

  7

  8
한신
  9

300
=
301
=
302
=
303
=
304
=
305
=
306
=
307
=
308
=
309
=
 40
0.3102056712962963
 41
2450308.573907755
 42
2451814.612326967
  1

 90
        0
  0
DICTIONARY
  5
129C
102
{ACAD_REACTORS
330
C
102
}
330
C
100
AcDbDictionary
  3
TSTACKALIGN
350
129D
  3
TSTACKSIZE
350
129E
  3
HYPERLINKBASE
350
129F
  3
STYLESHEET
350
12A0
  3
LAYOUTDICT
350
12A1
  3
PLOTSETDICT
350
12A2
  3
PLOTSTYLNAMDICT
350
12A3
  3
LWETCUNION
350
12A4
  3
INSUNITS
350
12A5
  3
CEPSNTYPE
350
12A6
  3
FINGERPRINTGUID
350
12A7
  3
VERSIONGUID
350
12A8
  3
PSVPSCALE
350
12A9
  3
PUCSORTHOREF
350
12AA
  3
PUCSORTHOVIEW
350
12AB
  3
PUCSBASE
350
12AC
  3
PUCSORGTOP
350
12AD
  3
PUCSORGBOTTOM
350
12AE
  3
PUCSORGLEFT
350
12AF
  3
PUCSORGRIGHT
350
12B0
  3
PUCSORGFRONT
350
12B1
  3
PUCSORGBACK
350
12B2
  3
UCSORTHOREF
350
12B3
  3
UCSORTHOVIEW
350
12B4
  3
UCSBASE
350
12B5
  3
UCSORGTOP
350
12B6
  3
UCSORGBOTTOM
350
12B7
  3
UCSORGLEFT
350
12B8
  3
UCSORGRIGHT
350
12B9
  3
UCSORGFRONT
350
12BA
  3
UCSORGBACK
350
12BB
  0
XRECORD
  5
12BD
102
{ACAD_REACTORS
330
1266
102
}
330
1266
100
AcDbXrecord
340
1E
  0
XRECORD
  5
12BC
102
{ACAD_REACTORS
330
1264
102
}
330
1264
100
AcDbXrecord
340
1A
  0
MLINESTYLE
  5
17
102
{ACAD_REACTORS
330
16
102
}
330
16
100
AcDbMlineStyle
  2
STANDARD
 70
     0
  3

 62
   256
 51
90.0
 52
90.0
 71
     2
 49
0.5
 62
   256
  6
BYLAYER
 49
-0.5
 62
   256
  6
BYLAYER
  0
ACDBPLACEHOLDER
  5
F
102
{ACAD_REACTORS
330
E
102
}
330
E
100
AcDbPlaceHolder
280
     0
  0
XRECORD
  5
129D
102
{ACAD_REACTORS
330
129C
102
}
330
129C
100
AcDbXrecord
 90
        1
  0
XRECORD
  5
129E
102
{ACAD_REACTORS
330
129C
102
}
330
129C
100
AcDbXrecord
 90
       70
  0
XRECORD
  5
129F
102
{ACAD_REACTORS
330
129C
102
}
330
129C
100
AcDbXrecord
  1

  0
XRECORD
  5
12A0
102
{ACAD_REACTORS
330
129C
102
}
330
129C
100
AcDbXrecord
  1

  0
XRECORD
  5
12A1
102
{ACAD_REACTORS
330
129C
102
}
330
129C
100
AcDbXrecord
340
19
  0
XRECORD
  5
12A2
102
{ACAD_REACTORS
330
129C
102
}
330
129C
100
AcDbXrecord
340
18
  0
XRECORD
  5
12A3
102
{ACAD_REACTORS
330
129C
102
}
330
129C
100
AcDbXrecord
340
E
  0
XRECORD
  5
12A4
102
{ACAD_REACTORS
330
129C
102
}
330
129C
100
AcDbXrecord
 90
    14877
  0
XRECORD
  5
12A5
102
{ACAD_REACTORS
330
129C
102
}
330
129C
100
AcDbXrecord
 90
        0
  0
XRECORD
  5
12A6
102
{ACAD_REACTORS
330
129C
102
}
330
129C
100
AcDbXrecord
 90
        0
  0
XRECORD
  5
12A7
102
{ACAD_REACTORS
330
129C
102
}
330
129C
100
AcDbXrecord
  1
{2E5998D7-6201-11D4-BC29-A0594FC10001}
  0
XRECORD
  5
12A8
102
{ACAD_REACTORS
330
129C
102
}
330
129C
100
AcDbXrecord
  1
{5739D3B6-2198-42D3-B40F-228248205471}
  0
XRECORD
  5
12A9
102
{ACAD_REACTORS
330
129C
102
}
330
129C
100
AcDbXrecord
 40
0.0
  0
XRECORD
  5
12AA
102
{ACAD_REACTORS
330
129C
102
}
330
129C
100
AcDbXrecord
340
0
  0
XRECORD
  5
12AB
102
{ACAD_REACTORS
330
129C
102
}
330
129C
100
AcDbXrecord
 70
     0
  0
XRECORD
  5
12AC
102
{ACAD_REACTORS
330
129C
102
}
330
129C
100
AcDbXrecord
340
0
  0
XRECORD
  5
12AD
102
{ACAD_REACTORS
330
129C
102
}
330
129C
100
AcDbXrecord
 10
0.0
 20
0.0
 30
0.0
  0
XRECORD
  5
12AE
102
{ACAD_REACTORS
330
129C
102
}
330
129C
100
AcDbXrecord
 10
0.0
 20
0.0
 30
0.0
  0
XRECORD
  5
12AF
102
{ACAD_REACTORS
330
129C
102
}
330
129C
100
AcDbXrecord
 10
0.0
 20
0.0
 30
0.0
  0
XRECORD
  5
12B0
102
{ACAD_REACTORS
330
129C
102
}
330
129C
100
AcDbXrecord
 10
0.0
 20
0.0
 30
0.0
  0
XRECORD
  5
12B1
102
{ACAD_REACTORS
330
129C
102
}
330
129C
100
AcDbXrecord
 10
0.0
 20
0.0
 30
0.0
  0
XRECORD
  5
12B2
102
{ACAD_REACTORS
330
129C
102
}
330
129C
100
AcDbXrecord
 10
0.0
 20
0.0
 30
0.0
  0
XRECORD
  5
12B3
102
{ACAD_REACTORS
330
129C
102
}
330
129C
100
AcDbXrecord
340
0
  0
XRECORD
  5
12B4
102
{ACAD_REACTORS
330
129C
102
}
330
129C
100
AcDbXrecord
 70
     0
  0
XRECORD
  5
12B5
102
{ACAD_REACTORS
330
129C
102
}
330
129C
100
AcDbXrecord
340
0
  0
XRECORD
  5
12B6
102
{ACAD_REACTORS
330
129C
102
}
330
129C
100
AcDbXrecord
 10
0.0
 20
0.0
 30
0.0
  0
XRECORD
  5
12B7
102
{ACAD_REACTORS
330
129C
102
}
330
129C
100
AcDbXrecord
 10
0.0
 20
0.0
 30
0.0
  0
XRECORD
  5
12B8
102
{ACAD_REACTORS
330
129C
102
}
330
129C
100
AcDbXrecord
 10
0.0
 20
0.0
 30
0.0
  0
XRECORD
  5
12B9
102
{ACAD_REACTORS
330
129C
102
}
330
129C
100
AcDbXrecord
 10
0.0
 20
0.0
 30
0.0
  0
XRECORD
  5
12BA
102
{ACAD_REACTORS
330
129C
102
}
330
129C
100
AcDbXrecord
 10
0.0
 20
0.0
 30
0.0
  0
XRECORD
  5
12BB
102
{ACAD_REACTORS
330
129C
102
}
330
129C
100
AcDbXrecord
 10
0.0
 20
0.0
 30
0.0
  0
ENDSEC
  0
EOF
